  0
SECTION
  2
HEADER
  9
$ACADVER
  1
AC1018
  9
$ACADMAINTVER
 70
   104
  9
$DWGCODEPAGE
  3
ANSI_932
  9
$AUTHOR
  1
pyxis04
  9
$LASTSAVEDBY
  1
pyxis04
  9
$INSBASE
 10
0.0
 20
0.0
 30
0.0
  9
$EXTMIN
 10
171873.1
 20
91869.1
 30
0.0
  9
$EXTMAX
 10
201573.2
 20
112869.2
 30
0.0
  9
$LIMMIN
 10
113974.262998
 20
29620.262998
  9
$LIMMAX
 10
259472.037002
 20
175118.037002
  9
$ORTHOMODE
 70
     0
  9
$REGENMODE
 70
     1
  9
$FILLMODE
 70
     1
  9
$QTEXTMODE
 70
     0
  9
$MIRRTEXT
 70
     0
  9
$LTSCALE
 40
1.0
  9
$ATTMODE
 70
     1
  9
$TEXTSIZE
 40
225.0
  9
$TRACEWID
 40
1.0
  9
$TEXTSTYLE
  7
Standard
  9
$CLAYER
  8
A221_記入文字
  9
$CELTYPE
  6
Continuous
  9
$CECOLOR
 62
     7
  9
$CELTSCALE
 40
50.0
  9
$DISPSILH
 70
     0
  9
$DIMSCALE
 40
1.0
  9
$DIMASZ
 40
2.5
  9
$DIMEXO
 40
0.625
  9
$DIMDLI
 40
3.75
  9
$DIMRND
 40
0.0
  9
$DIMDLE
 40
0.0
  9
$DIMEXE
 40
1.25
  9
$DIMTP
 40
0.0
  9
$DIMTM
 40
0.0
  9
$DIMTXT
 40
2.5
  9
$DIMCEN
 40
2.5
  9
$DIMTSZ
 40
0.0
  9
$DIMTOL
 70
     0
  9
$DIMLIM
 70
     0
  9
$DIMTIH
 70
     0
  9
$DIMTOH
 70
     0
  9
$DIMSE1
 70
     0
  9
$DIMSE2
 70
     0
  9
$DIMTAD
 70
     1
  9
$DIMZIN
 70
     8
  9
$DIMBLK
  1

  9
$DIMASO
 70
     1
  9
$DIMSHO
 70
     1
  9
$DIMPOST
  1

  9
$DIMAPOST
  1

  9
$DIMALT
 70
     0
  9
$DIMALTD
 70
     3
  9
$DIMALTF
 40
0.03937
  9
$DIMLFAC
 40
1.0
  9
$DIMTOFL
 70
     1
  9
$DIMTVP
 40
0.0
  9
$DIMTIX
 70
     0
  9
$DIMSOXD
 70
     0
  9
$DIMSAH
 70
     0
  9
$DIMBLK1
  1

  9
$DIMBLK2
  1

  9
$DIMSTYLE
  2
ISO-25
  9
$DIMCLRD
 70
     0
  9
$DIMCLRE
 70
     0
  9
$DIMCLRT
 70
     0
  9
$DIMTFAC
 40
1.0
  9
$DIMGAP
 40
0.625
  9
$DIMJUST
 70
     0
  9
$DIMSD1
 70
     0
  9
$DIMSD2
 70
     0
  9
$DIMTOLJ
 70
     0
  9
$DIMTZIN
 70
     8
  9
$DIMALTZ
 70
     0
  9
$DIMALTTZ
 70
     0
  9
$DIMUPT
 70
     0
  9
$DIMDEC
 70
     2
  9
$DIMTDEC
 70
     2
  9
$DIMALTU
 70
     2
  9
$DIMALTTD
 70
     3
  9
$DIMTXSTY
  7
Standard
  9
$DIMAUNIT
 70
     0
  9
$DIMADEC
 70
     0
  9
$DIMALTRND
 40
0.0
  9
$DIMAZIN
 70
     0
  9
$DIMDSEP
 70
    44
  9
$DIMATFIT
 70
     3
  9
$DIMFRAC
 70
     0
  9
$DIMLDRBLK
  1

  9
$DIMLUNIT
 70
     2
  9
$DIMLWD
 70
    -2
  9
$DIMLWE
 70
    -2
  9
$DIMTMOVE
 70
     0
  9
$LUNITS
 70
     2
  9
$LUPREC
 70
     6
  9
$SKETCHINC
 40
1.0
  9
$FILLETRAD
 40
0.0
  9
$AUNITS
 70
     0
  9
$AUPREC
 70
     8
  9
$MENU
  1
.
  9
$ELEVATION
 40
0.0
  9
$PELEVATION
 40
0.0
  9
$THICKNESS
 40
0.0
  9
$LIMCHECK
 70
     0
  9
$CHAMFERA
 40
0.0
  9
$CHAMFERB
 40
0.0
  9
$CHAMFERC
 40
0.0
  9
$CHAMFERD
 40
0.0
  9
$SKPOLY
 70
     0
  9
$TDCREATE
 40
2454145.195247280
  9
$TDUCREATE
 40
2454144.820247280
  9
$TDUPDATE
 40
2454145.196122512
  9
$TDUUPDATE
 40
2454144.821122512
  9
$TDINDWG
 40
0.0008795718
  9
$TDUSRTIMER
 40
0.0008777199
  9
$USRTIMER
 70
     1
  9
$ANGBASE
 50
0.0
  9
$ANGDIR
 70
     0
  9
$PDMODE
 70
     0
  9
$PDSIZE
 40
0.0
  9
$PLINEWID
 40
0.0
  9
$SPLFRAME
 70
     0
  9
$SPLINETYPE
 70
     6
  9
$SPLINESEGS
 70
     8
  9
$HANDSEED
  5
B464
  9
$SURFTAB1
 70
     6
  9
$SURFTAB2
 70
     6
  9
$SURFTYPE
 70
     6
  9
$SURFU
 70
     6
  9
$SURFV
 70
     6
  9
$UCSBASE
  2

  9
$UCSNAME
  2

  9
$UCSORG
 10
0.0
 20
0.0
 30
0.0
  9
$UCSXDIR
 10
1.0
 20
0.0
 30
0.0
  9
$UCSYDIR
 10
0.0
 20
1.0
 30
0.0
  9
$UCSORTHOREF
  2

  9
$UCSORTHOVIEW
 70
     0
  9
$UCSORGTOP
 10
0.0
 20
0.0
 30
0.0
  9
$UCSORGBOTTOM
 10
0.0
 20
0.0
 30
0.0
  9
$UCSORGLEFT
 10
0.0
 20
0.0
 30
0.0
  9
$UCSORGRIGHT
 10
0.0
 20
0.0
 30
0.0
  9
$UCSORGFRONT
 10
0.0
 20
0.0
 30
0.0
  9
$UCSORGBACK
 10
0.0
 20
0.0
 30
0.0
  9
$PUCSBASE
  2

  9
$PUCSNAME
  2

  9
$PUCSORG
 10
0.0
 20
0.0
 30
0.0
  9
$PUCSXDIR
 10
1.0
 20
0.0
 30
0.0
  9
$PUCSYDIR
 10
0.0
 20
1.0
 30
0.0
  9
$PUCSORTHOREF
  2

  9
$PUCSORTHOVIEW
 70
     0
  9
$PUCSORGTOP
 10
0.0
 20
0.0
 30
0.0
  9
$PUCSORGBOTTOM
 10
0.0
 20
0.0
 30
0.0
  9
$PUCSORGLEFT
 10
0.0
 20
0.0
 30
0.0
  9
$PUCSORGRIGHT
 10
0.0
 20
0.0
 30
0.0
  9
$PUCSORGFRONT
 10
0.0
 20
0.0
 30
0.0
  9
$PUCSORGBACK
 10
0.0
 20
0.0
 30
0.0
  9
$USERI1
 70
     0
  9
$USERI2
 70
     0
  9
$USERI3
 70
     0
  9
$USERI4
 70
     0
  9
$USERI5
 70
     0
  9
$USERR1
 40
0.0
  9
$USERR2
 40
0.0
  9
$USERR3
 40
0.0
  9
$USERR4
 40
0.0
  9
$USERR5
 40
0.0
  9
$WORLDVIEW
 70
     1
  9
$SHADEDGE
 70
     3
  9
$SHADEDIF
 70
    70
  9
$TILEMODE
 70
     1
  9
$MAXACTVP
 70
    64
  9
$PINSBASE
 10
0.0
 20
0.0
 30
0.0
  9
$PLIMCHECK
 70
     0
  9
$PEXTMIN
 10
25.7
 20
19.5
 30
0.0
  9
$PEXTMAX
 10
231.3
 20
175.5
 30
0.0
  9
$PLIMMIN
 10
-20.0
 20
-7.5
  9
$PLIMMAX
 10
277.0
 20
202.5
  9
$UNITMODE
 70
     0
  9
$VISRETAIN
 70
     1
  9
$PLINEGEN
 70
     0
  9
$PSLTSCALE
 70
     0
  9
$TREEDEPTH
 70
  3020
  9
$CMLSTYLE
  2
Standard
  9
$CMLJUST
 70
     0
  9
$CMLSCALE
 40
20.0
  9
$PROXYGRAPHICS
 70
     1
  9
$MEASUREMENT
 70
     1
  9
$CELWEIGHT
370
    13
  9
$ENDCAPS
280
     0
  9
$JOINSTYLE
280
     0
  9
$LWDISPLAY
290
     1
  9
$INSUNITS
 70
     4
  9
$HYPERLINKBASE
  1

  9
$STYLESHEET
  1

  9
$XEDIT
290
     1
  9
$CEPSNTYPE
380
     0
  9
$PSTYLEMODE
290
     1
  9
$FINGERPRINTGUID
  2
{2E07DBA6-C422-4A11-8D26-1759724C544A}
  9
$VERSIONGUID
  2
{387A601E-E697-4F95-A263-71BCBFF6BFF5}
  9
$EXTNAMES
290
     1
  9
$PSVPSCALE
 40
0.0
  9
$OLESTARTUP
290
     0
  9
$SORTENTS
280
   127
  9
$INDEXCTL
280
     0
  9
$HIDETEXT
280
     1
  9
$XCLIPFRAME
290
     0
  9
$HALOGAP
280
     0
  9
$OBSCOLOR
 70
   257
  9
$OBSLTYPE
280
     0
  9
$INTERSECTIONDISPLAY
280
     0
  9
$INTERSECTIONCOLOR
 70
   257
  9
$DIMASSOC
280
     1
  9
$PROJECTNAME
  1

  0
ENDSEC
  0
SECTION
  2
CLASSES
  0
CLASS
  1
ACDBDICTIONARYWDFLT
  2
AcDbDictionaryWithDefault
  3
ObjectDBX Classes
 90
        0
 91
        1
280
     0
281
     0
  0
CLASS
  1
DICTIONARYVAR
  2
AcDbDictionaryVar
  3
ObjectDBX Classes
 90
        0
 91
        3
280
     0
281
     0
  0
CLASS
  1
TABLESTYLE
  2
AcDbTableStyle
  3
ObjectDBX Classes
 90
     4095
 91
        1
280
     0
281
     0
  0
CLASS
  1
MATERIAL
  2
AcDbMaterial
  3
ObjectDBX Classes
 90
     1153
 91
        3
280
     0
281
     0
  0
CLASS
  1
VISUALSTYLE
  2
AcDbVisualStyle
  3
ObjectDBX Classes
 90
     4095
 91
        3
280
     0
281
     0
  0
CLASS
  1
SCALE
  2
AcDbScale
  3
ObjectDBX Classes
 90
     1153
 91
       17
280
     0
281
     0
  0
CLASS
  1
MLEADERSTYLE
  2
AcDbMLeaderStyle
  3
ACDB_MLEADERSTYLE_CLASS
 90
     4095
 91
        0
280
     0
281
     0
  0
CLASS
  1
CELLSTYLEMAP
  2
AcDbCellStyleMap
  3
ObjectDBX Classes
 90
     1152
 91
        1
280
     0
281
     0
  0
ENDSEC
  0
SECTION
  2
TABLES
  0
TABLE
  2
VPORT
  5
B411
330
0
100
AcDbSymbolTable
 70
     2
  0
VPORT
  5
4B
330
B411
100
AcDbSymbolTableRecord
100
AcDbViewportTableRecord
  2
*ACTIVE
 70
     0
 10
0.0
 20
0.0
 11
1.0
 21
1.0
 12
186723.137725
 22
102369.154865
 13
0.0
 23
0.0
 14
100.0
 24
100.0
 15
100.0
 25
100.0
 16
0.0
 26
0.0
 36
1.0
 17
0.0
 27
0.0
 37
0.0
 40
21840.0
 41
3.442559
 42
50.0
 43
0.0
 44
0.0
 50
0.0
 51
0.0
 71
     0
 72
   100
 73
     1
 74
     0
 75
     0
 76
     0
 77
     0
 78
     1
281
     0
 65
     1
110
0.0
120
0.0
130
0.0
111
1.0
121
0.0
131
0.0
112
0.0
122
1.0
132
0.0
 79
     0
146
0.0
  0
ENDTAB
  0
TABLE
  2
LTYPE
  5
B40C
330
0
100
AcDbSymbolTable
 70
    13
  0
LTYPE
  5
B40D
330
B40C
100
AcDbSymbolTableRecord
100
AcDbLinetypeTableRecord
  2
ByBlock
 70
     0
  3

 72
    65
 73
     0
 40
0.0
  0
LTYPE
  5
B40E
330
B40C
100
AcDbSymbolTableRecord
100
AcDbLinetypeTableRecord
  2
ByLayer
 70
     0
  3

 72
    65
 73
     0
 40
0.0
  0
LTYPE
  5
B3FB
330
B40C
100
AcDbSymbolTableRecord
100
AcDbLinetypeTableRecord
  2
Continuous
 70
     0
  3
Solid line
 72
    65
 73
     0
 40
0.0
  0
LTYPE
  5
442B
330
B40C
100
AcDbSymbolTableRecord
100
AcDbLinetypeTableRecord
  2
4_CENTER2
 70
     0
  3

 72
    65
 73
     4
 40
1.88
 49
1.4
 74
     0
 49
-0.16
 74
     0
 49
0.16
 74
     0
 49
-0.16
 74
     0
  0
LTYPE
  5
442D
330
B40C
100
AcDbSymbolTableRecord
100
AcDbLinetypeTableRecord
  2
7_CENTER
 70
     0
  3

 72
    65
 73
     4
 40
6.68
 49
6.2
 74
     0
 49
-0.16
 74
     0
 49
0.16
 74
     0
 49
-0.16
 74
     0
  0
LTYPE
  5
4510
330
B40C
100
AcDbSymbolTableRecord
100
AcDbLinetypeTableRecord
  2
2_HIDDEN2
 70
     0
  3

 72
    65
 73
     2
 40
0.34
 49
0.24
 74
     0
 49
-0.1
 74
     0
  0
LTYPE
  5
454A
330
B40C
100
AcDbSymbolTableRecord
100
AcDbLinetypeTableRecord
  2
1_HIDDEN
 70
     0
  3

 72
    65
 73
     2
 40
0.1
 49
0.0
 74
     0
 49
-0.1
 74
     0
  0
LTYPE
  5
455C
330
B40C
100
AcDbSymbolTableRecord
100
AcDbLinetypeTableRecord
  2
6_PHANTOM
 70
     0
  3

 72
    65
 73
     6
 40
4.9
 49
4.2
 74
     0
 49
-0.14
 74
     0
 49
0.14
 74
     0
 49
-0.14
 74
     0
 49
0.14
 74
     0
 49
-0.14
 74
     0
  0
LTYPE
  5
456E
330
B40C
100
AcDbSymbolTableRecord
100
AcDbLinetypeTableRecord
  2
3_DASHED
 70
     0
  3

 72
    65
 73
     2
 40
0.58
 49
0.48
 74
     0
 49
-0.1
 74
     0
  0
LTYPE
  5
4D7E
330
B40C
100
AcDbSymbolTableRecord
100
AcDbLinetypeTableRecord
  2
CENTER
 70
     0
  3

 72
    65
 73
     4
 40
50.8
 49
31.75
 74
     0
 49
-6.35
 74
     0
 49
6.35
 74
     0
 49
-6.35
 74
     0
  0
LTYPE
  5
B449
330
B40C
100
AcDbSymbolTableRecord
100
AcDbLinetypeTableRecord
  2
DGN Style 1
 70
     0
  3
Dgn Style 1
 72
    65
 73
     2
 40
0.6
 49
0.0
 74
     0
 49
-0.6
 74
     0
  0
LTYPE
  5
B44A
330
B40C
100
AcDbSymbolTableRecord
100
AcDbLinetypeTableRecord
  2
DGN Style 2
 70
     0
  3
Dgn Style 2
 72
    65
 73
     2
 40
1.0
 49
0.6
 74
     0
 49
-0.4
 74
     0
  0
LTYPE
  5
B44B
330
B40C
100
AcDbSymbolTableRecord
100
AcDbLinetypeTableRecord
  2
DGN Style 6
 70
     0
  3
Dgn Style 6
 72
    65
 73
     6
 40
1.9
 49
0.0
 74
     0
 49
-0.4
 74
     0
 49
0.7
 74
     0
 49
-0.4
 74
     0
 49
0.0
 74
     0
 49
-0.4
 74
     0
  0
LTYPE
  5
B44C
330
B40C
100
AcDbSymbolTableRecord
100
AcDbLinetypeTableRecord
  2
DGN Style 4
 70
     0
  3
Dgn Style 4
 72
    65
 73
     4
 40
1.6
 49
0.8
 74
     0
 49
-0.4
 74
     0
 49
0.0
 74
     0
 49
-0.4
 74
     0
  0
LTYPE
  5
B44D
330
B40C
100
AcDbSymbolTableRecord
100
AcDbLinetypeTableRecord
  2
DGN Style 3
 70
     0
  3
Dgn Style 3
 72
    65
 73
     2
 40
1.4
 49
1.0
 74
     0
 49
-0.4
 74
     0
  0
ENDTAB
  0
TABLE
  2
LAYER
  5
B406
102
{ACAD_XDICTIONARY
360
B407
102
}
330
0
100
AcDbSymbolTable
 70
   136
  0
LAYER
  5
B3EE
330
B406
100
AcDbSymbolTableRecord
100
AcDbLayerTableRecord
  2
0
 70
     0
 62
     7
  6
Continuous
370
    -3
390
B3EF
  0
LAYER
  5
53C2
330
B406
100
AcDbSymbolTableRecord
100
AcDbLayerTableRecord
  2
A231_壁：種別
 70
     0
 62
     7
  6
Continuous
370
     9
390
B3EF
  0
LAYER
  5
9708
330
B406
100
AcDbSymbolTableRecord
100
AcDbLayerTableRecord
  2
枠
 70
     0
 62
     7
  6
Continuous
290
     0
370
     9
390
B3EF
  0
LAYER
  5
9982
330
B406
100
AcDbSymbolTableRecord
100
AcDbLayerTableRecord
  2
1階座席
 70
     0
 62
     3
  6
Continuous
370
     9
390
B3EF
  0
LAYER
  5
9B25
330
B406
100
AcDbSymbolTableRecord
100
AcDbLayerTableRecord
  2
3-0通芯
 70
     0
 62
     7
  6
Continuous
370
     9
390
B3EF
  0
LAYER
  5
9DCA
330
B406
100
AcDbSymbolTableRecord
100
AcDbLayerTableRecord
  2
2階座席
 70
     0
 62
     5
  6
Continuous
370
     9
390
B3EF
  0
LAYER
  5
4D86
330
B406
100
AcDbSymbolTableRecord
100
AcDbLayerTableRecord
  2
A242_記号２
 70
     0
 62
     7
  6
Continuous
370
     9
390
B3EF
  0
LAYER
  5
4D87
330
B406
100
AcDbSymbolTableRecord
100
AcDbLayerTableRecord
  2
A670_細点線
 70
     0
 62
     7
  6
DGN Style 1
370
     9
390
B3EF
  0
LAYER
  5
4D88
330
B406
100
AcDbSymbolTableRecord
100
AcDbLayerTableRecord
  2
A661_中破線
 70
     0
 62
     7
  6
DGN Style 2
370
    13
390
B3EF
  0
LAYER
  5
4D89
330
B406
100
AcDbSymbolTableRecord
100
AcDbLayerTableRecord
  2
A622_シャッター
 70
     0
 62
     7
  6
DGN Style 6
370
    13
390
B3EF
  0
LAYER
  5
4D8A
330
B406
100
AcDbSymbolTableRecord
100
AcDbLayerTableRecord
  2
A854_衛生設備_記号
 70
     0
 62
   250
  6
Continuous
370
    13
390
B3EF
  0
LAYER
  5
4D8B
330
B406
100
AcDbSymbolTableRecord
100
AcDbLayerTableRecord
  2
A322_ハッチング点線
 70
     0
 62
     7
  6
DGN Style 1
370
     9
390
B3EF
  0
LAYER
  5
4D8C
330
B406
100
AcDbSymbolTableRecord
100
AcDbLayerTableRecord
  2
A743_駐車場
 70
     0
 62
     7
  6
Continuous
370
     9
390
B3EF
  0
LAYER
  5
4D8D
330
B406
100
AcDbSymbolTableRecord
100
AcDbLayerTableRecord
  2
A740_外構
 70
     0
 62
     7
  6
Continuous
370
     9
390
B3EF
  0
LAYER
  5
4D8E
330
B406
100
AcDbSymbolTableRecord
100
AcDbLayerTableRecord
  2
A823_サイン
 70
     0
 62
     7
  6
Continuous
370
     9
390
B3EF
  0
LAYER
  5
4D8F
330
B406
100
AcDbSymbolTableRecord
100
AcDbLayerTableRecord
  2
A856_消防設備
 70
     0
 62
     7
  6
DGN Style 6
370
    13
390
B3EF
  0
LAYER
  5
4D90
330
B406
100
AcDbSymbolTableRecord
100
AcDbLayerTableRecord
  2
A571_床ピット
 70
     0
 62
     7
  6
Continuous
370
     9
390
B3EF
  0
LAYER
  5
4D91
330
B406
100
AcDbSymbolTableRecord
100
AcDbLayerTableRecord
  2
C132_ＧＬ
 70
     0
 62
     7
  6
DGN Style 4
370
     9
390
B3EF
  0
LAYER
  5
4D92
330
B406
100
AcDbSymbolTableRecord
100
AcDbLayerTableRecord
  2
A343_基礎
 70
     0
 62
     7
  6
Continuous
370
     9
390
B3EF
  0
LAYER
  5
4D93
330
B406
100
AcDbSymbolTableRecord
100
AcDbLayerTableRecord
  2
A344_樋
 70
     0
 62
     7
  6
Continuous
370
     9
390
B3EF
  0
LAYER
  5
4D95
330
B406
100
AcDbSymbolTableRecord
100
AcDbLayerTableRecord
  2
A711_自敷地境界線
 70
     0
 62
     7
  6
DGN Style 6
370
    30
390
B3EF
  0
LAYER
  5
4D96
330
B406
100
AcDbSymbolTableRecord
100
AcDbLayerTableRecord
  2
A733_工作物
 70
     0
 62
     7
  6
Continuous
370
     9
390
B3EF
  0
LAYER
  5
4D97
330
B406
100
AcDbSymbolTableRecord
100
AcDbLayerTableRecord
  2
A732_舗装
 70
     0
 62
     7
  6
Continuous
370
     9
390
B3EF
  0
LAYER
  5
4D98
330
B406
100
AcDbSymbolTableRecord
100
AcDbLayerTableRecord
  2
A741_擁壁
 70
     0
 62
     7
  6
Continuous
370
     9
390
B3EF
  0
LAYER
  5
4D99
330
B406
100
AcDbSymbolTableRecord
100
AcDbLayerTableRecord
  2
A742_解体建物
 70
     0
 62
     7
  6
Continuous
370
     9
390
B3EF
  0
LAYER
  5
4D9A
330
B406
100
AcDbSymbolTableRecord
100
AcDbLayerTableRecord
  2
A650_細実線
 70
     0
 62
    30
  6
Continuous
370
     9
390
B3EF
  0
LAYER
  5
4D9B
330
B406
100
AcDbSymbolTableRecord
100
AcDbLayerTableRecord
  2
A651_中実線
 70
     0
 62
     7
  6
Continuous
370
    13
390
B3EF
  0
LAYER
  5
4D9C
330
B406
100
AcDbSymbolTableRecord
100
AcDbLayerTableRecord
  2
A652_太実線
 70
     0
 62
     7
  6
Continuous
370
    30
390
B3EF
  0
LAYER
  5
4D9D
330
B406
100
AcDbSymbolTableRecord
100
AcDbLayerTableRecord
  2
A660_細破線
 70
     0
 62
     7
  6
DGN Style 2
370
     9
390
B3EF
  0
LAYER
  5
4D9E
330
B406
100
AcDbSymbolTableRecord
100
AcDbLayerTableRecord
  2
A662_太破線
 70
     0
 62
     7
  6
DGN Style 2
370
    30
390
B3EF
  0
LAYER
  5
4D9F
330
B406
100
AcDbSymbolTableRecord
100
AcDbLayerTableRecord
  2
A671_中点線
 70
     0
 62
     7
  6
DGN Style 1
370
    13
390
B3EF
  0
LAYER
  5
4DA0
330
B406
100
AcDbSymbolTableRecord
100
AcDbLayerTableRecord
  2
A672_太点線
 70
     0
 62
     7
  6
DGN Style 1
370
    30
390
B3EF
  0
LAYER
  5
4DA1
330
B406
100
AcDbSymbolTableRecord
100
AcDbLayerTableRecord
  2
A680_細鎖線
 70
     0
 62
     7
  6
DGN Style 6
370
     9
390
B3EF
  0
LAYER
  5
4DA2
330
B406
100
AcDbSymbolTableRecord
100
AcDbLayerTableRecord
  2
A681_中鎖線
 70
     0
 62
     7
  6
DGN Style 6
370
    13
390
B3EF
  0
LAYER
  5
4DA3
330
B406
100
AcDbSymbolTableRecord
100
AcDbLayerTableRecord
  2
A682_太鎖線
 70
     0
 62
     7
  6
DGN Style 6
370
    30
390
B3EF
  0
LAYER
  5
4DA4
330
B406
100
AcDbSymbolTableRecord
100
AcDbLayerTableRecord
  2
A244_記号中線
 70
     0
 62
     7
  6
Continuous
370
    13
390
B3EF
  0
LAYER
  5
4DA5
330
B406
100
AcDbSymbolTableRecord
100
AcDbLayerTableRecord
  2
A245_記号太線
 70
     0
 62
     7
  6
Continuous
370
    30
390
B3EF
  0
LAYER
  5
4DA6
330
B406
100
AcDbSymbolTableRecord
100
AcDbLayerTableRecord
  2
A246_記号点線
 70
     0
 62
     7
  6
DGN Style 1
370
     9
390
B3EF
  0
LAYER
  5
4DA7
330
B406
100
AcDbSymbolTableRecord
100
AcDbLayerTableRecord
  2
A247_記号破線
 70
     0
 62
     7
  6
DGN Style 2
370
     9
390
B3EF
  0
LAYER
  5
4DA8
330
B406
100
AcDbSymbolTableRecord
100
AcDbLayerTableRecord
  2
A323_ハッチング破線
 70
     0
 62
     7
  6
DGN Style 2
370
     9
390
B3EF
  0
LAYER
  5
4DA9
330
B406
100
AcDbSymbolTableRecord
100
AcDbLayerTableRecord
  2
A714_各種制限線
 70
     0
 62
     7
  6
DGN Style 6
370
     9
390
B3EF
  0
LAYER
  5
4DAA
330
B406
100
AcDbSymbolTableRecord
100
AcDbLayerTableRecord
  2
A565_目地点線
 70
     0
 62
     7
  6
DGN Style 1
370
     9
390
B3EF
  0
LAYER
  5
4DAB
330
B406
100
AcDbSymbolTableRecord
100
AcDbLayerTableRecord
  2
A566_目地破線
 70
     0
 62
     7
  6
DGN Style 2
370
     9
390
B3EF
  0
LAYER
  5
4DAC
330
B406
100
AcDbSymbolTableRecord
100
AcDbLayerTableRecord
  2
A347_防水
 70
     0
 62
     7
  6
DGN Style 6
370
    13
390
B3EF
  0
LAYER
  5
4DAD
330
B406
100
AcDbSymbolTableRecord
100
AcDbLayerTableRecord
  2
A222_引出線
 70
     0
 62
     7
  6
Continuous
370
     9
390
B3EF
  0
LAYER
  5
4DAE
330
B406
100
AcDbSymbolTableRecord
100
AcDbLayerTableRecord
  2
A712_他敷地境界線
 70
     0
 62
     7
  6
DGN Style 6
370
     9
390
B3EF
  0
LAYER
  5
4DAF
330
B406
100
AcDbSymbolTableRecord
100
AcDbLayerTableRecord
  2
A614_カーテン実線
 70
     0
 62
     7
  6
Continuous
370
     9
390
B3EF
  0
LAYER
  5
4DB0
330
B406
100
AcDbSymbolTableRecord
100
AcDbLayerTableRecord
  2
A842_搬送機破線
 70
     0
 62
     7
  6
DGN Style 2
370
     9
390
B3EF
  0
LAYER
  5
4DB1
330
B406
100
AcDbSymbolTableRecord
100
AcDbLayerTableRecord
  2
C131_通芯
 70
     0
 62
     7
  6
DGN Style 4
370
     9
390
B3EF
  0
LAYER
  5
4DB2
330
B406
100
AcDbSymbolTableRecord
100
AcDbLayerTableRecord
  2
C151_壁芯
 70
     0
 62
     7
  6
DGN Style 4
370
     9
390
B3EF
  0
LAYER
  5
4DB3
330
B406
100
AcDbSymbolTableRecord
100
AcDbLayerTableRecord
  2
C135_捨芯
 70
     0
 62
     7
  6
DGN Style 4
290
     0
370
     9
390
B3EF
  0
LAYER
  5
4999
330
B406
100
AcDbSymbolTableRecord
100
AcDbLayerTableRecord
  2
A221_記入文字
 70
     0
 62
     7
  6
Continuous
370
     9
390
B3EF
  0
LAYER
  5
4C79
330
B406
100
AcDbSymbolTableRecord
100
AcDbLayerTableRecord
  2
A341_床ピット
 70
     0
 62
   201
  6
Continuous
370
    13
390
B3EF
  0
LAYER
  5
4C7B
330
B406
100
AcDbSymbolTableRecord
100
AcDbLayerTableRecord
  2
C111_図枠
 70
     0
 62
     7
  6
Continuous
370
     9
390
B3EF
  0
LAYER
  5
4C7D
330
B406
100
AcDbSymbolTableRecord
100
AcDbLayerTableRecord
  2
C121_図面名称
 70
     0
 62
     7
  6
Continuous
370
    53
390
B3EF
  0
LAYER
  5
4C7F
330
B406
100
AcDbSymbolTableRecord
100
AcDbLayerTableRecord
  2
C115_OFF
 70
     0
 62
     7
  6
Continuous
290
     0
370
     9
390
B3EF
  0
LAYER
  5
4C83
330
B406
100
AcDbSymbolTableRecord
100
AcDbLayerTableRecord
  2
C132_FL
 70
     0
 62
     7
  6
Continuous
370
    40
390
B3EF
  0
LAYER
  5
4C87
330
B406
100
AcDbSymbolTableRecord
100
AcDbLayerTableRecord
  2
C133_雑芯
 70
     0
 62
     7
  6
DGN Style 4
370
     9
390
B3EF
  0
LAYER
  5
4C89
330
B406
100
AcDbSymbolTableRecord
100
AcDbLayerTableRecord
  2
C134_雑芯２
 70
     0
 62
     7
  6
DGN Style 4
370
     9
390
B3EF
  0
LAYER
  5
4C8D
330
B406
100
AcDbSymbolTableRecord
100
AcDbLayerTableRecord
  2
C136_雑芯３
 70
     0
 62
     7
  6
DGN Style 4
370
     9
390
B3EF
  0
LAYER
  5
4C8F
330
B406
100
AcDbSymbolTableRecord
100
AcDbLayerTableRecord
  2
C137_雑芯４
 70
     0
 62
   254
  6
DGN Style 4
370
     9
390
B3EF
  0
LAYER
  5
4C91
330
B406
100
AcDbSymbolTableRecord
100
AcDbLayerTableRecord
  2
C138_雑芯５
 70
     0
 62
    40
  6
DGN Style 4
370
     9
390
B3EF
  0
LAYER
  5
4459
330
B406
100
AcDbSymbolTableRecord
100
AcDbLayerTableRecord
  2
C161_通心寸法
 70
     0
 62
     7
  6
Continuous
370
     9
390
B3EF
  0
LAYER
  5
445D
330
B406
100
AcDbSymbolTableRecord
100
AcDbLayerTableRecord
  2
C162_その他寸法
 70
     0
 62
     7
  6
Continuous
370
     9
390
B3EF
  0
LAYER
  5
4C95
330
B406
100
AcDbSymbolTableRecord
100
AcDbLayerTableRecord
  2
A211_室名
 70
     0
 62
     7
  6
Continuous
370
     9
390
B3EF
  0
LAYER
  5
4C97
330
B406
100
AcDbSymbolTableRecord
100
AcDbLayerTableRecord
  2
A241_方位
 70
     0
 62
     7
  6
Continuous
370
     9
390
B3EF
  0
LAYER
  5
4C99
330
B406
100
AcDbSymbolTableRecord
100
AcDbLayerTableRecord
  2
A242_記号
 70
     0
 62
     7
  6
Continuous
370
     9
390
B3EF
  0
LAYER
  5
4C9B
330
B406
100
AcDbSymbolTableRecord
100
AcDbLayerTableRecord
  2
A243_建具記号
 70
     0
 62
     7
  6
Continuous
370
     9
390
B3EF
  0
LAYER
  5
4C9D
330
B406
100
AcDbSymbolTableRecord
100
AcDbLayerTableRecord
  2
A245_雲マーク
 70
     0
 62
     7
  6
Continuous
370
    40
390
B3EF
  0
LAYER
  5
4C9F
330
B406
100
AcDbSymbolTableRecord
100
AcDbLayerTableRecord
  2
A311_吹抜線
 70
     0
 62
     7
  6
DGN Style 4
370
     9
390
B3EF
  0
LAYER
  5
4CA1
330
B406
100
AcDbSymbolTableRecord
100
AcDbLayerTableRecord
  2
A321_ハッチング
 70
     0
 62
     7
  6
Continuous
370
     9
390
B3EF
  0
LAYER
  5
4CA3
330
B406
100
AcDbSymbolTableRecord
100
AcDbLayerTableRecord
  2
A342_屋根・庇
 70
     0
 62
     7
  6
Continuous
370
     9
390
B3EF
  0
LAYER
  5
4CA5
330
B406
100
AcDbSymbolTableRecord
100
AcDbLayerTableRecord
  2
A343_機械基礎
 70
     0
 62
     7
  6
Continuous
370
     9
390
B3EF
  0
LAYER
  5
4CA7
330
B406
100
AcDbSymbolTableRecord
100
AcDbLayerTableRecord
  2
A361_ＯＦＦ
 70
     0
 62
     7
  6
Continuous
370
     9
390
B3EF
  0
LAYER
  5
4CA9
330
B406
100
AcDbSymbolTableRecord
100
AcDbLayerTableRecord
  2
A411_柱：ＲＣ
 70
     0
 62
     7
  6
DGN Style 2
370
     9
390
B3EF
  0
LAYER
  5
4CAB
330
B406
100
AcDbSymbolTableRecord
100
AcDbLayerTableRecord
  2
A412_柱：Ｓ
 70
     0
 62
     7
  6
Continuous
370
    30
390
B3EF
  0
LAYER
  5
4CAD
330
B406
100
AcDbSymbolTableRecord
100
AcDbLayerTableRecord
  2
A421_壁：ＲＣ
 70
     0
 62
     7
  6
Continuous
370
    30
390
B3EF
  0
LAYER
  5
4CAF
330
B406
100
AcDbSymbolTableRecord
100
AcDbLayerTableRecord
  2
A422_壁：ＡＬＣ
 70
     0
 62
     7
  6
Continuous
370
    13
390
B3EF
  0
LAYER
  5
4CB1
330
B406
100
AcDbSymbolTableRecord
100
AcDbLayerTableRecord
  2
A431_梁
 70
     0
 62
     7
  6
Continuous
370
     9
390
B3EF
  0
LAYER
  5
4CB3
330
B406
100
AcDbSymbolTableRecord
100
AcDbLayerTableRecord
  2
A441_壁：ＬＧＳ
 70
     0
 62
     7
  6
Continuous
370
    13
390
B3EF
  0
LAYER
  5
4CB5
330
B406
100
AcDbSymbolTableRecord
100
AcDbLayerTableRecord
  2
A442_壁：木軸
 70
     0
 62
     7
  6
Continuous
370
    13
390
B3EF
  0
LAYER
  5
4CB7
330
B406
100
AcDbSymbolTableRecord
100
AcDbLayerTableRecord
  2
A444_壁：下地鉄骨、間柱
 70
     0
 62
     7
  6
Continuous
370
     9
390
B3EF
  0
LAYER
  5
4CB9
330
B406
100
AcDbSymbolTableRecord
100
AcDbLayerTableRecord
  2
A521_壁：仕上
 70
     0
 62
     7
  6
Continuous
370
    30
390
B3EF
  0
LAYER
  5
4CBB
330
B406
100
AcDbSymbolTableRecord
100
AcDbLayerTableRecord
  2
R003_防火区画
 70
     0
 62
     7
  6
Continuous
370
    70
390
B3EF
  0
LAYER
  5
4CBD
330
B406
100
AcDbSymbolTableRecord
100
AcDbLayerTableRecord
  2
R004_防煙区画
 70
     0
 62
     7
  6
Continuous
370
    70
390
B3EF
  0
LAYER
  5
4CBF
330
B406
100
AcDbSymbolTableRecord
100
AcDbLayerTableRecord
  2
A522_壁：仕上
 70
     0
 62
     7
  6
Continuous
370
    30
390
B3EF
  0
LAYER
  5
4CC1
330
B406
100
AcDbSymbolTableRecord
100
AcDbLayerTableRecord
  2
A523_壁：仕上
 70
     0
 62
     7
  6
Continuous
370
    30
390
B3EF
  0
LAYER
  5
4CC3
330
B406
100
AcDbSymbolTableRecord
100
AcDbLayerTableRecord
  2
A524_壁：仕上
 70
     0
 62
     7
  6
Continuous
370
    30
390
B3EF
  0
LAYER
  5
4CC5
330
B406
100
AcDbSymbolTableRecord
100
AcDbLayerTableRecord
  2
A525_壁：仕上
 70
     0
 62
     7
  6
Continuous
370
    30
390
B3EF
  0
LAYER
  5
4CC7
330
B406
100
AcDbSymbolTableRecord
100
AcDbLayerTableRecord
  2
A531_パーティション
 70
     0
 62
     7
  6
Continuous
370
    13
390
B3EF
  0
LAYER
  5
4CC9
330
B406
100
AcDbSymbolTableRecord
100
AcDbLayerTableRecord
  2
A551_階段
 70
     0
 62
     7
  6
Continuous
370
     9
390
B3EF
  0
LAYER
  5
4CCB
330
B406
100
AcDbSymbolTableRecord
100
AcDbLayerTableRecord
  2
A561_耐火被覆
 70
     0
 62
     7
  6
Continuous
370
     9
390
B3EF
  0
LAYER
  5
4CCD
330
B406
100
AcDbSymbolTableRecord
100
AcDbLayerTableRecord
  2
A562_断熱材
 70
     0
 62
     7
  6
Continuous
370
     9
390
B3EF
  0
LAYER
  5
4CCF
330
B406
100
AcDbSymbolTableRecord
100
AcDbLayerTableRecord
  2
A563_手摺
 70
     0
 62
     7
  6
Continuous
370
     9
390
B3EF
  0
LAYER
  5
4CD1
330
B406
100
AcDbSymbolTableRecord
100
AcDbLayerTableRecord
  2
A564_目地
 70
     0
 62
     7
  6
Continuous
370
     9
390
B3EF
  0
LAYER
  5
4CD3
330
B406
100
AcDbSymbolTableRecord
100
AcDbLayerTableRecord
  2
A565_側溝
 70
     0
 62
     7
  6
Continuous
370
     9
390
B3EF
  0
LAYER
  5
4CD5
330
B406
100
AcDbSymbolTableRecord
100
AcDbLayerTableRecord
  2
A566_樋
 70
     0
 62
     7
  6
Continuous
370
     9
390
B3EF
  0
LAYER
  5
4CD7
330
B406
100
AcDbSymbolTableRecord
100
AcDbLayerTableRecord
  2
A568_EXP．J
 70
     0
 62
     7
  6
Continuous
370
     9
390
B3EF
  0
LAYER
  5
4CD9
330
B406
100
AcDbSymbolTableRecord
100
AcDbLayerTableRecord
  2
A569_雑金物
 70
     0
 62
     7
  6
Continuous
370
     9
390
B3EF
  0
LAYER
  5
4CDB
330
B406
100
AcDbSymbolTableRecord
100
AcDbLayerTableRecord
  2
A611_窓
 70
     0
 62
     7
  6
Continuous
370
     9
390
B3EF
  0
LAYER
  5
4CDD
330
B406
100
AcDbSymbolTableRecord
100
AcDbLayerTableRecord
  2
A621_扉枠
 70
     0
 62
     7
  6
Continuous
370
    30
390
B3EF
  0
LAYER
  5
4CDF
330
B406
100
AcDbSymbolTableRecord
100
AcDbLayerTableRecord
  2
A624_沓摺
 70
     0
 62
     7
  6
Continuous
370
     9
390
B3EF
  0
LAYER
  5
4CE1
330
B406
100
AcDbSymbolTableRecord
100
AcDbLayerTableRecord
  2
A622_扉
 70
     0
 62
     7
  6
Continuous
370
    13
390
B3EF
  0
LAYER
  5
4CE3
330
B406
100
AcDbSymbolTableRecord
100
AcDbLayerTableRecord
  2
A725_等高線
 70
     0
 62
     7
  6
Continuous
370
     9
390
B3EF
  0
LAYER
  5
4CE5
330
B406
100
AcDbSymbolTableRecord
100
AcDbLayerTableRecord
  2
A731_門･塀
 70
     0
 62
     7
  6
Continuous
370
     9
390
B3EF
  0
LAYER
  5
4CE7
330
B406
100
AcDbSymbolTableRecord
100
AcDbLayerTableRecord
  2
A741_植栽
 70
     0
 62
     7
  6
Continuous
370
     9
390
B3EF
  0
LAYER
  5
4CE9
330
B406
100
AcDbSymbolTableRecord
100
AcDbLayerTableRecord
  2
A811_造作家具
 70
     0
 62
     7
  6
Continuous
370
     9
390
B3EF
  0
LAYER
  5
4CEB
330
B406
100
AcDbSymbolTableRecord
100
AcDbLayerTableRecord
  2
A822_別途：家具
 70
     0
 62
     7
  6
DGN Style 1
370
     9
390
B3EF
  0
LAYER
  5
4CED
330
B406
100
AcDbSymbolTableRecord
100
AcDbLayerTableRecord
  2
A831_衛生機器
 70
     0
 62
     7
  6
Continuous
370
     9
390
B3EF
  0
LAYER
  5
4CEF
330
B406
100
AcDbSymbolTableRecord
100
AcDbLayerTableRecord
  2
A841_ＥＬＶ・ＥＳＣ
 70
     0
 62
     7
  6
Continuous
370
     9
390
B3EF
  0
LAYER
  5
4CF1
330
B406
100
AcDbSymbolTableRecord
100
AcDbLayerTableRecord
  2
A851_電気設備_実形
 70
     0
 62
     7
  6
Continuous
370
     9
390
B3EF
  0
LAYER
  5
4CF3
330
B406
100
AcDbSymbolTableRecord
100
AcDbLayerTableRecord
  2
A855_空調設備_実形
 70
     0
 62
    67
  6
Continuous
370
     9
390
B3EF
  0
LAYER
  5
4CF5
330
B406
100
AcDbSymbolTableRecord
100
AcDbLayerTableRecord
  2
R001_申請用文字
 70
     0
 62
     7
  6
Continuous
370
     9
390
B3EF
  0
LAYER
  5
4CF7
330
B406
100
AcDbSymbolTableRecord
100
AcDbLayerTableRecord
  2
R002_1F延焼の恐れのある部分
 70
     0
 62
     7
  6
DGN Style 4
370
     9
390
B3EF
  0
LAYER
  5
4CF9
330
B406
100
AcDbSymbolTableRecord
100
AcDbLayerTableRecord
  2
R012_2F延焼の恐れのある部分
 70
     0
 62
     7
  6
DGN Style 4
370
     9
390
B3EF
  0
LAYER
  5
4CFB
330
B406
100
AcDbSymbolTableRecord
100
AcDbLayerTableRecord
  2
A362_ON
 70
     0
 62
     7
  6
Continuous
370
     9
390
B3EF
  0
LAYER
  5
4CFD
330
B406
100
AcDbSymbolTableRecord
100
AcDbLayerTableRecord
  2
A425_石・タイル
 70
     0
 62
     7
  6
Continuous
370
    13
390
B3EF
  0
LAYER
  5
4CFF
330
B406
100
AcDbSymbolTableRecord
100
AcDbLayerTableRecord
  2
A570_樹脂類
 70
     0
 62
     7
  6
Continuous
370
     9
390
B3EF
  0
LAYER
  5
4D01
330
B406
100
AcDbSymbolTableRecord
100
AcDbLayerTableRecord
  2
A571_シーリング
 70
     0
 62
     7
  6
Continuous
370
     9
390
B3EF
  0
LAYER
  5
4D03
330
B406
100
AcDbSymbolTableRecord
100
AcDbLayerTableRecord
  2
A860_車両
 70
     0
 62
     7
  6
DGN Style 2
370
     9
390
B3EF
  0
LAYER
  5
4D05
330
B406
100
AcDbSymbolTableRecord
100
AcDbLayerTableRecord
  2
A331_見上げ線
 70
     0
 62
     7
  6
DGN Style 2
370
     9
390
B3EF
  0
LAYER
  5
4D07
330
B406
100
AcDbSymbolTableRecord
100
AcDbLayerTableRecord
  2
A613_カーテンボックス
 70
     0
 62
     7
  6
Continuous
370
     9
390
B3EF
  0
LAYER
  5
4D09
330
B406
100
AcDbSymbolTableRecord
100
AcDbLayerTableRecord
  2
A346_見え掛り線
 70
     0
 62
     7
  6
Continuous
370
     9
390
B3EF
  0
LAYER
  5
4D0B
330
B406
100
AcDbSymbolTableRecord
100
AcDbLayerTableRecord
  2
A430_地業
 70
     0
 62
    35
  6
Continuous
370
     9
390
B3EF
  0
LAYER
  5
4D0D
330
B406
100
AcDbSymbolTableRecord
100
AcDbLayerTableRecord
  2
A711_境界線
 70
     0
 62
     7
  6
Continuous
370
     9
390
B3EF
  0
LAYER
  5
4D0F
330
B406
100
AcDbSymbolTableRecord
100
AcDbLayerTableRecord
  2
A735_建物の外周線
 70
     0
 62
     7
  6
Continuous
370
    30
390
B3EF
  0
LAYER
  5
4D11
330
B406
100
AcDbSymbolTableRecord
100
AcDbLayerTableRecord
  2
A736_既存建物
 70
     0
 62
     4
  6
DGN Style 3
370
     9
390
B3EF
  0
LAYER
  5
4D13
330
B406
100
AcDbSymbolTableRecord
100
AcDbLayerTableRecord
  2
A722_周辺道路
 70
     0
 62
     8
  6
Continuous
370
     9
390
B3EF
  0
LAYER
  5
4D15
330
B406
100
AcDbSymbolTableRecord
100
AcDbLayerTableRecord
  2
A723_周辺建物
 70
     0
 62
   201
  6
Continuous
370
     9
390
B3EF
  0
LAYER
  5
4D17
330
B406
100
AcDbSymbolTableRecord
100
AcDbLayerTableRecord
  2
A345_既存部分
 70
     0
 62
     8
  6
DGN Style 2
370
     9
390
B3EF
  0
LAYER
  5
4D19
330
B406
100
AcDbSymbolTableRecord
100
AcDbLayerTableRecord
  2
A312_面積算定線
 70
     0
 62
     7
  6
Continuous
370
    40
390
B3EF
  0
LAYER
  5
4D1B
330
B406
100
AcDbSymbolTableRecord
100
AcDbLayerTableRecord
  2
A853_衛生設備_実形
 70
     0
 62
     7
  6
Continuous
370
     9
390
B3EF
  0
LAYER
  5
4D1E
330
B406
100
AcDbSymbolTableRecord
100
AcDbLayerTableRecord
  2
A721_道路中心線
 70
     0
 62
     7
  6
Continuous
370
     9
390
B3EF
  0
LAYER
  5
4D20
330
B406
100
AcDbSymbolTableRecord
100
AcDbLayerTableRecord
  2
A713_斜線制限
 70
     0
 62
     7
  6
Continuous
370
     9
390
B3EF
  0
LAYER
  5
4D22
330
B406
100
AcDbSymbolTableRecord
100
AcDbLayerTableRecord
  2
A733_ストリートファニチャ
 70
     0
 62
     7
  6
Continuous
370
     9
390
B3EF
  0
LAYER
  5
4D24
330
B406
100
AcDbSymbolTableRecord
100
AcDbLayerTableRecord
  2
A732_ペイブメント
 70
     0
 62
     7
  6
Continuous
370
     9
390
B3EF
  0
ENDTAB
  0
TABLE
  2
STYLE
  5
B409
330
0
100
AcDbSymbolTable
 70
     3
  0
STYLE
  5
B40A
330
B409
100
AcDbSymbolTableRecord
100
AcDbTextStyleTableRecord
  2
Standard
 70
     0
 40
0.0
 41
1.0
 50
0.0
 71
     0
 42
225.0
  3
txt
  4

  0
STYLE
  5
B44E
330
B409
100
AcDbSymbolTableRecord
100
AcDbTextStyleTableRecord
  2
Style-HGSｺﾞｼｯｸM
 70
     0
 40
0.0
 41
1.0
 50
0.0
 71
     0
 42
225.0
  3

  4

1001
ACAD
1000
HGSGothicM
1071
    32823
  0
STYLE
  5
B450
330
B409
100
AcDbSymbolTableRecord
100
AcDbTextStyleTableRecord
  2
Style-HG明朝B
 70
     0
 40
0.0
 41
1.0
 50
0.0
 71
     0
 42
225.0
  3

  4

1001
ACAD
1000
HGMinchoB
1071
    32790
  0
ENDTAB
  0
TABLE
  2
VIEW
  5
B40F
330
0
100
AcDbSymbolTable
 70
     0
  0
ENDTAB
  0
TABLE
  2
UCS
  5
B410
330
0
100
AcDbSymbolTable
 70
     0
  0
ENDTAB
  0
TABLE
  2
APPID
  5
B415
330
0
100
AcDbSymbolTable
 70
     2
  0
APPID
  5
B416
330
B415
100
AcDbSymbolTableRecord
100
AcDbRegAppTableRecord
  2
ACAD
 70
     0
  0
APPID
  5
B3FF
330
B415
100
AcDbSymbolTableRecord
100
AcDbRegAppTableRecord
  2
ACAD_PSEXT
 70
     0
  0
ENDTAB
  0
TABLE
  2
DIMSTYLE
  5
B417
330
0
100
AcDbSymbolTable
 70
     1
100
AcDbDimStyleTable
 71
     1
340
B418
  0
DIMSTYLE
105
B418
330
B417
100
AcDbSymbolTableRecord
100
AcDbDimStyleTableRecord
  2
ISO-25
 70
     0
 41
2.5
 42
0.625
 43
3.75
 44
1.25
 73
     0
 74
     0
 77
     1
 78
     8
140
2.5
141
2.5
143
0.03937
147
0.625
171
     3
172
     1
271
     2
272
     2
274
     3
278
    44
283
     0
284
     8
340
B40A
  0
ENDTAB
  0
TABLE
  2
BLOCK_RECORD
  5
B3EB
330
0
100
AcDbSymbolTable
 70
     0
  0
BLOCK_RECORD
  5
B3EC
330
B3EB
100
AcDbSymbolTableRecord
100
AcDbBlockTableRecord
  2
*Model_Space
340
B3FD
  0
BLOCK_RECORD
  5
B400
330
B3EB
100
AcDbSymbolTableRecord
100
AcDbBlockTableRecord
  2
*Paper_Space
340
B403
  0
ENDTAB
  0
ENDSEC
  0
SECTION
  2
BLOCKS
  0
BLOCK
  5
B3ED
330
B3EC
100
AcDbEntity
  8
0
100
AcDbBlockBegin
  2
*Model_Space
 70
     0
 10
0.0
 20
0.0
 30
0.0
  3
*Model_Space
  1

  0
ENDBLK
  5
B3FC
330
B3EC
100
AcDbEntity
  8
0
100
AcDbBlockEnd
  0
BLOCK
  5
B401
330
B400
100
AcDbEntity
 67
     1
  8
0
100
AcDbBlockBegin
  2
*Paper_Space
 70
     0
 10
0.0
 20
0.0
 30
0.0
  3
*Paper_Space
  1

  0
ENDBLK
  5
B402
330
B400
100
AcDbEntity
 67
     1
  8
0
100
AcDbBlockEnd
  0
ENDSEC
  0
SECTION
  2
ENTITIES
  0
TEXT
  5
AF51
330
B3EC
100
AcDbEntity
  8
1階座席
  6
Continuous
 62
     7
370
     9
100
AcDbText
 10
191289.541313
 20
92535.093994
 30
0.0
 40
325.0
  1
1
  7
Style-HGSｺﾞｼｯｸM
 11
191289.541313
 21
92860.093994
 31
0.0
100
AcDbText
 73
     3
  0
LWPOLYLINE
  5
AF52
330
B3EC
100
AcDbEntity
  8
3-0通芯
  6
Continuous
 62
     7
370
    13
100
AcDbPolyline
 90
        3
 70
   128
 43
0.0
 10
193659.080037
 20
106876.108157
 10
193459.080037
 20
107176.108157
 10
193259.080037
 20
106876.108157
  0
LWPOLYLINE
  5
AF53
330
B3EC
100
AcDbEntity
  8
3-0通芯
  6
Continuous
 62
     7
370
    13
100
AcDbPolyline
 90
        3
 70
   128
 43
0.0
 10
193659.080037
 20
98489.108157
 10
193459.080037
 20
98189.108157
 10
193259.080037
 20
98489.108157
  0
TEXT
  5
AF54
330
B3EC
100
AcDbEntity
  8
1階座席
  6
Continuous
 62
     7
370
    13
100
AcDbText
 10
193224.886512
 20
102566.381511
 30
0.0
 40
225.0
  1
8.9
  7
Style-HGSｺﾞｼｯｸM
 11
193224.886512
 21
102791.381511
 31
0.0
100
AcDbText
 73
     3
  0
LINE
  5
AF55
330
B3EC
100
AcDbEntity
  8
3-0通芯
  6
Continuous
 62
     7
370
    13
100
AcDbLine
 10
193459.080037
 20
98189.108157
 30
0.0
 11
193459.080037
 21
102182.608157
 31
0.0
  0
LINE
  5
AF56
330
B3EC
100
AcDbEntity
  8
3-0通芯
  6
Continuous
 62
     7
370
    13
100
AcDbLine
 10
187937.370802
 20
109385.068075
 30
0.0
 11
184766.870802
 21
109385.068075
 31
0.0
  0
TEXT
  5
AF57
330
B3EC
100
AcDbEntity
  8
1階座席
  6
Continuous
 62
     7
370
    13
100
AcDbText
 10
184070.419501
 20
109242.19696
 30
0.0
 40
225.0
  1
7.3
  7
Style-HGSｺﾞｼｯｸM
 11
184070.419501
 21
109467.19696
 31
0.0
100
AcDbText
 73
     3
  0
LINE
  5
AF58
330
B3EC
100
AcDbEntity
  8
3-0通芯
  6
Continuous
 62
     7
370
    13
100
AcDbLine
 10
183766.870802
 20
109385.068075
 30
0.0
 11
180596.370802
 21
109385.068075
 31
0.0
  0
LINE
  5
AF59
330
B3EC
100
AcDbEntity
  8
3-0通芯
  6
Continuous
 62
     7
370
    13
100
AcDbLine
 10
193459.080037
 20
103182.608157
 30
0.0
 11
193459.080037
 21
107176.108157
 31
0.0
  0
LWPOLYLINE
  5
AF5A
330
B3EC
100
AcDbEntity
  8
3-0通芯
  6
Continuous
 62
     7
370
    13
100
AcDbPolyline
 90
        3
 70
   128
 43
0.0
 10
187637.370802
 20
109585.068075
 10
187937.370802
 20
109385.068075
 10
187637.370802
 20
109185.068075
  0
LWPOLYLINE
  5
AF5B
330
B3EC
100
AcDbEntity
  8
3-0通芯
  6
Continuous
 62
     7
370
    13
100
AcDbPolyline
 90
        3
 70
   128
 43
0.0
 10
180896.370802
 20
109585.068075
 10
180596.370802
 20
109385.068075
 10
180896.370802
 20
109185.068075
  0
TEXT
  5
AF5C
330
B3EC
100
AcDbEntity
  8
1階座席
  6
Continuous
 62
     7
370
     9
100
AcDbText
 10
192245.088625
 20
93076.240977
 30
0.0
 40
275.0
  1
SC=1/100(A4)
 41
1.090909
  7
Style-HGSｺﾞｼｯｸM
 11
192245.088625
 21
93351.240977
 31
0.0
100
AcDbText
 73
     3
  0
TEXT
  5
AF5D
330
B3EC
100
AcDbEntity
  8
1階座席
  6
Continuous
 62
     7
370
     9
100
AcDbText
 10
183305.870717
 20
92721.154096
 30
0.0
 40
375.0
  1
大ホール控室（主催者控室）
 41
0.8
  7
Style-HGSｺﾞｼｯｸM
 11
183305.870717
 21
93096.154096
 31
0.0
100
AcDbText
 73
     3
  0
TEXT
  5
AF5E
330
B3EC
100
AcDbEntity
  8
1階座席
  6
Continuous
 62
     7
370
     9
100
AcDbText
 10
192470.734763
 20
92433.624758
 30
0.0
 40
325.0
  1
72
  7
Style-HGSｺﾞｼｯｸM
 11
192470.734763
 21
92758.624758
 31
0.0
100
AcDbText
 73
     3
  0
LWPOLYLINE
  5
AF5F
330
B3EC
100
AcDbEntity
  8
枠
  6
Continuous
 62
     7
370
     9
100
AcDbPolyline
 90
        5
 70
   129
 43
0.0
 10
171873.137725
 20
91869.154865
 10
171873.137725
 20
112869.154865
 10
201573.137725
 20
112869.154865
 10
201573.137725
 20
91869.154865
 10
171873.137725
 20
91869.154865
  0
LWPOLYLINE
  5
AF60
330
B3EC
100
AcDbEntity
  8
2階座席
  6
Continuous
 62
     7
370
    30
100
AcDbPolyline
 90
        5
 70
   129
 43
0.0
 10
172423.137725
 20
92419.154865
 10
172423.137725
 20
112319.154865
 10
201023.137725
 20
112319.154865
 10
201023.137725
 20
92419.154865
 10
172423.137725
 20
92419.154865
  0
LINE
  5
AF61
330
B3EC
100
AcDbEntity
  8
2階座席
  6
Continuous
 62
     7
370
    30
100
AcDbLine
 10
201023.137725
 20
93419.154865
 30
0.0
 11
172423.137725
 21
93419.154865
 31
0.0
  0
LINE
  5
AF62
330
B3EC
100
AcDbEntity
  8
2階座席
  6
Continuous
 62
     7
370
    30
100
AcDbLine
 10
195023.137725
 20
93419.154865
 30
0.0
 11
195023.137725
 21
92419.154865
 31
0.0
  0
MTEXT
  5
AF65
330
B3EC
100
AcDbEntity
  8
1階座席
  6
Continuous
 62
     7
370
     9
100
AcDbMText
 10
173238.843251
 20
93152.4348
 30
0.0
 40
375.0
 41
0.0
 71
     1
 72
     1
  1
\H1x;\W0.866667;\T1.325;名古屋市公会堂
  7
Style-HG明朝B
 73
     2
 44
0.6
  0
LINE
  5
AF66
330
B3EC
100
AcDbEntity
  8
2階座席
  6
Continuous
 62
     7
370
    30
100
AcDbLine
 10
195023.137725
 20
93419.154865
 30
0.0
 11
195023.137725
 21
92419.154865
 31
0.0
  0
LINE
  5
AF67
330
B3EC
100
AcDbEntity
  8
2階座席
  6
Continuous
 62
     7
370
    30
100
AcDbLine
 10
192023.137725
 20
93419.154865
 30
0.0
 11
192023.137725
 21
92419.154865
 31
0.0
  0
LINE
  5
AF68
330
B3EC
100
AcDbEntity
  8
2階座席
  6
Continuous
 62
     7
370
    13
100
AcDbLine
 10
192023.137725
 20
93007.721385
 30
0.0
 11
195023.137725
 21
93007.721385
 31
0.0
  0
LINE
  5
AF69
330
B3EC
100
AcDbEntity
  8
2階座席
  6
Continuous
 62
     7
370
    13
100
AcDbLine
 10
193523.137725
 20
93007.721385
 30
0.0
 11
193523.137725
 21
92419.154865
 31
0.0
  0
LINE
  5
AF6A
330
B3EC
100
AcDbEntity
  8
2階座席
  6
DGN Style 2
 62
     7
370
     9
100
AcDbLine
 10
192023.137725
 20
92765.040893
 30
0.0
 11
193523.137725
 21
92765.040893
 31
0.0
  0
TEXT
  5
AF6B
330
B3EC
100
AcDbEntity
  8
1階座席
  6
Continuous
 62
     7
370
     9
100
AcDbText
 10
193200.437723
 20
92475.443964
 30
0.0
 40
200.0
  1
㎡
  7
Style-HGSｺﾞｼｯｸM
 11
193200.437723
 21
92675.443964
 31
0.0
100
AcDbText
 73
     3
  0
LINE
  5
AF6C
330
B3EC
100
AcDbEntity
  8
2階座席
  6
Continuous
 62
     7
370
    30
100
AcDbLine
 10
191023.137725
 20
93419.154865
 30
0.0
 11
191023.137725
 21
92419.154865
 31
0.0
  0
LINE
  5
AF6D
330
B3EC
100
AcDbEntity
  8
2階座席
  6
DGN Style 2
 62
     7
370
     9
100
AcDbLine
 10
192023.137725
 20
93007.721385
 30
0.0
 11
191023.137725
 21
93007.721385
 31
0.0
  0
TEXT
  5
AF6E
330
B3EC
100
AcDbEntity
  8
1階座席
  6
Continuous
 62
     7
370
     9
100
AcDbText
 10
191663.248383
 20
92628.288072
 30
0.0
 40
175.0
  1
階
 41
1.142857
  7
Style-HGSｺﾞｼｯｸM
 11
191663.248383
 21
92803.288072
 31
0.0
100
AcDbText
 73
     3
  0
LINE
  5
AF6F
330
B3EC
100
AcDbEntity
  8
2階座席
  6
Continuous
 62
     7
370
    30
100
AcDbLine
 10
198523.137725
 20
94364.202145
 30
0.0
 11
198523.137725
 21
94114.202145
 31
0.0
  0
LINE
  5
AF70
330
B3EC
100
AcDbEntity
  8
2階座席
  6
Continuous
 62
     7
370
    30
100
AcDbLine
 10
188523.137725
 20
94364.202145
 30
0.0
 11
188523.137725
 21
94114.202145
 31
0.0
  0
LINE
  5
AF71
330
B3EC
100
AcDbEntity
  8
2階座席
  6
Continuous
 62
     7
370
    13
100
AcDbLine
 10
189523.137725
 20
94364.202145
 30
0.0
 11
189523.137725
 21
94114.202145
 31
0.0
  0
LINE
  5
AF72
330
B3EC
100
AcDbEntity
  8
2階座席
  6
Continuous
 62
     7
370
    13
100
AcDbLine
 10
190523.137725
 20
94364.202145
 30
0.0
 11
190523.137725
 21
94114.202145
 31
0.0
  0
LINE
  5
AF73
330
B3EC
100
AcDbEntity
  8
2階座席
  6
Continuous
 62
     7
370
    13
100
AcDbLine
 10
191523.137725
 20
94364.202145
 30
0.0
 11
191523.137725
 21
94114.202145
 31
0.0
  0
LINE
  5
AF74
330
B3EC
100
AcDbEntity
  8
2階座席
  6
Continuous
 62
     7
370
    13
100
AcDbLine
 10
192523.137725
 20
94364.202145
 30
0.0
 11
192523.137725
 21
94114.202145
 31
0.0
  0
LINE
  5
AF75
330
B3EC
100
AcDbEntity
  8
2階座席
  6
Continuous
 62
     7
370
    30
100
AcDbLine
 10
193523.137725
 20
94364.202145
 30
0.0
 11
193523.137725
 21
94114.202145
 31
0.0
  0
LINE
  5
AF76
330
B3EC
100
AcDbEntity
  8
2階座席
  6
Continuous
 62
     7
370
    13
100
AcDbLine
 10
188523.137725
 20
94114.202145
 30
0.0
 11
198523.137725
 21
94114.202145
 31
0.0
  0
LINE
  5
AF77
330
B3EC
100
AcDbEntity
  8
2階座席
  6
Continuous
 62
     7
370
    30
100
AcDbLine
 10
199523.137725
 20
94919.154865
 30
0.0
 11
199523.137725
 21
93469.154865
 31
0.0
  0
LINE
  5
AF78
330
B3EC
100
AcDbEntity
  8
2階座席
  6
Continuous
 62
     7
370
    30
100
AcDbLine
 10
199523.137725
 20
94919.154865
 30
0.0
 11
200973.137725
 21
94919.154865
 31
0.0
  0
CIRCLE
  5
AF79
330
B3EC
100
AcDbEntity
  8
2階座席
  6
Continuous
 62
     7
370
    30
100
AcDbCircle
 10
200273.137725
 20
94072.78983
 30
0.0
 40
443.7228623379668
  0
LWPOLYLINE
  5
AF7A
330
B3EC
100
AcDbEntity
  8
2階座席
  6
Continuous
 62
     7
370
    30
100
AcDbPolyline
 90
        3
 70
   128
 43
0.0
 10
200047.512725
 20
93690.712171
 10
200273.137725
 20
94516.512692
 10
200498.762725
 20
93690.712171
  0
LWPOLYLINE
  5
AF7B
330
B3EC
100
AcDbEntity
  8
2階座席
  6
Continuous
 62
     7
370
    30
100
AcDbPolyline
 90
        3
 70
   128
 43
0.0
 10
200047.512725
 20
93690.712171
 10
200273.137725
 20
93735.837171
 10
200498.762725
 20
93690.712171
  0
TEXT
  5
AF7C
330
B3EC
100
AcDbEntity
  8
1階座席
  6
Continuous
 62
     7
370
     9
100
AcDbText
 10
200167.135325
 20
94570.086095
 30
0.0
 40
250.0
  1
N
  7
Style-HGSｺﾞｼｯｸM
 11
200167.135325
 21
94820.086095
 31
0.0
100
AcDbText
 73
     3
  0
LINE
  5
AF7D
330
B3EC
100
AcDbEntity
  8
2階座席
  6
Continuous
 62
     7
370
    30
100
AcDbLine
 10
200973.137725
 20
94919.154865
 30
0.0
 11
200973.137725
 21
93469.154865
 31
0.0
  0
LINE
  5
AF7E
330
B3EC
100
AcDbEntity
  8
2階座席
  6
Continuous
 62
     7
370
    30
100
AcDbLine
 10
199523.137725
 20
93469.154865
 30
0.0
 11
200973.137725
 21
93469.154865
 31
0.0
  0
TEXT
  5
AF7F
330
B3EC
100
AcDbEntity
  8
1階座席
  6
Continuous
 62
     7
370
     9
100
AcDbText
 10
191129.576794
 20
93105.041405
 30
0.0
 40
175.0
  1
施設階
 41
1.142857
  7
Style-HGSｺﾞｼｯｸM
 11
191129.576794
 21
93280.041405
 31
0.0
100
AcDbText
 73
     3
  0
TEXT
  5
AF80
330
B3EC
100
AcDbEntity
  8
1階座席
  6
Continuous
 62
     7
370
    30
100
AcDbText
 10
188452.071791
 20
94424.604183
 30
0.0
 40
175.0
  1
0
 41
1.142857
  7
Style-HGSｺﾞｼｯｸM
 11
188452.071791
 21
94599.604183
 31
0.0
100
AcDbText
 73
     3
  0
TEXT
  5
AF81
330
B3EC
100
AcDbEntity
  8
1階座席
  6
Continuous
 62
     7
370
    30
100
AcDbText
 10
189444.352879
 20
94424.604183
 30
0.0
 40
175.0
  1
1
 41
1.142857
  7
Style-HGSｺﾞｼｯｸM
 11
189444.352879
 21
94599.604183
 31
0.0
100
AcDbText
 73
     3
  0
TEXT
  5
AF82
330
B3EC
100
AcDbEntity
  8
1階座席
  6
Continuous
 62
     7
370
    30
100
AcDbText
 10
190458.013361
 20
94424.604183
 30
0.0
 40
175.0
  1
2
 41
1.142857
  7
Style-HGSｺﾞｼｯｸM
 11
190458.013361
 21
94599.604183
 31
0.0
100
AcDbText
 73
     3
  0
TEXT
  5
AF83
330
B3EC
100
AcDbEntity
  8
1階座席
  6
Continuous
 62
     7
370
    30
100
AcDbText
 10
191453.944589
 20
94424.604183
 30
0.0
 40
175.0
  1
3
 41
1.142857
  7
Style-HGSｺﾞｼｯｸM
 11
191453.944589
 21
94599.604183
 31
0.0
100
AcDbText
 73
     3
  0
TEXT
  5
AF84
330
B3EC
100
AcDbEntity
  8
1階座席
  6
Continuous
 62
     7
370
    30
100
AcDbText
 10
192449.875816
 20
94424.604183
 30
0.0
 40
175.0
  1
4
 41
1.142857
  7
Style-HGSｺﾞｼｯｸM
 11
192449.875816
 21
94599.604183
 31
0.0
100
AcDbText
 73
     3
  0
TEXT
  5
AF85
330
B3EC
100
AcDbEntity
  8
1階座席
  6
Continuous
 62
     7
370
    30
100
AcDbText
 10
193445.807044
 20
94424.604183
 30
0.0
 40
175.0
  1
5
 41
1.142857
  7
Style-HGSｺﾞｼｯｸM
 11
193445.807044
 21
94599.604183
 31
0.0
100
AcDbText
 73
     3
  0
TEXT
  5
AF86
330
B3EC
100
AcDbEntity
  8
1階座席
  6
Continuous
 62
     7
370
    30
100
AcDbText
 10
198357.160544
 20
94424.604183
 30
0.0
 40
175.0
  1
10m
 41
1.142857
  7
Style-HGSｺﾞｼｯｸM
 11
198357.160544
 21
94599.604183
 31
0.0
100
AcDbText
 73
     3
  0
LINE
  5
AF87
330
B3EC
100
AcDbEntity
  8
2階座席
  6
Continuous
 62
     7
370
     9
100
AcDbLine
 10
189023.137725
 20
94239.202145
 30
0.0
 11
189023.137725
 21
94114.202145
 31
0.0
  0
LINE
  5
AF88
330
B3EC
100
AcDbEntity
  8
2階座席
  6
Continuous
 62
     7
370
     9
100
AcDbLine
 10
190023.137725
 20
94239.202145
 30
0.0
 11
190023.137725
 21
94114.202145
 31
0.0
  0
LINE
  5
AF89
330
B3EC
100
AcDbEntity
  8
2階座席
  6
Continuous
 62
     7
370
     9
100
AcDbLine
 10
191023.137725
 20
94239.202145
 30
0.0
 11
191023.137725
 21
94114.202145
 31
0.0
  0
LINE
  5
AF8A
330
B3EC
100
AcDbEntity
  8
2階座席
  6
Continuous
 62
     7
370
     9
100
AcDbLine
 10
192023.137725
 20
94239.202145
 30
0.0
 11
192023.137725
 21
94114.202145
 31
0.0
  0
LINE
  5
AF8B
330
B3EC
100
AcDbEntity
  8
2階座席
  6
Continuous
 62
     7
370
     9
100
AcDbLine
 10
193023.137725
 20
94239.202145
 30
0.0
 11
193023.137725
 21
94114.202145
 31
0.0
  0
LINE
  5
AF8C
330
B3EC
100
AcDbEntity
  8
A733_ストリートファニチャ
 62
     7
370
     9
100
AcDbLine
 10
188616.588908
 20
97577.108157
 30
0.0
 11
188386.823791
 21
97577.108157
 31
0.0
  0
LINE
  5
AF8D
330
B3EC
100
AcDbEntity
  8
A733_ストリートファニチャ
 62
     7
370
     9
100
AcDbLine
 10
188616.588908
 20
97927.108157
 30
0.0
 11
188386.823791
 21
97927.108157
 31
0.0
  0
LINE
  5
AF8E
330
B3EC
100
AcDbEntity
  8
A733_ストリートファニチャ
 62
     7
370
     9
100
AcDbLine
 10
188386.823791
 20
97927.108157
 30
0.0
 11
188386.823791
 21
97536.49687
 31
0.0
  0
ARC
  5
AF8F
330
B3EC
100
AcDbEntity
  8
A733_ストリートファニチャ
 62
     7
370
     9
100
AcDbCircle
 10
188189.370802
 20
97904.108157
 30
0.0
 40
205.0
100
AcDbArc
 50
270.0
 51
0.0
  0
LINE
  5
AF90
330
B3EC
100
AcDbEntity
  8
A733_ストリートファニチャ
 62
     7
370
     9
100
AcDbLine
 10
182642.870802
 20
98174.108157
 30
0.0
 11
182642.870802
 21
98129.108157
 31
0.0
  0
LINE
  5
AF91
330
B3EC
100
AcDbEntity
  8
A733_ストリートファニチャ
 62
     7
370
     9
100
AcDbLine
 10
184617.870802
 20
98049.108157
 30
0.0
 11
185747.870802
 21
98049.108157
 31
0.0
  0
LINE
  5
AF92
330
B3EC
100
AcDbEntity
  8
A733_ストリートファニチャ
 62
     7
370
     9
100
AcDbLine
 10
184617.870802
 20
97979.108157
 30
0.0
 11
185747.870802
 21
97979.108157
 31
0.0
  0
LINE
  5
AF93
330
B3EC
100
AcDbEntity
  8
A733_ストリートファニチャ
 62
     7
370
     9
100
AcDbLine
 10
185782.870802
 20
98049.108157
 30
0.0
 11
185782.870802
 21
97979.108157
 31
0.0
  0
LINE
  5
AF94
330
B3EC
100
AcDbEntity
  8
A733_ストリートファニチャ
 62
     7
370
     9
100
AcDbLine
 10
184582.870802
 20
98049.108157
 30
0.0
 11
184582.870802
 21
97979.108157
 31
0.0
  0
LINE
  5
AF95
330
B3EC
100
AcDbEntity
  8
A733_ストリートファニチャ
 62
     7
370
     9
100
AcDbLine
 10
185782.870802
 20
98129.108157
 30
0.0
 11
185797.870802
 21
98129.108157
 31
0.0
  0
ARC
  5
AF96
330
B3EC
100
AcDbEntity
  8
A733_ストリートファニチャ
 62
     7
370
     9
100
AcDbCircle
 10
185822.870802
 20
98149.108157
 30
0.0
 40
25.0
100
AcDbArc
 50
90.0
 51
180.0
  0
LINE
  5
AF97
330
B3EC
100
AcDbEntity
  8
A733_ストリートファニチャ
 62
     7
370
     9
100
AcDbLine
 10
185797.870802
 20
98149.108157
 30
0.0
 11
185797.870802
 21
98129.108157
 31
0.0
  0
LINE
  5
AF98
330
B3EC
100
AcDbEntity
  8
A733_ストリートファニチャ
 62
     7
370
     9
100
AcDbLine
 10
185782.870802
 20
98049.108157
 30
0.0
 11
185782.870802
 21
98129.108157
 31
0.0
  0
LINE
  5
AF99
330
B3EC
100
AcDbEntity
  8
A733_ストリートファニチャ
 62
     7
370
     9
100
AcDbLine
 10
185782.870802
 20
98049.108157
 30
0.0
 11
185822.870802
 21
98049.108157
 31
0.0
  0
LINE
  5
AF9A
330
B3EC
100
AcDbEntity
  8
A733_ストリートファニチャ
 62
     7
370
     9
100
AcDbLine
 10
185822.870802
 20
98049.108157
 30
0.0
 11
185822.870802
 21
98129.108157
 31
0.0
  0
LINE
  5
AF9B
330
B3EC
100
AcDbEntity
  8
A733_ストリートファニチャ
 62
     7
370
     9
100
AcDbLine
 10
184620.370802
 20
98024.108157
 30
0.0
 11
184586.870802
 21
98024.108157
 31
0.0
  0
LINE
  5
AF9C
330
B3EC
100
AcDbEntity
  8
A733_ストリートファニチャ
 62
     7
370
     9
100
AcDbLine
 10
184620.370802
 20
98042.108157
 30
0.0
 11
184586.870802
 21
98042.108157
 31
0.0
  0
LINE
  5
AF9D
330
B3EC
100
AcDbEntity
  8
A733_ストリートファニチャ
 62
     7
370
     9
100
AcDbLine
 10
184608.370802
 20
98042.108157
 30
0.0
 11
184608.370802
 21
98024.108157
 31
0.0
  0
LINE
  5
AF9E
330
B3EC
100
AcDbEntity
  8
A733_ストリートファニチャ
 62
     7
370
     9
100
AcDbLine
 10
184596.870802
 20
98042.108157
 30
0.0
 11
184596.870802
 21
98024.108157
 31
0.0
  0
LINE
  5
AF9F
330
B3EC
100
AcDbEntity
  8
A733_ストリートファニチャ
 62
     7
370
     9
100
AcDbLine
 10
185173.870802
 20
98033.108157
 30
0.0
 11
184614.370802
 21
98033.108157
 31
0.0
  0
LINE
  5
AFA0
330
B3EC
100
AcDbEntity
  8
A733_ストリートファニチャ
 62
     7
370
     9
100
AcDbLine
 10
185751.370802
 20
97996.108157
 30
0.0
 11
185191.870802
 21
97996.108157
 31
0.0
  0
LINE
  5
AFA1
330
B3EC
100
AcDbEntity
  8
A733_ストリートファニチャ
 62
     7
370
     9
100
AcDbLine
 10
185757.370802
 20
98005.108157
 30
0.0
 11
185757.370802
 21
97987.108157
 31
0.0
  0
LINE
  5
AFA2
330
B3EC
100
AcDbEntity
  8
A733_ストリートファニチャ
 62
     7
370
     9
100
AcDbLine
 10
185768.870802
 20
98005.108157
 30
0.0
 11
185768.870802
 21
97987.108157
 31
0.0
  0
LINE
  5
AFA3
330
B3EC
100
AcDbEntity
  8
A733_ストリートファニチャ
 62
     7
370
     9
100
AcDbLine
 10
185745.370802
 20
98005.108157
 30
0.0
 11
185778.870802
 21
98005.108157
 31
0.0
  0
LINE
  5
AFA4
330
B3EC
100
AcDbEntity
  8
A733_ストリートファニチャ
 62
     7
370
     9
100
AcDbLine
 10
185745.370802
 20
97987.108157
 30
0.0
 11
185778.870802
 21
97987.108157
 31
0.0
  0
LINE
  5
AFA5
330
B3EC
100
AcDbEntity
  8
A733_ストリートファニチャ
 62
     7
370
     9
100
AcDbLine
 10
185167.870802
 20
97987.108157
 30
0.0
 11
185167.870802
 21
98014.608157
 31
0.0
  0
LINE
  5
AFA6
330
B3EC
100
AcDbEntity
  8
A733_ストリートファニチャ
 62
     7
370
     9
100
AcDbLine
 10
185179.870802
 20
98024.108157
 30
0.0
 11
185179.870802
 21
98042.108157
 31
0.0
  0
LINE
  5
AFA7
330
B3EC
100
AcDbEntity
  8
A733_ストリートファニチャ
 62
     7
370
     9
100
AcDbLine
 10
185197.870802
 20
97987.108157
 30
0.0
 11
185167.870802
 21
97987.108157
 31
0.0
  0
LINE
  5
AFA8
330
B3EC
100
AcDbEntity
  8
A733_ストリートファニチャ
 62
     7
370
     9
100
AcDbLine
 10
185185.870802
 20
98005.108157
 30
0.0
 11
185185.870802
 21
97987.108157
 31
0.0
  0
LINE
  5
AFA9
330
B3EC
100
AcDbEntity
  8
A733_ストリートファニチャ
 62
     7
370
     9
100
AcDbLine
 10
185197.870802
 20
98042.108157
 30
0.0
 11
185197.870802
 21
98024.108157
 31
0.0
  0
LINE
  5
AFAA
330
B3EC
100
AcDbEntity
  8
A733_ストリートファニチャ
 62
     7
370
     9
100
AcDbLine
 10
185197.870802
 20
98005.108157
 30
0.0
 11
185167.870802
 21
98005.108157
 31
0.0
  0
LINE
  5
AFAB
330
B3EC
100
AcDbEntity
  8
A733_ストリートファニチャ
 62
     7
370
     9
100
AcDbLine
 10
185167.870802
 20
98014.608157
 30
0.0
 11
185182.870802
 21
98014.608157
 31
0.0
  0
LINE
  5
AFAC
330
B3EC
100
AcDbEntity
  8
A733_ストリートファニチャ
 62
     7
370
     9
100
AcDbLine
 10
185167.870802
 20
98024.108157
 30
0.0
 11
185197.870802
 21
98024.108157
 31
0.0
  0
LINE
  5
AFAD
330
B3EC
100
AcDbEntity
  8
A733_ストリートファニチャ
 62
     7
370
     9
100
AcDbLine
 10
185167.870802
 20
98042.108157
 30
0.0
 11
185197.870802
 21
98042.108157
 31
0.0
  0
LINE
  5
AFAE
330
B3EC
100
AcDbEntity
  8
A733_ストリートファニチャ
 62
     7
370
     9
100
AcDbLine
 10
184447.870802
 20
98354.108157
 30
0.0
 11
185917.870802
 21
98354.108157
 31
0.0
  0
LINE
  5
AFAF
330
B3EC
100
AcDbEntity
  8
A733_ストリートファニチャ
 62
     7
370
     9
100
AcDbLine
 10
185797.870802
 20
98129.108157
 30
0.0
 11
185857.870802
 21
98129.108157
 31
0.0
  0
LINE
  5
AFB0
330
B3EC
100
AcDbEntity
  8
A733_ストリートファニチャ
 62
     7
370
     9
100
AcDbLine
 10
185857.870802
 20
98174.108157
 30
0.0
 11
185857.870802
 21
98129.108157
 31
0.0
  0
LINE
  5
AFB1
330
B3EC
100
AcDbEntity
  8
A733_ストリートファニチャ
 62
     7
370
     9
100
AcDbLine
 10
185822.870802
 20
98174.108157
 30
0.0
 11
185857.870802
 21
98174.108157
 31
0.0
  0
LINE
  5
AFB2
330
B3EC
100
AcDbEntity
  8
A733_ストリートファニチャ
 62
     7
370
     9
100
AcDbLine
 10
185917.870802
 20
98159.108157
 30
0.0
 11
185917.870802
 21
98354.108157
 31
0.0
  0
LINE
  5
AFB3
330
B3EC
100
AcDbEntity
  8
A733_ストリートファニチャ
 62
     7
370
     9
100
AcDbLine
 10
184582.870802
 20
98129.108157
 30
0.0
 11
184567.870802
 21
98129.108157
 31
0.0
  0
ARC
  5
AFB4
330
B3EC
100
AcDbEntity
  8
A733_ストリートファニチャ
 62
     7
370
     9
100
AcDbCircle
 10
184542.870802
 20
98149.108157
 30
0.0
 40
25.0
100
AcDbArc
 50
0.0
 51
90.0
  0
LINE
  5
AFB5
330
B3EC
100
AcDbEntity
  8
A733_ストリートファニチャ
 62
     7
370
     9
100
AcDbLine
 10
184567.870802
 20
98149.108157
 30
0.0
 11
184567.870802
 21
98129.108157
 31
0.0
  0
LINE
  5
AFB6
330
B3EC
100
AcDbEntity
  8
A733_ストリートファニチャ
 62
     7
370
     9
100
AcDbLine
 10
184582.870802
 20
98049.108157
 30
0.0
 11
184582.870802
 21
98129.108157
 31
0.0
  0
LINE
  5
AFB7
330
B3EC
100
AcDbEntity
  8
A733_ストリートファニチャ
 62
     7
370
     9
100
AcDbLine
 10
184582.870802
 20
98049.108157
 30
0.0
 11
184542.870802
 21
98049.108157
 31
0.0
  0
LINE
  5
AFB8
330
B3EC
100
AcDbEntity
  8
A733_ストリートファニチャ
 62
     7
370
     9
100
AcDbLine
 10
184542.870802
 20
98049.108157
 30
0.0
 11
184542.870802
 21
98129.108157
 31
0.0
  0
LINE
  5
AFB9
330
B3EC
100
AcDbEntity
  8
A733_ストリートファニチャ
 62
     7
370
     9
100
AcDbLine
 10
184567.870802
 20
98129.108157
 30
0.0
 11
184507.870802
 21
98129.108157
 31
0.0
  0
LINE
  5
AFBA
330
B3EC
100
AcDbEntity
  8
A733_ストリートファニチャ
 62
     7
370
     9
100
AcDbLine
 10
184507.870802
 20
98174.108157
 30
0.0
 11
184507.870802
 21
98129.108157
 31
0.0
  0
LINE
  5
AFBB
330
B3EC
100
AcDbEntity
  8
A733_ストリートファニチャ
 62
     7
370
     9
100
AcDbLine
 10
184542.870802
 20
98174.108157
 30
0.0
 11
184507.870802
 21
98174.108157
 31
0.0
  0
LINE
  5
AFBC
330
B3EC
100
AcDbEntity
  8
A733_ストリートファニチャ
 62
     7
370
     9
100
AcDbLine
 10
185857.870802
 20
98159.108157
 30
0.0
 11
184507.870802
 21
98159.108157
 31
0.0
  0
LINE
  5
AFBD
330
B3EC
100
AcDbEntity
  8
A733_ストリートファニチャ
 62
     7
370
     9
100
AcDbLine
 10
184447.870802
 20
98159.108157
 30
0.0
 11
184447.870802
 21
98354.108157
 31
0.0
  0
LINE
  5
AFBE
330
B3EC
100
AcDbEntity
  8
A733_ストリートファニチャ
 62
     7
370
     9
100
AcDbLine
 10
182752.870802
 20
98049.108157
 30
0.0
 11
183882.870802
 21
98049.108157
 31
0.0
  0
LINE
  5
AFBF
330
B3EC
100
AcDbEntity
  8
A733_ストリートファニチャ
 62
     7
370
     9
100
AcDbLine
 10
182752.870802
 20
97979.108157
 30
0.0
 11
183882.870802
 21
97979.108157
 31
0.0
  0
LINE
  5
AFC0
330
B3EC
100
AcDbEntity
  8
A733_ストリートファニチャ
 62
     7
370
     9
100
AcDbLine
 10
183917.870802
 20
98049.108157
 30
0.0
 11
183917.870802
 21
97979.108157
 31
0.0
  0
LINE
  5
AFC1
330
B3EC
100
AcDbEntity
  8
A733_ストリートファニチャ
 62
     7
370
     9
100
AcDbLine
 10
182717.870802
 20
98049.108157
 30
0.0
 11
182717.870802
 21
97979.108157
 31
0.0
  0
LINE
  5
AFC2
330
B3EC
100
AcDbEntity
  8
A733_ストリートファニチャ
 62
     7
370
     9
100
AcDbLine
 10
183917.870802
 20
98129.108157
 30
0.0
 11
183932.870802
 21
98129.108157
 31
0.0
  0
ARC
  5
AFC3
330
B3EC
100
AcDbEntity
  8
A733_ストリートファニチャ
 62
     7
370
     9
100
AcDbCircle
 10
183957.870802
 20
98149.108157
 30
0.0
 40
25.0
100
AcDbArc
 50
90.0
 51
180.0
  0
LINE
  5
AFC4
330
B3EC
100
AcDbEntity
  8
A733_ストリートファニチャ
 62
     7
370
     9
100
AcDbLine
 10
183932.870802
 20
98149.108157
 30
0.0
 11
183932.870802
 21
98129.108157
 31
0.0
  0
LINE
  5
AFC5
330
B3EC
100
AcDbEntity
  8
A733_ストリートファニチャ
 62
     7
370
     9
100
AcDbLine
 10
183917.870802
 20
98049.108157
 30
0.0
 11
183917.870802
 21
98129.108157
 31
0.0
  0
LINE
  5
AFC6
330
B3EC
100
AcDbEntity
  8
A733_ストリートファニチャ
 62
     7
370
     9
100
AcDbLine
 10
183917.870802
 20
98049.108157
 30
0.0
 11
183957.870802
 21
98049.108157
 31
0.0
  0
LINE
  5
AFC7
330
B3EC
100
AcDbEntity
  8
A733_ストリートファニチャ
 62
     7
370
     9
100
AcDbLine
 10
183957.870802
 20
98049.108157
 30
0.0
 11
183957.870802
 21
98129.108157
 31
0.0
  0
LINE
  5
AFC8
330
B3EC
100
AcDbEntity
  8
A733_ストリートファニチャ
 62
     7
370
     9
100
AcDbLine
 10
182755.370802
 20
98024.108157
 30
0.0
 11
182721.870802
 21
98024.108157
 31
0.0
  0
LINE
  5
AFC9
330
B3EC
100
AcDbEntity
  8
A733_ストリートファニチャ
 62
     7
370
     9
100
AcDbLine
 10
182755.370802
 20
98042.108157
 30
0.0
 11
182721.870802
 21
98042.108157
 31
0.0
  0
LINE
  5
AFCA
330
B3EC
100
AcDbEntity
  8
A733_ストリートファニチャ
 62
     7
370
     9
100
AcDbLine
 10
182743.370802
 20
98042.108157
 30
0.0
 11
182743.370802
 21
98024.108157
 31
0.0
  0
LINE
  5
AFCB
330
B3EC
100
AcDbEntity
  8
A733_ストリートファニチャ
 62
     7
370
     9
100
AcDbLine
 10
182731.870802
 20
98042.108157
 30
0.0
 11
182731.870802
 21
98024.108157
 31
0.0
  0
LINE
  5
AFCC
330
B3EC
100
AcDbEntity
  8
A733_ストリートファニチャ
 62
     7
370
     9
100
AcDbLine
 10
183308.870802
 20
98033.108157
 30
0.0
 11
182749.370802
 21
98033.108157
 31
0.0
  0
LINE
  5
AFCD
330
B3EC
100
AcDbEntity
  8
A733_ストリートファニチャ
 62
     7
370
     9
100
AcDbLine
 10
183886.370802
 20
97996.108157
 30
0.0
 11
183326.870802
 21
97996.108157
 31
0.0
  0
LINE
  5
AFCE
330
B3EC
100
AcDbEntity
  8
A733_ストリートファニチャ
 62
     7
370
     9
100
AcDbLine
 10
183892.370802
 20
98005.108157
 30
0.0
 11
183892.370802
 21
97987.108157
 31
0.0
  0
LINE
  5
AFCF
330
B3EC
100
AcDbEntity
  8
A733_ストリートファニチャ
 62
     7
370
     9
100
AcDbLine
 10
183903.870802
 20
98005.108157
 30
0.0
 11
183903.870802
 21
97987.108157
 31
0.0
  0
LINE
  5
AFD0
330
B3EC
100
AcDbEntity
  8
A733_ストリートファニチャ
 62
     7
370
     9
100
AcDbLine
 10
183880.370802
 20
98005.108157
 30
0.0
 11
183913.870802
 21
98005.108157
 31
0.0
  0
LINE
  5
AFD1
330
B3EC
100
AcDbEntity
  8
A733_ストリートファニチャ
 62
     7
370
     9
100
AcDbLine
 10
183880.370802
 20
97987.108157
 30
0.0
 11
183913.870802
 21
97987.108157
 31
0.0
  0
LINE
  5
AFD2
330
B3EC
100
AcDbEntity
  8
A733_ストリートファニチャ
 62
     7
370
     9
100
AcDbLine
 10
183302.870802
 20
97987.108157
 30
0.0
 11
183302.870802
 21
98014.608157
 31
0.0
  0
LINE
  5
AFD3
330
B3EC
100
AcDbEntity
  8
A733_ストリートファニチャ
 62
     7
370
     9
100
AcDbLine
 10
183314.870802
 20
98024.108157
 30
0.0
 11
183314.870802
 21
98042.108157
 31
0.0
  0
LINE
  5
AFD4
330
B3EC
100
AcDbEntity
  8
A733_ストリートファニチャ
 62
     7
370
     9
100
AcDbLine
 10
183332.870802
 20
97987.108157
 30
0.0
 11
183302.870802
 21
97987.108157
 31
0.0
  0
LINE
  5
AFD5
330
B3EC
100
AcDbEntity
  8
A733_ストリートファニチャ
 62
     7
370
     9
100
AcDbLine
 10
183320.870802
 20
98005.108157
 30
0.0
 11
183320.870802
 21
97987.108157
 31
0.0
  0
LINE
  5
AFD6
330
B3EC
100
AcDbEntity
  8
A733_ストリートファニチャ
 62
     7
370
     9
100
AcDbLine
 10
183332.870802
 20
98042.108157
 30
0.0
 11
183332.870802
 21
98024.108157
 31
0.0
  0
LINE
  5
AFD7
330
B3EC
100
AcDbEntity
  8
A733_ストリートファニチャ
 62
     7
370
     9
100
AcDbLine
 10
183332.870802
 20
98005.108157
 30
0.0
 11
183302.870802
 21
98005.108157
 31
0.0
  0
LINE
  5
AFD8
330
B3EC
100
AcDbEntity
  8
A733_ストリートファニチャ
 62
     7
370
     9
100
AcDbLine
 10
183302.870802
 20
98014.608157
 30
0.0
 11
183317.870802
 21
98014.608157
 31
0.0
  0
LINE
  5
AFD9
330
B3EC
100
AcDbEntity
  8
A733_ストリートファニチャ
 62
     7
370
     9
100
AcDbLine
 10
183302.870802
 20
98024.108157
 30
0.0
 11
183332.870802
 21
98024.108157
 31
0.0
  0
LINE
  5
AFDA
330
B3EC
100
AcDbEntity
  8
A733_ストリートファニチャ
 62
     7
370
     9
100
AcDbLine
 10
183302.870802
 20
98042.108157
 30
0.0
 11
183332.870802
 21
98042.108157
 31
0.0
  0
LINE
  5
AFDB
330
B3EC
100
AcDbEntity
  8
A733_ストリートファニチャ
 62
     7
370
     9
100
AcDbLine
 10
182582.870802
 20
98354.108157
 30
0.0
 11
184052.870802
 21
98354.108157
 31
0.0
  0
LINE
  5
AFDC
330
B3EC
100
AcDbEntity
  8
A733_ストリートファニチャ
 62
     7
370
     9
100
AcDbLine
 10
183932.870802
 20
98129.108157
 30
0.0
 11
183992.870802
 21
98129.108157
 31
0.0
  0
LINE
  5
AFDD
330
B3EC
100
AcDbEntity
  8
A733_ストリートファニチャ
 62
     7
370
     9
100
AcDbLine
 10
183992.870802
 20
98174.108157
 30
0.0
 11
183992.870802
 21
98129.108157
 31
0.0
  0
LINE
  5
AFDE
330
B3EC
100
AcDbEntity
  8
A733_ストリートファニチャ
 62
     7
370
     9
100
AcDbLine
 10
183957.870802
 20
98174.108157
 30
0.0
 11
183992.870802
 21
98174.108157
 31
0.0
  0
LINE
  5
AFDF
330
B3EC
100
AcDbEntity
  8
A733_ストリートファニチャ
 62
     7
370
     9
100
AcDbLine
 10
184052.870802
 20
98159.108157
 30
0.0
 11
184052.870802
 21
98354.108157
 31
0.0
  0
LINE
  5
AFE0
330
B3EC
100
AcDbEntity
  8
A733_ストリートファニチャ
 62
     7
370
     9
100
AcDbLine
 10
182717.870802
 20
98129.108157
 30
0.0
 11
182702.870802
 21
98129.108157
 31
0.0
  0
ARC
  5
AFE1
330
B3EC
100
AcDbEntity
  8
A733_ストリートファニチャ
 62
     7
370
     9
100
AcDbCircle
 10
182677.870802
 20
98149.108157
 30
0.0
 40
25.0
100
AcDbArc
 50
0.0
 51
90.0
  0
LINE
  5
AFE2
330
B3EC
100
AcDbEntity
  8
A733_ストリートファニチャ
 62
     7
370
     9
100
AcDbLine
 10
182702.870802
 20
98149.108157
 30
0.0
 11
182702.870802
 21
98129.108157
 31
0.0
  0
LINE
  5
AFE3
330
B3EC
100
AcDbEntity
  8
A733_ストリートファニチャ
 62
     7
370
     9
100
AcDbLine
 10
182717.870802
 20
98049.108157
 30
0.0
 11
182717.870802
 21
98129.108157
 31
0.0
  0
LINE
  5
AFE4
330
B3EC
100
AcDbEntity
  8
A733_ストリートファニチャ
 62
     7
370
     9
100
AcDbLine
 10
182717.870802
 20
98049.108157
 30
0.0
 11
182677.870802
 21
98049.108157
 31
0.0
  0
LINE
  5
AFE5
330
B3EC
100
AcDbEntity
  8
A733_ストリートファニチャ
 62
     7
370
     9
100
AcDbLine
 10
182677.870802
 20
98049.108157
 30
0.0
 11
182677.870802
 21
98129.108157
 31
0.0
  0
LINE
  5
AFE6
330
B3EC
100
AcDbEntity
  8
A733_ストリートファニチャ
 62
     7
370
     9
100
AcDbLine
 10
182702.870802
 20
98129.108157
 30
0.0
 11
182642.870802
 21
98129.108157
 31
0.0
  0
LINE
  5
AFE7
330
B3EC
100
AcDbEntity
  8
A733_ストリートファニチャ
 62
     7
370
     9
100
AcDbLine
 10
182677.870802
 20
98174.108157
 30
0.0
 11
182642.870802
 21
98174.108157
 31
0.0
  0
LINE
  5
AFE8
330
B3EC
100
AcDbEntity
  8
A733_ストリートファニチャ
 62
     7
370
     9
100
AcDbLine
 10
182582.870802
 20
98159.108157
 30
0.0
 11
182582.870802
 21
98354.108157
 31
0.0
  0
LINE
  5
AFE9
330
B3EC
100
AcDbEntity
  8
A733_ストリートファニチャ
 62
     7
370
     9
100
AcDbLine
 10
183992.870802
 20
98159.108157
 30
0.0
 11
184507.870802
 21
98159.108157
 31
0.0
  0
LINE
  5
AFEA
330
B3EC
100
AcDbEntity
  8
A733_ストリートファニチャ
 62
     7
370
     9
100
AcDbLine
 10
183992.870802
 20
98159.108157
 30
0.0
 11
182642.870802
 21
98159.108157
 31
0.0
  0
LINE
  5
AFEB
330
B3EC
100
AcDbEntity
  8
A733_ストリートファニチャ
 62
     7
370
     9
100
AcDbLine
 10
181086.370802
 20
98159.108157
 30
0.0
 11
182642.870802
 21
98159.108157
 31
0.0
  0
LINE
  5
AFEC
330
B3EC
100
AcDbEntity
  8
A733_ストリートファニチャ
 62
     7
370
     9
100
AcDbLine
 10
180456.370802
 20
101340.108157
 30
0.0
 11
180456.370802
 21
100210.108157
 31
0.0
  0
LINE
  5
AFED
330
B3EC
100
AcDbEntity
  8
A733_ストリートファニチャ
 62
     7
370
     9
100
AcDbLine
 10
180386.370802
 20
101340.108157
 30
0.0
 11
180386.370802
 21
100210.108157
 31
0.0
  0
LINE
  5
AFEE
330
B3EC
100
AcDbEntity
  8
A733_ストリートファニチャ
 62
     7
370
     9
100
AcDbLine
 10
180456.370802
 20
100175.108157
 30
0.0
 11
180386.370802
 21
100175.108157
 31
0.0
  0
LINE
  5
AFEF
330
B3EC
100
AcDbEntity
  8
A733_ストリートファニチャ
 62
     7
370
     9
100
AcDbLine
 10
180456.370802
 20
101375.108157
 30
0.0
 11
180386.370802
 21
101375.108157
 31
0.0
  0
LINE
  5
AFF0
330
B3EC
100
AcDbEntity
  8
A733_ストリートファニチャ
 62
     7
370
     9
100
AcDbLine
 10
180536.370802
 20
100175.108157
 30
0.0
 11
180536.370802
 21
100160.108157
 31
0.0
  0
ARC
  5
AFF1
330
B3EC
100
AcDbEntity
  8
A733_ストリートファニチャ
 62
     7
370
     9
100
AcDbCircle
 10
180556.370802
 20
100135.108157
 30
0.0
 40
25.0
100
AcDbArc
 50
0.0
 51
90.0
  0
LINE
  5
AFF2
330
B3EC
100
AcDbEntity
  8
A733_ストリートファニチャ
 62
     7
370
     9
100
AcDbLine
 10
180556.370802
 20
100160.108157
 30
0.0
 11
180536.370802
 21
100160.108157
 31
0.0
  0
LINE
  5
AFF3
330
B3EC
100
AcDbEntity
  8
A733_ストリートファニチャ
 62
     7
370
     9
100
AcDbLine
 10
180456.370802
 20
100175.108157
 30
0.0
 11
180536.370802
 21
100175.108157
 31
0.0
  0
LINE
  5
AFF4
330
B3EC
100
AcDbEntity
  8
A733_ストリートファニチャ
 62
     7
370
     9
100
AcDbLine
 10
180456.370802
 20
100175.108157
 30
0.0
 11
180456.370802
 21
100135.108157
 31
0.0
  0
LINE
  5
AFF5
330
B3EC
100
AcDbEntity
  8
A733_ストリートファニチャ
 62
     7
370
     9
100
AcDbLine
 10
180456.370802
 20
100135.108157
 30
0.0
 11
180536.370802
 21
100135.108157
 31
0.0
  0
LINE
  5
AFF6
330
B3EC
100
AcDbEntity
  8
A733_ストリートファニチャ
 62
     7
370
     9
100
AcDbLine
 10
180431.370802
 20
101337.608157
 30
0.0
 11
180431.370802
 21
101371.108157
 31
0.0
  0
LINE
  5
AFF7
330
B3EC
100
AcDbEntity
  8
A733_ストリートファニチャ
 62
     7
370
     9
100
AcDbLine
 10
180449.370802
 20
101337.608157
 30
0.0
 11
180449.370802
 21
101371.108157
 31
0.0
  0
LINE
  5
AFF8
330
B3EC
100
AcDbEntity
  8
A733_ストリートファニチャ
 62
     7
370
     9
100
AcDbLine
 10
180449.370802
 20
101349.608157
 30
0.0
 11
180431.370802
 21
101349.608157
 31
0.0
  0
LINE
  5
AFF9
330
B3EC
100
AcDbEntity
  8
A733_ストリートファニチャ
 62
     7
370
     9
100
AcDbLine
 10
180449.370802
 20
101361.108157
 30
0.0
 11
180431.370802
 21
101361.108157
 31
0.0
  0
LINE
  5
AFFA
330
B3EC
100
AcDbEntity
  8
A733_ストリートファニチャ
 62
     7
370
     9
100
AcDbLine
 10
180440.370802
 20
100784.108157
 30
0.0
 11
180440.370802
 21
101343.608157
 31
0.0
  0
LINE
  5
AFFB
330
B3EC
100
AcDbEntity
  8
A733_ストリートファニチャ
 62
     7
370
     9
100
AcDbLine
 10
180403.370802
 20
100206.608157
 30
0.0
 11
180403.370802
 21
100766.108157
 31
0.0
  0
LINE
  5
AFFC
330
B3EC
100
AcDbEntity
  8
A733_ストリートファニチャ
 62
     7
370
     9
100
AcDbLine
 10
180412.370802
 20
100200.608157
 30
0.0
 11
180394.370802
 21
100200.608157
 31
0.0
  0
LINE
  5
AFFD
330
B3EC
100
AcDbEntity
  8
A733_ストリートファニチャ
 62
     7
370
     9
100
AcDbLine
 10
180412.370802
 20
100189.108157
 30
0.0
 11
180394.370802
 21
100189.108157
 31
0.0
  0
LINE
  5
AFFE
330
B3EC
100
AcDbEntity
  8
A733_ストリートファニチャ
 62
     7
370
     9
100
AcDbLine
 10
180412.370802
 20
100212.608157
 30
0.0
 11
180412.370802
 21
100179.108157
 31
0.0
  0
LINE
  5
AFFF
330
B3EC
100
AcDbEntity
  8
A733_ストリートファニチャ
 62
     7
370
     9
100
AcDbLine
 10
180394.370802
 20
100212.608157
 30
0.0
 11
180394.370802
 21
100179.108157
 31
0.0
  0
LINE
  5
B000
330
B3EC
100
AcDbEntity
  8
A733_ストリートファニチャ
 62
     7
370
     9
100
AcDbLine
 10
180394.370802
 20
100790.108157
 30
0.0
 11
180421.870802
 21
100790.108157
 31
0.0
  0
LINE
  5
B001
330
B3EC
100
AcDbEntity
  8
A733_ストリートファニチャ
 62
     7
370
     9
100
AcDbLine
 10
180431.370802
 20
100778.108157
 30
0.0
 11
180449.370802
 21
100778.108157
 31
0.0
  0
LINE
  5
B002
330
B3EC
100
AcDbEntity
  8
A733_ストリートファニチャ
 62
     7
370
     9
100
AcDbLine
 10
180394.370802
 20
100760.108157
 30
0.0
 11
180394.370802
 21
100790.108157
 31
0.0
  0
LINE
  5
B003
330
B3EC
100
AcDbEntity
  8
A733_ストリートファニチャ
 62
     7
370
     9
100
AcDbLine
 10
180412.370802
 20
100772.108157
 30
0.0
 11
180394.370802
 21
100772.108157
 31
0.0
  0
LINE
  5
B004
330
B3EC
100
AcDbEntity
  8
A733_ストリートファニチャ
 62
     7
370
     9
100
AcDbLine
 10
180449.370802
 20
100760.108157
 30
0.0
 11
180431.370802
 21
100760.108157
 31
0.0
  0
LINE
  5
B005
330
B3EC
100
AcDbEntity
  8
A733_ストリートファニチャ
 62
     7
370
     9
100
AcDbLine
 10
180412.370802
 20
100760.108157
 30
0.0
 11
180412.370802
 21
100790.108157
 31
0.0
  0
LINE
  5
B006
330
B3EC
100
AcDbEntity
  8
A733_ストリートファニチャ
 62
     7
370
     9
100
AcDbLine
 10
180421.870802
 20
100790.108157
 30
0.0
 11
180421.870802
 21
100775.108157
 31
0.0
  0
LINE
  5
B007
330
B3EC
100
AcDbEntity
  8
A733_ストリートファニチャ
 62
     7
370
     9
100
AcDbLine
 10
180431.370802
 20
100790.108157
 30
0.0
 11
180431.370802
 21
100760.108157
 31
0.0
  0
LINE
  5
B008
330
B3EC
100
AcDbEntity
  8
A733_ストリートファニチャ
 62
     7
370
     9
100
AcDbLine
 10
180449.370802
 20
100790.108157
 30
0.0
 11
180449.370802
 21
100760.108157
 31
0.0
  0
LINE
  5
B009
330
B3EC
100
AcDbEntity
  8
A733_ストリートファニチャ
 62
     7
370
     9
100
AcDbLine
 10
180761.370802
 20
101510.108157
 30
0.0
 11
180761.370802
 21
100040.108157
 31
0.0
  0
LINE
  5
B00A
330
B3EC
100
AcDbEntity
  8
A733_ストリートファニチャ
 62
     7
370
     9
100
AcDbLine
 10
180536.370802
 20
100160.108157
 30
0.0
 11
180536.370802
 21
100100.108157
 31
0.0
  0
LINE
  5
B00B
330
B3EC
100
AcDbEntity
  8
A733_ストリートファニチャ
 62
     7
370
     9
100
AcDbLine
 10
180581.370802
 20
100100.108157
 30
0.0
 11
180536.370802
 21
100100.108157
 31
0.0
  0
LINE
  5
B00C
330
B3EC
100
AcDbEntity
  8
A733_ストリートファニチャ
 62
     7
370
     9
100
AcDbLine
 10
180581.370802
 20
100135.108157
 30
0.0
 11
180581.370802
 21
100100.108157
 31
0.0
  0
LINE
  5
B00D
330
B3EC
100
AcDbEntity
  8
A733_ストリートファニチャ
 62
     7
370
     9
100
AcDbLine
 10
180566.370802
 20
100040.108157
 30
0.0
 11
180761.370802
 21
100040.108157
 31
0.0
  0
LINE
  5
B00E
330
B3EC
100
AcDbEntity
  8
A733_ストリートファニチャ
 62
     7
370
     9
100
AcDbLine
 10
180536.370802
 20
101375.108157
 30
0.0
 11
180536.370802
 21
101390.108157
 31
0.0
  0
ARC
  5
B00F
330
B3EC
100
AcDbEntity
  8
A733_ストリートファニチャ
 62
     7
370
     9
100
AcDbCircle
 10
180556.370802
 20
101415.108157
 30
0.0
 40
25.0
100
AcDbArc
 50
270.0
 51
0.0
  0
LINE
  5
B010
330
B3EC
100
AcDbEntity
  8
A733_ストリートファニチャ
 62
     7
370
     9
100
AcDbLine
 10
180556.370802
 20
101390.108157
 30
0.0
 11
180536.370802
 21
101390.108157
 31
0.0
  0
LINE
  5
B011
330
B3EC
100
AcDbEntity
  8
A733_ストリートファニチャ
 62
     7
370
     9
100
AcDbLine
 10
180456.370802
 20
101375.108157
 30
0.0
 11
180536.370802
 21
101375.108157
 31
0.0
  0
LINE
  5
B012
330
B3EC
100
AcDbEntity
  8
A733_ストリートファニチャ
 62
     7
370
     9
100
AcDbLine
 10
180456.370802
 20
101375.108157
 30
0.0
 11
180456.370802
 21
101415.108157
 31
0.0
  0
LINE
  5
B013
330
B3EC
100
AcDbEntity
  8
A733_ストリートファニチャ
 62
     7
370
     9
100
AcDbLine
 10
180456.370802
 20
101415.108157
 30
0.0
 11
180536.370802
 21
101415.108157
 31
0.0
  0
LINE
  5
B014
330
B3EC
100
AcDbEntity
  8
A733_ストリートファニチャ
 62
     7
370
     9
100
AcDbLine
 10
180536.370802
 20
101390.108157
 30
0.0
 11
180536.370802
 21
101450.108157
 31
0.0
  0
LINE
  5
B015
330
B3EC
100
AcDbEntity
  8
A733_ストリートファニチャ
 62
     7
370
     9
100
AcDbLine
 10
180581.370802
 20
101450.108157
 30
0.0
 11
180536.370802
 21
101450.108157
 31
0.0
  0
LINE
  5
B016
330
B3EC
100
AcDbEntity
  8
A733_ストリートファニチャ
 62
     7
370
     9
100
AcDbLine
 10
180581.370802
 20
101415.108157
 30
0.0
 11
180581.370802
 21
101450.108157
 31
0.0
  0
LINE
  5
B017
330
B3EC
100
AcDbEntity
  8
A733_ストリートファニチャ
 62
     7
370
     9
100
AcDbLine
 10
180566.370802
 20
100100.108157
 30
0.0
 11
180566.370802
 21
101450.108157
 31
0.0
  0
LINE
  5
B018
330
B3EC
100
AcDbEntity
  8
A733_ストリートファニチャ
 62
     7
370
     9
100
AcDbLine
 10
180566.370802
 20
101510.108157
 30
0.0
 11
180761.370802
 21
101510.108157
 31
0.0
  0
LINE
  5
B019
330
B3EC
100
AcDbEntity
  8
A733_ストリートファニチャ
 62
     7
370
     9
100
AcDbLine
 10
180456.370802
 20
103205.108157
 30
0.0
 11
180456.370802
 21
102075.108157
 31
0.0
  0
LINE
  5
B01A
330
B3EC
100
AcDbEntity
  8
A733_ストリートファニチャ
 62
     7
370
     9
100
AcDbLine
 10
180386.370802
 20
103205.108157
 30
0.0
 11
180386.370802
 21
102075.108157
 31
0.0
  0
LINE
  5
B01B
330
B3EC
100
AcDbEntity
  8
A733_ストリートファニチャ
 62
     7
370
     9
100
AcDbLine
 10
180456.370802
 20
102040.108157
 30
0.0
 11
180386.370802
 21
102040.108157
 31
0.0
  0
LINE
  5
B01C
330
B3EC
100
AcDbEntity
  8
A733_ストリートファニチャ
 62
     7
370
     9
100
AcDbLine
 10
180456.370802
 20
103240.108157
 30
0.0
 11
180386.370802
 21
103240.108157
 31
0.0
  0
LINE
  5
B01D
330
B3EC
100
AcDbEntity
  8
A733_ストリートファニチャ
 62
     7
370
     9
100
AcDbLine
 10
180536.370802
 20
102040.108157
 30
0.0
 11
180536.370802
 21
102025.108157
 31
0.0
  0
ARC
  5
B01E
330
B3EC
100
AcDbEntity
  8
A733_ストリートファニチャ
 62
     7
370
     9
100
AcDbCircle
 10
180556.370802
 20
102000.108157
 30
0.0
 40
25.0
100
AcDbArc
 50
0.0
 51
90.0
  0
LINE
  5
B01F
330
B3EC
100
AcDbEntity
  8
A733_ストリートファニチャ
 62
     7
370
     9
100
AcDbLine
 10
180556.370802
 20
102025.108157
 30
0.0
 11
180536.370802
 21
102025.108157
 31
0.0
  0
LINE
  5
B020
330
B3EC
100
AcDbEntity
  8
A733_ストリートファニチャ
 62
     7
370
     9
100
AcDbLine
 10
180456.370802
 20
102040.108157
 30
0.0
 11
180536.370802
 21
102040.108157
 31
0.0
  0
LINE
  5
B021
330
B3EC
100
AcDbEntity
  8
A733_ストリートファニチャ
 62
     7
370
     9
100
AcDbLine
 10
180456.370802
 20
102040.108157
 30
0.0
 11
180456.370802
 21
102000.108157
 31
0.0
  0
LINE
  5
B022
330
B3EC
100
AcDbEntity
  8
A733_ストリートファニチャ
 62
     7
370
     9
100
AcDbLine
 10
180456.370802
 20
102000.108157
 30
0.0
 11
180536.370802
 21
102000.108157
 31
0.0
  0
LINE
  5
B023
330
B3EC
100
AcDbEntity
  8
A733_ストリートファニチャ
 62
     7
370
     9
100
AcDbLine
 10
180431.370802
 20
103202.608157
 30
0.0
 11
180431.370802
 21
103236.108157
 31
0.0
  0
LINE
  5
B024
330
B3EC
100
AcDbEntity
  8
A733_ストリートファニチャ
 62
     7
370
     9
100
AcDbLine
 10
180449.370802
 20
103202.608157
 30
0.0
 11
180449.370802
 21
103236.108157
 31
0.0
  0
LINE
  5
B025
330
B3EC
100
AcDbEntity
  8
A733_ストリートファニチャ
 62
     7
370
     9
100
AcDbLine
 10
180449.370802
 20
103214.608157
 30
0.0
 11
180431.370802
 21
103214.608157
 31
0.0
  0
LINE
  5
B026
330
B3EC
100
AcDbEntity
  8
A733_ストリートファニチャ
 62
     7
370
     9
100
AcDbLine
 10
180449.370802
 20
103226.108157
 30
0.0
 11
180431.370802
 21
103226.108157
 31
0.0
  0
LINE
  5
B027
330
B3EC
100
AcDbEntity
  8
A733_ストリートファニチャ
 62
     7
370
     9
100
AcDbLine
 10
180440.370802
 20
102649.108157
 30
0.0
 11
180440.370802
 21
103208.608157
 31
0.0
  0
LINE
  5
B028
330
B3EC
100
AcDbEntity
  8
A733_ストリートファニチャ
 62
     7
370
     9
100
AcDbLine
 10
180403.370802
 20
102071.608157
 30
0.0
 11
180403.370802
 21
102631.108157
 31
0.0
  0
LINE
  5
B029
330
B3EC
100
AcDbEntity
  8
A733_ストリートファニチャ
 62
     7
370
     9
100
AcDbLine
 10
180412.370802
 20
102065.608157
 30
0.0
 11
180394.370802
 21
102065.608157
 31
0.0
  0
LINE
  5
B02A
330
B3EC
100
AcDbEntity
  8
A733_ストリートファニチャ
 62
     7
370
     9
100
AcDbLine
 10
180412.370802
 20
102054.108157
 30
0.0
 11
180394.370802
 21
102054.108157
 31
0.0
  0
LINE
  5
B02B
330
B3EC
100
AcDbEntity
  8
A733_ストリートファニチャ
 62
     7
370
     9
100
AcDbLine
 10
180412.370802
 20
102077.608157
 30
0.0
 11
180412.370802
 21
102044.108157
 31
0.0
  0
LINE
  5
B02C
330
B3EC
100
AcDbEntity
  8
A733_ストリートファニチャ
 62
     7
370
     9
100
AcDbLine
 10
180394.370802
 20
102077.608157
 30
0.0
 11
180394.370802
 21
102044.108157
 31
0.0
  0
LINE
  5
B02D
330
B3EC
100
AcDbEntity
  8
A733_ストリートファニチャ
 62
     7
370
     9
100
AcDbLine
 10
180394.370802
 20
102655.108157
 30
0.0
 11
180421.870802
 21
102655.108157
 31
0.0
  0
LINE
  5
B02E
330
B3EC
100
AcDbEntity
  8
A733_ストリートファニチャ
 62
     7
370
     9
100
AcDbLine
 10
180431.370802
 20
102643.108157
 30
0.0
 11
180449.370802
 21
102643.108157
 31
0.0
  0
LINE
  5
B02F
330
B3EC
100
AcDbEntity
  8
A733_ストリートファニチャ
 62
     7
370
     9
100
AcDbLine
 10
180394.370802
 20
102625.108157
 30
0.0
 11
180394.370802
 21
102655.108157
 31
0.0
  0
LINE
  5
B030
330
B3EC
100
AcDbEntity
  8
A733_ストリートファニチャ
 62
     7
370
     9
100
AcDbLine
 10
180412.370802
 20
102637.108157
 30
0.0
 11
180394.370802
 21
102637.108157
 31
0.0
  0
LINE
  5
B031
330
B3EC
100
AcDbEntity
  8
A733_ストリートファニチャ
 62
     7
370
     9
100
AcDbLine
 10
180449.370802
 20
102625.108157
 30
0.0
 11
180431.370802
 21
102625.108157
 31
0.0
  0
LINE
  5
B032
330
B3EC
100
AcDbEntity
  8
A733_ストリートファニチャ
 62
     7
370
     9
100
AcDbLine
 10
180412.370802
 20
102625.108157
 30
0.0
 11
180412.370802
 21
102655.108157
 31
0.0
  0
LINE
  5
B033
330
B3EC
100
AcDbEntity
  8
A733_ストリートファニチャ
 62
     7
370
     9
100
AcDbLine
 10
180421.870802
 20
102655.108157
 30
0.0
 11
180421.870802
 21
102640.108157
 31
0.0
  0
LINE
  5
B034
330
B3EC
100
AcDbEntity
  8
A733_ストリートファニチャ
 62
     7
370
     9
100
AcDbLine
 10
180431.370802
 20
102655.108157
 30
0.0
 11
180431.370802
 21
102625.108157
 31
0.0
  0
LINE
  5
B035
330
B3EC
100
AcDbEntity
  8
A733_ストリートファニチャ
 62
     7
370
     9
100
AcDbLine
 10
180449.370802
 20
102655.108157
 30
0.0
 11
180449.370802
 21
102625.108157
 31
0.0
  0
LINE
  5
B036
330
B3EC
100
AcDbEntity
  8
A733_ストリートファニチャ
 62
     7
370
     9
100
AcDbLine
 10
180761.370802
 20
103375.108157
 30
0.0
 11
180761.370802
 21
101905.108157
 31
0.0
  0
LINE
  5
B037
330
B3EC
100
AcDbEntity
  8
A733_ストリートファニチャ
 62
     7
370
     9
100
AcDbLine
 10
180536.370802
 20
102025.108157
 30
0.0
 11
180536.370802
 21
101965.108157
 31
0.0
  0
LINE
  5
B038
330
B3EC
100
AcDbEntity
  8
A733_ストリートファニチャ
 62
     7
370
     9
100
AcDbLine
 10
180581.370802
 20
101965.108157
 30
0.0
 11
180536.370802
 21
101965.108157
 31
0.0
  0
LINE
  5
B039
330
B3EC
100
AcDbEntity
  8
A733_ストリートファニチャ
 62
     7
370
     9
100
AcDbLine
 10
180581.370802
 20
102000.108157
 30
0.0
 11
180581.370802
 21
101965.108157
 31
0.0
  0
LINE
  5
B03A
330
B3EC
100
AcDbEntity
  8
A733_ストリートファニチャ
 62
     7
370
     9
100
AcDbLine
 10
180566.370802
 20
101905.108157
 30
0.0
 11
180761.370802
 21
101905.108157
 31
0.0
  0
LINE
  5
B03B
330
B3EC
100
AcDbEntity
  8
A733_ストリートファニチャ
 62
     7
370
     9
100
AcDbLine
 10
180536.370802
 20
103240.108157
 30
0.0
 11
180536.370802
 21
103255.108157
 31
0.0
  0
ARC
  5
B03C
330
B3EC
100
AcDbEntity
  8
A733_ストリートファニチャ
 62
     7
370
     9
100
AcDbCircle
 10
180556.370802
 20
103280.108157
 30
0.0
 40
25.0
100
AcDbArc
 50
270.0
 51
0.0
  0
LINE
  5
B03D
330
B3EC
100
AcDbEntity
  8
A733_ストリートファニチャ
 62
     7
370
     9
100
AcDbLine
 10
180556.370802
 20
103255.108157
 30
0.0
 11
180536.370802
 21
103255.108157
 31
0.0
  0
LINE
  5
B03E
330
B3EC
100
AcDbEntity
  8
A733_ストリートファニチャ
 62
     7
370
     9
100
AcDbLine
 10
180456.370802
 20
103240.108157
 30
0.0
 11
180536.370802
 21
103240.108157
 31
0.0
  0
LINE
  5
B03F
330
B3EC
100
AcDbEntity
  8
A733_ストリートファニチャ
 62
     7
370
     9
100
AcDbLine
 10
180456.370802
 20
103240.108157
 30
0.0
 11
180456.370802
 21
103280.108157
 31
0.0
  0
LINE
  5
B040
330
B3EC
100
AcDbEntity
  8
A733_ストリートファニチャ
 62
     7
370
     9
100
AcDbLine
 10
180456.370802
 20
103280.108157
 30
0.0
 11
180536.370802
 21
103280.108157
 31
0.0
  0
LINE
  5
B041
330
B3EC
100
AcDbEntity
  8
A733_ストリートファニチャ
 62
     7
370
     9
100
AcDbLine
 10
180536.370802
 20
103255.108157
 30
0.0
 11
180536.370802
 21
103315.108157
 31
0.0
  0
LINE
  5
B042
330
B3EC
100
AcDbEntity
  8
A733_ストリートファニチャ
 62
     7
370
     9
100
AcDbLine
 10
180581.370802
 20
103315.108157
 30
0.0
 11
180536.370802
 21
103315.108157
 31
0.0
  0
LINE
  5
B043
330
B3EC
100
AcDbEntity
  8
A733_ストリートファニチャ
 62
     7
370
     9
100
AcDbLine
 10
180581.370802
 20
103280.108157
 30
0.0
 11
180581.370802
 21
103315.108157
 31
0.0
  0
LINE
  5
B044
330
B3EC
100
AcDbEntity
  8
A733_ストリートファニチャ
 62
     7
370
     9
100
AcDbLine
 10
180566.370802
 20
101965.108157
 30
0.0
 11
180566.370802
 21
103315.108157
 31
0.0
  0
LINE
  5
B045
330
B3EC
100
AcDbEntity
  8
A733_ストリートファニチャ
 62
     7
370
     9
100
AcDbLine
 10
180566.370802
 20
103375.108157
 30
0.0
 11
180761.370802
 21
103375.108157
 31
0.0
  0
LINE
  5
B046
330
B3EC
100
AcDbEntity
  8
A733_ストリートファニチャ
 62
     7
370
     9
100
AcDbLine
 10
180456.370802
 20
105070.108157
 30
0.0
 11
180456.370802
 21
103940.108157
 31
0.0
  0
LINE
  5
B047
330
B3EC
100
AcDbEntity
  8
A733_ストリートファニチャ
 62
     7
370
     9
100
AcDbLine
 10
180386.370802
 20
105070.108157
 30
0.0
 11
180386.370802
 21
103940.108157
 31
0.0
  0
LINE
  5
B048
330
B3EC
100
AcDbEntity
  8
A733_ストリートファニチャ
 62
     7
370
     9
100
AcDbLine
 10
180456.370802
 20
103905.108157
 30
0.0
 11
180386.370802
 21
103905.108157
 31
0.0
  0
LINE
  5
B049
330
B3EC
100
AcDbEntity
  8
A733_ストリートファニチャ
 62
     7
370
     9
100
AcDbLine
 10
180456.370802
 20
105105.108157
 30
0.0
 11
180386.370802
 21
105105.108157
 31
0.0
  0
LINE
  5
B04A
330
B3EC
100
AcDbEntity
  8
A733_ストリートファニチャ
 62
     7
370
     9
100
AcDbLine
 10
180536.370802
 20
103905.108157
 30
0.0
 11
180536.370802
 21
103890.108157
 31
0.0
  0
ARC
  5
B04B
330
B3EC
100
AcDbEntity
  8
A733_ストリートファニチャ
 62
     7
370
     9
100
AcDbCircle
 10
180556.370802
 20
103865.108157
 30
0.0
 40
25.0
100
AcDbArc
 50
0.0
 51
90.0
  0
LINE
  5
B04C
330
B3EC
100
AcDbEntity
  8
A733_ストリートファニチャ
 62
     7
370
     9
100
AcDbLine
 10
180556.370802
 20
103890.108157
 30
0.0
 11
180536.370802
 21
103890.108157
 31
0.0
  0
LINE
  5
B04D
330
B3EC
100
AcDbEntity
  8
A733_ストリートファニチャ
 62
     7
370
     9
100
AcDbLine
 10
180456.370802
 20
103905.108157
 30
0.0
 11
180536.370802
 21
103905.108157
 31
0.0
  0
LINE
  5
B04E
330
B3EC
100
AcDbEntity
  8
A733_ストリートファニチャ
 62
     7
370
     9
100
AcDbLine
 10
180456.370802
 20
103905.108157
 30
0.0
 11
180456.370802
 21
103865.108157
 31
0.0
  0
LINE
  5
B04F
330
B3EC
100
AcDbEntity
  8
A733_ストリートファニチャ
 62
     7
370
     9
100
AcDbLine
 10
180456.370802
 20
103865.108157
 30
0.0
 11
180536.370802
 21
103865.108157
 31
0.0
  0
LINE
  5
B050
330
B3EC
100
AcDbEntity
  8
A733_ストリートファニチャ
 62
     7
370
     9
100
AcDbLine
 10
180431.370802
 20
105067.608157
 30
0.0
 11
180431.370802
 21
105101.108157
 31
0.0
  0
LINE
  5
B051
330
B3EC
100
AcDbEntity
  8
A733_ストリートファニチャ
 62
     7
370
     9
100
AcDbLine
 10
180449.370802
 20
105067.608157
 30
0.0
 11
180449.370802
 21
105101.108157
 31
0.0
  0
LINE
  5
B052
330
B3EC
100
AcDbEntity
  8
A733_ストリートファニチャ
 62
     7
370
     9
100
AcDbLine
 10
180449.370802
 20
105079.608157
 30
0.0
 11
180431.370802
 21
105079.608157
 31
0.0
  0
LINE
  5
B053
330
B3EC
100
AcDbEntity
  8
A733_ストリートファニチャ
 62
     7
370
     9
100
AcDbLine
 10
180449.370802
 20
105091.108157
 30
0.0
 11
180431.370802
 21
105091.108157
 31
0.0
  0
LINE
  5
B054
330
B3EC
100
AcDbEntity
  8
A733_ストリートファニチャ
 62
     7
370
     9
100
AcDbLine
 10
180440.370802
 20
104514.108157
 30
0.0
 11
180440.370802
 21
105073.608157
 31
0.0
  0
LINE
  5
B055
330
B3EC
100
AcDbEntity
  8
A733_ストリートファニチャ
 62
     7
370
     9
100
AcDbLine
 10
180403.370802
 20
103936.608157
 30
0.0
 11
180403.370802
 21
104496.108157
 31
0.0
  0
LINE
  5
B056
330
B3EC
100
AcDbEntity
  8
A733_ストリートファニチャ
 62
     7
370
     9
100
AcDbLine
 10
180412.370802
 20
103930.608157
 30
0.0
 11
180394.370802
 21
103930.608157
 31
0.0
  0
LINE
  5
B057
330
B3EC
100
AcDbEntity
  8
A733_ストリートファニチャ
 62
     7
370
     9
100
AcDbLine
 10
180412.370802
 20
103919.108157
 30
0.0
 11
180394.370802
 21
103919.108157
 31
0.0
  0
LINE
  5
B058
330
B3EC
100
AcDbEntity
  8
A733_ストリートファニチャ
 62
     7
370
     9
100
AcDbLine
 10
180412.370802
 20
103942.608157
 30
0.0
 11
180412.370802
 21
103909.108157
 31
0.0
  0
LINE
  5
B059
330
B3EC
100
AcDbEntity
  8
A733_ストリートファニチャ
 62
     7
370
     9
100
AcDbLine
 10
180394.370802
 20
103942.608157
 30
0.0
 11
180394.370802
 21
103909.108157
 31
0.0
  0
LINE
  5
B05A
330
B3EC
100
AcDbEntity
  8
A733_ストリートファニチャ
 62
     7
370
     9
100
AcDbLine
 10
180394.370802
 20
104520.108157
 30
0.0
 11
180421.870802
 21
104520.108157
 31
0.0
  0
LINE
  5
B05B
330
B3EC
100
AcDbEntity
  8
A733_ストリートファニチャ
 62
     7
370
     9
100
AcDbLine
 10
180431.370802
 20
104508.108157
 30
0.0
 11
180449.370802
 21
104508.108157
 31
0.0
  0
LINE
  5
B05C
330
B3EC
100
AcDbEntity
  8
A733_ストリートファニチャ
 62
     7
370
     9
100
AcDbLine
 10
180394.370802
 20
104490.108157
 30
0.0
 11
180394.370802
 21
104520.108157
 31
0.0
  0
LINE
  5
B05D
330
B3EC
100
AcDbEntity
  8
A733_ストリートファニチャ
 62
     7
370
     9
100
AcDbLine
 10
180412.370802
 20
104502.108157
 30
0.0
 11
180394.370802
 21
104502.108157
 31
0.0
  0
LINE
  5
B05E
330
B3EC
100
AcDbEntity
  8
A733_ストリートファニチャ
 62
     7
370
     9
100
AcDbLine
 10
180449.370802
 20
104490.108157
 30
0.0
 11
180431.370802
 21
104490.108157
 31
0.0
  0
LINE
  5
B05F
330
B3EC
100
AcDbEntity
  8
A733_ストリートファニチャ
 62
     7
370
     9
100
AcDbLine
 10
180412.370802
 20
104490.108157
 30
0.0
 11
180412.370802
 21
104520.108157
 31
0.0
  0
LINE
  5
B060
330
B3EC
100
AcDbEntity
  8
A733_ストリートファニチャ
 62
     7
370
     9
100
AcDbLine
 10
180421.870802
 20
104520.108157
 30
0.0
 11
180421.870802
 21
104505.108157
 31
0.0
  0
LINE
  5
B061
330
B3EC
100
AcDbEntity
  8
A733_ストリートファニチャ
 62
     7
370
     9
100
AcDbLine
 10
180431.370802
 20
104520.108157
 30
0.0
 11
180431.370802
 21
104490.108157
 31
0.0
  0
LINE
  5
B062
330
B3EC
100
AcDbEntity
  8
A733_ストリートファニチャ
 62
     7
370
     9
100
AcDbLine
 10
180449.370802
 20
104520.108157
 30
0.0
 11
180449.370802
 21
104490.108157
 31
0.0
  0
LINE
  5
B063
330
B3EC
100
AcDbEntity
  8
A733_ストリートファニチャ
 62
     7
370
     9
100
AcDbLine
 10
180761.370802
 20
105240.108157
 30
0.0
 11
180761.370802
 21
103770.108157
 31
0.0
  0
LINE
  5
B064
330
B3EC
100
AcDbEntity
  8
A733_ストリートファニチャ
 62
     7
370
     9
100
AcDbLine
 10
180536.370802
 20
103890.108157
 30
0.0
 11
180536.370802
 21
103830.108157
 31
0.0
  0
LINE
  5
B065
330
B3EC
100
AcDbEntity
  8
A733_ストリートファニチャ
 62
     7
370
     9
100
AcDbLine
 10
180581.370802
 20
103830.108157
 30
0.0
 11
180536.370802
 21
103830.108157
 31
0.0
  0
LINE
  5
B066
330
B3EC
100
AcDbEntity
  8
A733_ストリートファニチャ
 62
     7
370
     9
100
AcDbLine
 10
180581.370802
 20
103865.108157
 30
0.0
 11
180581.370802
 21
103830.108157
 31
0.0
  0
LINE
  5
B067
330
B3EC
100
AcDbEntity
  8
A733_ストリートファニチャ
 62
     7
370
     9
100
AcDbLine
 10
180566.370802
 20
103770.108157
 30
0.0
 11
180761.370802
 21
103770.108157
 31
0.0
  0
LINE
  5
B068
330
B3EC
100
AcDbEntity
  8
A733_ストリートファニチャ
 62
     7
370
     9
100
AcDbLine
 10
180536.370802
 20
105105.108157
 30
0.0
 11
180536.370802
 21
105120.108157
 31
0.0
  0
ARC
  5
B069
330
B3EC
100
AcDbEntity
  8
A733_ストリートファニチャ
 62
     7
370
     9
100
AcDbCircle
 10
180556.370802
 20
105145.108157
 30
0.0
 40
25.0
100
AcDbArc
 50
270.0
 51
0.0
  0
LINE
  5
B06A
330
B3EC
100
AcDbEntity
  8
A733_ストリートファニチャ
 62
     7
370
     9
100
AcDbLine
 10
180556.370802
 20
105120.108157
 30
0.0
 11
180536.370802
 21
105120.108157
 31
0.0
  0
LINE
  5
B06B
330
B3EC
100
AcDbEntity
  8
A733_ストリートファニチャ
 62
     7
370
     9
100
AcDbLine
 10
180456.370802
 20
105105.108157
 30
0.0
 11
180536.370802
 21
105105.108157
 31
0.0
  0
LINE
  5
B06C
330
B3EC
100
AcDbEntity
  8
A733_ストリートファニチャ
 62
     7
370
     9
100
AcDbLine
 10
180456.370802
 20
105105.108157
 30
0.0
 11
180456.370802
 21
105145.108157
 31
0.0
  0
LINE
  5
B06D
330
B3EC
100
AcDbEntity
  8
A733_ストリートファニチャ
 62
     7
370
     9
100
AcDbLine
 10
180456.370802
 20
105145.108157
 30
0.0
 11
180536.370802
 21
105145.108157
 31
0.0
  0
LINE
  5
B06E
330
B3EC
100
AcDbEntity
  8
A733_ストリートファニチャ
 62
     7
370
     9
100
AcDbLine
 10
180536.370802
 20
105120.108157
 30
0.0
 11
180536.370802
 21
105180.108157
 31
0.0
  0
LINE
  5
B06F
330
B3EC
100
AcDbEntity
  8
A733_ストリートファニチャ
 62
     7
370
     9
100
AcDbLine
 10
180581.370802
 20
105180.108157
 30
0.0
 11
180536.370802
 21
105180.108157
 31
0.0
  0
LINE
  5
B070
330
B3EC
100
AcDbEntity
  8
A733_ストリートファニチャ
 62
     7
370
     9
100
AcDbLine
 10
180581.370802
 20
105145.108157
 30
0.0
 11
180581.370802
 21
105180.108157
 31
0.0
  0
LINE
  5
B071
330
B3EC
100
AcDbEntity
  8
A733_ストリートファニチャ
 62
     7
370
     9
100
AcDbLine
 10
180566.370802
 20
103830.108157
 30
0.0
 11
180566.370802
 21
105180.108157
 31
0.0
  0
LINE
  5
B072
330
B3EC
100
AcDbEntity
  8
A733_ストリートファニチャ
 62
     7
370
     9
100
AcDbLine
 10
180566.370802
 20
105240.108157
 30
0.0
 11
180761.370802
 21
105240.108157
 31
0.0
  0
LINE
  5
B073
330
B3EC
100
AcDbEntity
  8
A733_ストリートファニチャ
 62
     7
370
     9
100
AcDbLine
 10
181086.370802
 20
98159.108157
 30
0.0
 11
181086.370802
 21
98679.108157
 31
0.0
  0
LINE
  5
B074
330
B3EC
100
AcDbEntity
  8
A733_ストリートファニチャ
 62
     7
370
     9
100
AcDbLine
 10
180566.370802
 20
98679.108157
 30
0.0
 11
181086.370802
 21
98679.108157
 31
0.0
  0
LINE
  5
B075
330
B3EC
100
AcDbEntity
  8
A733_ストリートファニチャ
 62
     7
370
     9
100
AcDbLine
 10
180566.370802
 20
98679.108157
 30
0.0
 11
180566.370802
 21
100100.108157
 31
0.0
  0
LINE
  5
B076
330
B3EC
100
AcDbEntity
  8
A733_ストリートファニチャ
 62
     7
370
     9
100
AcDbLine
 10
180566.370802
 20
101965.108157
 30
0.0
 11
180566.370802
 21
101450.108157
 31
0.0
  0
LINE
  5
B077
330
B3EC
100
AcDbEntity
  8
A733_ストリートファニチャ
 62
     7
370
     9
100
AcDbLine
 10
180566.370802
 20
103830.108157
 30
0.0
 11
180566.370802
 21
103315.108157
 31
0.0
  0
POINT
  5
B07A
330
B3EC
100
AcDbEntity
  8
A733_ストリートファニチャ
 62
     7
370
     9
100
AcDbPoint
 10
180566.370802
 20
104801.701002
 30
0.0
 50
-90.0
  0
LINE
  5
B07B
330
B3EC
100
AcDbEntity
  8
A733_ストリートファニチャ
 62
     7
370
     9
100
AcDbLine
 10
180596.370802
 20
98709.108157
 30
0.0
 11
181116.370802
 21
98709.108157
 31
0.0
  0
LINE
  5
B07C
330
B3EC
100
AcDbEntity
  8
A733_ストリートファニチャ
 62
     7
370
     9
100
AcDbLine
 10
181116.370802
 20
98189.108157
 30
0.0
 11
181116.370802
 21
98709.108157
 31
0.0
  0
LINE
  5
B07D
330
B3EC
100
AcDbEntity
  8
A733_ストリートファニチャ
 62
     7
370
     9
100
AcDbLine
 10
183696.370802
 20
107206.108157
 30
0.0
 11
181086.370802
 21
107206.108157
 31
0.0
  0
LINE
  5
B07E
330
B3EC
100
AcDbEntity
  8
A733_ストリートファニチャ
 62
     7
370
     9
100
AcDbLine
 10
183766.370802
 20
107176.108157
 30
0.0
 11
183696.370802
 21
107176.108157
 31
0.0
  0
LINE
  5
B07F
330
B3EC
100
AcDbEntity
  8
A733_ストリートファニチャ
 62
     7
370
     9
100
AcDbLine
 10
183766.370802
 20
107246.108157
 30
0.0
 11
183766.370802
 21
107176.108157
 31
0.0
  0
LINE
  5
B080
330
B3EC
100
AcDbEntity
  8
A733_ストリートファニチャ
 62
     7
370
     9
100
AcDbLine
 10
183776.370802
 20
107246.108157
 30
0.0
 11
183766.370802
 21
107246.108157
 31
0.0
  0
LINE
  5
B081
330
B3EC
100
AcDbEntity
  8
A733_ストリートファニチャ
 62
     7
370
     9
100
AcDbLine
 10
183776.370802
 20
107291.108157
 30
0.0
 11
183776.370802
 21
107246.108157
 31
0.0
  0
LINE
  5
B082
330
B3EC
100
AcDbEntity
  8
A733_ストリートファニチャ
 62
     7
370
     9
100
AcDbLine
 10
183786.370802
 20
107291.108157
 30
0.0
 11
183776.370802
 21
107291.108157
 31
0.0
  0
LINE
  5
B083
330
B3EC
100
AcDbEntity
  8
A733_ストリートファニチャ
 62
     7
370
     9
100
AcDbLine
 10
183696.370802
 20
107406.108157
 30
0.0
 11
183696.370802
 21
107176.108157
 31
0.0
  0
LINE
  5
B084
330
B3EC
100
AcDbEntity
  8
A733_ストリートファニチャ
 62
     7
370
     9
100
AcDbLine
 10
183786.370802
 20
107406.108157
 30
0.0
 11
183696.370802
 21
107406.108157
 31
0.0
  0
LINE
  5
B085
330
B3EC
100
AcDbEntity
  8
A733_ストリートファニチャ
 62
     7
370
     9
100
AcDbLine
 10
183786.370802
 20
107406.108157
 30
0.0
 11
183786.370802
 21
107291.108157
 31
0.0
  0
LINE
  5
B086
330
B3EC
100
AcDbEntity
  8
A733_ストリートファニチャ
 62
     7
370
    13
100
AcDbLine
 10
183776.370802
 20
107246.108157
 30
0.0
 11
183776.370802
 21
106323.608157
 31
0.0
  0
ARC
  5
B087
330
B3EC
100
AcDbEntity
  8
A733_ストリートファニチャ
 62
     7
370
     9
100
AcDbCircle
 10
183776.370802
 20
107246.108157
 30
0.0
 40
922.4999999999996
100
AcDbArc
 50
270.0
 51
360.0
  0
LINE
  5
B088
330
B3EC
100
AcDbEntity
  8
A733_ストリートファニチャ
 62
     7
370
     9
100
AcDbLine
 10
185631.370802
 20
107176.108157
 30
0.0
 11
185701.370802
 21
107176.108157
 31
0.0
  0
LINE
  5
B089
330
B3EC
100
AcDbEntity
  8
A733_ストリートファニチャ
 62
     7
370
     9
100
AcDbLine
 10
185631.370802
 20
107246.108157
 30
0.0
 11
185631.370802
 21
107176.108157
 31
0.0
  0
LINE
  5
B08A
330
B3EC
100
AcDbEntity
  8
A733_ストリートファニチャ
 62
     7
370
     9
100
AcDbLine
 10
185621.370802
 20
107246.108157
 30
0.0
 11
185631.370802
 21
107246.108157
 31
0.0
  0
LINE
  5
B08B
330
B3EC
100
AcDbEntity
  8
A733_ストリートファニチャ
 62
     7
370
     9
100
AcDbLine
 10
185621.370802
 20
107291.108157
 30
0.0
 11
185621.370802
 21
107246.108157
 31
0.0
  0
LINE
  5
B08C
330
B3EC
100
AcDbEntity
  8
A733_ストリートファニチャ
 62
     7
370
     9
100
AcDbLine
 10
185611.370802
 20
107291.108157
 30
0.0
 11
185621.370802
 21
107291.108157
 31
0.0
  0
LINE
  5
B08D
330
B3EC
100
AcDbEntity
  8
A733_ストリートファニチャ
 62
     7
370
     9
100
AcDbLine
 10
185701.370802
 20
107406.108157
 30
0.0
 11
185701.370802
 21
107176.108157
 31
0.0
  0
LINE
  5
B08E
330
B3EC
100
AcDbEntity
  8
A733_ストリートファニチャ
 62
     7
370
     9
100
AcDbLine
 10
185611.370802
 20
107406.108157
 30
0.0
 11
185701.370802
 21
107406.108157
 31
0.0
  0
LINE
  5
B08F
330
B3EC
100
AcDbEntity
  8
A733_ストリートファニチャ
 62
     7
370
     9
100
AcDbLine
 10
185611.370802
 20
107406.108157
 30
0.0
 11
185611.370802
 21
107291.108157
 31
0.0
  0
ARC
  5
B090
330
B3EC
100
AcDbEntity
  8
A733_ストリートファニチャ
 62
     7
370
     9
100
AcDbCircle
 10
185621.370802
 20
107246.108157
 30
0.0
 40
922.4999999999996
100
AcDbArc
 50
180.0
 51
270.0
  0
LINE
  5
B091
330
B3EC
100
AcDbEntity
  8
A733_ストリートファニチャ
 62
     7
370
    13
100
AcDbLine
 10
185621.370802
 20
107246.108157
 30
0.0
 11
185621.370802
 21
106323.608157
 31
0.0
  0
LINE
  5
B092
330
B3EC
100
AcDbEntity
  8
A733_ストリートファニチャ
 62
     7
370
     9
100
AcDbLine
 10
180371.370802
 20
100145.108157
 30
0.0
 11
180371.370802
 21
100160.108157
 31
0.0
  0
LINE
  5
B093
330
B3EC
100
AcDbEntity
  8
A733_ストリートファニチャ
 62
     7
370
     9
100
AcDbLine
 10
180386.370802
 20
100145.108157
 30
0.0
 11
180371.370802
 21
100145.108157
 31
0.0
  0
LINE
  5
B094
330
B3EC
100
AcDbEntity
  8
A733_ストリートファニチャ
 62
     7
370
     9
100
AcDbLine
 10
180456.370802
 20
100190.108157
 30
0.0
 11
180456.370802
 21
100150.108157
 31
0.0
  0
LINE
  5
B095
330
B3EC
100
AcDbEntity
  8
A733_ストリートファニチャ
 62
     7
370
     9
100
AcDbLine
 10
180456.370802
 20
100150.108157
 30
0.0
 11
180447.370802
 21
100150.108157
 31
0.0
  0
LINE
  5
B096
330
B3EC
100
AcDbEntity
  8
A733_ストリートファニチャ
 62
     7
370
     9
100
AcDbLine
 10
180386.370802
 20
100150.108157
 30
0.0
 11
180395.370802
 21
100150.108157
 31
0.0
  0
LINE
  5
B097
330
B3EC
100
AcDbEntity
  8
A733_ストリートファニチャ
 62
     7
370
     9
100
AcDbLine
 10
180386.370802
 20
100150.108157
 30
0.0
 11
180386.370802
 21
100190.108157
 31
0.0
  0
LINE
  5
B098
330
B3EC
100
AcDbEntity
  8
A733_ストリートファニチャ
 62
     7
370
     9
100
AcDbLine
 10
180456.370802
 20
101360.108157
 30
0.0
 11
180456.370802
 21
101400.108157
 31
0.0
  0
LINE
  5
B099
330
B3EC
100
AcDbEntity
  8
A733_ストリートファニチャ
 62
     7
370
     9
100
AcDbLine
 10
180456.370802
 20
101400.108157
 30
0.0
 11
180447.370802
 21
101400.108157
 31
0.0
  0
LINE
  5
B09A
330
B3EC
100
AcDbEntity
  8
A733_ストリートファニチャ
 62
     7
370
     9
100
AcDbLine
 10
180386.370802
 20
101400.108157
 30
0.0
 11
180395.370802
 21
101400.108157
 31
0.0
  0
LINE
  5
B09B
330
B3EC
100
AcDbEntity
  8
A733_ストリートファニチャ
 62
     7
370
     9
100
AcDbLine
 10
180386.370802
 20
101360.108157
 30
0.0
 11
180386.370802
 21
101400.108157
 31
0.0
  0
LINE
  5
B09C
330
B3EC
100
AcDbEntity
  8
A733_ストリートファニチャ
 62
     7
370
     9
100
AcDbLine
 10
180456.370802
 20
102055.108157
 30
0.0
 11
180456.370802
 21
102015.108157
 31
0.0
  0
LINE
  5
B09D
330
B3EC
100
AcDbEntity
  8
A733_ストリートファニチャ
 62
     7
370
     9
100
AcDbLine
 10
180456.370802
 20
102015.108157
 30
0.0
 11
180447.370802
 21
102015.108157
 31
0.0
  0
LINE
  5
B09E
330
B3EC
100
AcDbEntity
  8
A733_ストリートファニチャ
 62
     7
370
     9
100
AcDbLine
 10
180386.370802
 20
102015.108157
 30
0.0
 11
180395.370802
 21
102015.108157
 31
0.0
  0
LINE
  5
B09F
330
B3EC
100
AcDbEntity
  8
A733_ストリートファニチャ
 62
     7
370
     9
100
AcDbLine
 10
180386.370802
 20
102015.108157
 30
0.0
 11
180386.370802
 21
102055.108157
 31
0.0
  0
LINE
  5
B0A0
330
B3EC
100
AcDbEntity
  8
A733_ストリートファニチャ
 62
     7
370
     9
100
AcDbLine
 10
180456.370802
 20
103225.108157
 30
0.0
 11
180456.370802
 21
103265.108157
 31
0.0
  0
LINE
  5
B0A1
330
B3EC
100
AcDbEntity
  8
A733_ストリートファニチャ
 62
     7
370
     9
100
AcDbLine
 10
180456.370802
 20
103265.108157
 30
0.0
 11
180447.370802
 21
103265.108157
 31
0.0
  0
LINE
  5
B0A2
330
B3EC
100
AcDbEntity
  8
A733_ストリートファニチャ
 62
     7
370
     9
100
AcDbLine
 10
180386.370802
 20
103265.108157
 30
0.0
 11
180395.370802
 21
103265.108157
 31
0.0
  0
LINE
  5
B0A3
330
B3EC
100
AcDbEntity
  8
A733_ストリートファニチャ
 62
     7
370
     9
100
AcDbLine
 10
180386.370802
 20
103225.108157
 30
0.0
 11
180386.370802
 21
103265.108157
 31
0.0
  0
LINE
  5
B0A4
330
B3EC
100
AcDbEntity
  8
A733_ストリートファニチャ
 62
     7
370
     9
100
AcDbLine
 10
180456.370802
 20
103920.108157
 30
0.0
 11
180456.370802
 21
103880.108157
 31
0.0
  0
LINE
  5
B0A5
330
B3EC
100
AcDbEntity
  8
A733_ストリートファニチャ
 62
     7
370
     9
100
AcDbLine
 10
180456.370802
 20
103880.108157
 30
0.0
 11
180447.370802
 21
103880.108157
 31
0.0
  0
LINE
  5
B0A6
330
B3EC
100
AcDbEntity
  8
A733_ストリートファニチャ
 62
     7
370
     9
100
AcDbLine
 10
180386.370802
 20
103880.108157
 30
0.0
 11
180395.370802
 21
103880.108157
 31
0.0
  0
LINE
  5
B0A7
330
B3EC
100
AcDbEntity
  8
A733_ストリートファニチャ
 62
     7
370
     9
100
AcDbLine
 10
180386.370802
 20
103880.108157
 30
0.0
 11
180386.370802
 21
103920.108157
 31
0.0
  0
LINE
  5
B0A8
330
B3EC
100
AcDbEntity
  8
A733_ストリートファニチャ
 62
     7
370
     9
100
AcDbLine
 10
180456.370802
 20
105090.108157
 30
0.0
 11
180456.370802
 21
105130.108157
 31
0.0
  0
LINE
  5
B0A9
330
B3EC
100
AcDbEntity
  8
A733_ストリートファニチャ
 62
     7
370
     9
100
AcDbLine
 10
180456.370802
 20
105130.108157
 30
0.0
 11
180447.370802
 21
105130.108157
 31
0.0
  0
LINE
  5
B0AA
330
B3EC
100
AcDbEntity
  8
A733_ストリートファニチャ
 62
     7
370
     9
100
AcDbLine
 10
180386.370802
 20
105130.108157
 30
0.0
 11
180395.370802
 21
105130.108157
 31
0.0
  0
LINE
  5
B0AB
330
B3EC
100
AcDbEntity
  8
A733_ストリートファニチャ
 62
     7
370
     9
100
AcDbLine
 10
180386.370802
 20
105090.108157
 30
0.0
 11
180386.370802
 21
105130.108157
 31
0.0
  0
LINE
  5
B0AC
330
B3EC
100
AcDbEntity
  8
A733_ストリートファニチャ
 62
     7
370
     9
100
AcDbLine
 10
182732.870802
 20
98049.108157
 30
0.0
 11
182692.870802
 21
98049.108157
 31
0.0
  0
LINE
  5
B0AD
330
B3EC
100
AcDbEntity
  8
A733_ストリートファニチャ
 62
     7
370
     9
100
AcDbLine
 10
182692.870802
 20
98049.108157
 30
0.0
 11
182692.870802
 21
98040.108157
 31
0.0
  0
LINE
  5
B0AE
330
B3EC
100
AcDbEntity
  8
A733_ストリートファニチャ
 62
     7
370
     9
100
AcDbLine
 10
182692.870802
 20
97979.108157
 30
0.0
 11
182692.870802
 21
97988.108157
 31
0.0
  0
LINE
  5
B0AF
330
B3EC
100
AcDbEntity
  8
A733_ストリートファニチャ
 62
     7
370
     9
100
AcDbLine
 10
182732.870802
 20
97979.108157
 30
0.0
 11
182692.870802
 21
97979.108157
 31
0.0
  0
LINE
  5
B0B0
330
B3EC
100
AcDbEntity
  8
A733_ストリートファニチャ
 62
     7
370
     9
100
AcDbLine
 10
183902.870802
 20
98049.108157
 30
0.0
 11
183942.870802
 21
98049.108157
 31
0.0
  0
LINE
  5
B0B1
330
B3EC
100
AcDbEntity
  8
A733_ストリートファニチャ
 62
     7
370
     9
100
AcDbLine
 10
183942.870802
 20
98049.108157
 30
0.0
 11
183942.870802
 21
98040.108157
 31
0.0
  0
LINE
  5
B0B2
330
B3EC
100
AcDbEntity
  8
A733_ストリートファニチャ
 62
     7
370
     9
100
AcDbLine
 10
183942.870802
 20
97979.108157
 30
0.0
 11
183942.870802
 21
97988.108157
 31
0.0
  0
LINE
  5
B0B3
330
B3EC
100
AcDbEntity
  8
A733_ストリートファニチャ
 62
     7
370
     9
100
AcDbLine
 10
183942.870802
 20
97979.108157
 30
0.0
 11
183902.870802
 21
97979.108157
 31
0.0
  0
LINE
  5
B0B4
330
B3EC
100
AcDbEntity
  8
A733_ストリートファニチャ
 62
     7
370
     9
100
AcDbLine
 10
184597.870802
 20
98049.108157
 30
0.0
 11
184557.870802
 21
98049.108157
 31
0.0
  0
LINE
  5
B0B5
330
B3EC
100
AcDbEntity
  8
A733_ストリートファニチャ
 62
     7
370
     9
100
AcDbLine
 10
184557.870802
 20
98049.108157
 30
0.0
 11
184557.870802
 21
98040.108157
 31
0.0
  0
LINE
  5
B0B6
330
B3EC
100
AcDbEntity
  8
A733_ストリートファニチャ
 62
     7
370
     9
100
AcDbLine
 10
184557.870802
 20
97979.108157
 30
0.0
 11
184557.870802
 21
97988.108157
 31
0.0
  0
LINE
  5
B0B7
330
B3EC
100
AcDbEntity
  8
A733_ストリートファニチャ
 62
     7
370
     9
100
AcDbLine
 10
184597.870802
 20
97979.108157
 30
0.0
 11
184557.870802
 21
97979.108157
 31
0.0
  0
LINE
  5
B0B8
330
B3EC
100
AcDbEntity
  8
A733_ストリートファニチャ
 62
     7
370
     9
100
AcDbLine
 10
185767.870802
 20
98049.108157
 30
0.0
 11
185807.870802
 21
98049.108157
 31
0.0
  0
LINE
  5
B0B9
330
B3EC
100
AcDbEntity
  8
A733_ストリートファニチャ
 62
     7
370
     9
100
AcDbLine
 10
185807.870802
 20
98049.108157
 30
0.0
 11
185807.870802
 21
98040.108157
 31
0.0
  0
LINE
  5
B0BA
330
B3EC
100
AcDbEntity
  8
A733_ストリートファニチャ
 62
     7
370
     9
100
AcDbLine
 10
185807.870802
 20
97979.108157
 30
0.0
 11
185807.870802
 21
97988.108157
 31
0.0
  0
LINE
  5
B0BB
330
B3EC
100
AcDbEntity
  8
A733_ストリートファニチャ
 62
     7
370
     9
100
AcDbLine
 10
185807.870802
 20
97979.108157
 30
0.0
 11
185767.870802
 21
97979.108157
 31
0.0
  0
LINE
  5
B0BC
330
B3EC
100
AcDbEntity
  8
A733_ストリートファニチャ
 62
     7
370
     9
100
AcDbLine
 10
180386.370802
 20
100145.108157
 30
0.0
 11
180386.370802
 21
100160.108157
 31
0.0
  0
LINE
  5
B0BD
330
B3EC
100
AcDbEntity
  8
A733_ストリートファニチャ
 62
     7
370
     9
100
AcDbLine
 10
180386.370802
 20
100160.108157
 30
0.0
 11
180371.370802
 21
100160.108157
 31
0.0
  0
LINE
  5
B0BE
330
B3EC
100
AcDbEntity
  8
A733_ストリートファニチャ
 62
     7
370
     9
100
AcDbLine
 10
180386.370802
 20
102010.108157
 30
0.0
 11
180371.370802
 21
102010.108157
 31
0.0
  0
LINE
  5
B0BF
330
B3EC
100
AcDbEntity
  8
A733_ストリートファニチャ
 62
     7
370
     9
100
AcDbLine
 10
180386.370802
 20
102010.108157
 30
0.0
 11
180386.370802
 21
102025.108157
 31
0.0
  0
LINE
  5
B0C0
330
B3EC
100
AcDbEntity
  8
A733_ストリートファニチャ
 62
     7
370
     9
100
AcDbLine
 10
180386.370802
 20
102025.108157
 30
0.0
 11
180371.370802
 21
102025.108157
 31
0.0
  0
LINE
  5
B0C1
330
B3EC
100
AcDbEntity
  8
A733_ストリートファニチャ
 62
     7
370
     9
100
AcDbLine
 10
180386.370802
 20
103875.108157
 30
0.0
 11
180371.370802
 21
103875.108157
 31
0.0
  0
LINE
  5
B0C2
330
B3EC
100
AcDbEntity
  8
A733_ストリートファニチャ
 62
     7
370
     9
100
AcDbLine
 10
180386.370802
 20
103875.108157
 30
0.0
 11
180386.370802
 21
103890.108157
 31
0.0
  0
LINE
  5
B0C3
330
B3EC
100
AcDbEntity
  8
A733_ストリートファニチャ
 62
     7
370
     9
100
AcDbLine
 10
180386.370802
 20
103890.108157
 30
0.0
 11
180371.370802
 21
103890.108157
 31
0.0
  0
LINE
  5
B0C4
330
B3EC
100
AcDbEntity
  8
A733_ストリートファニチャ
 62
     7
370
     9
100
AcDbLine
 10
180386.370802
 20
105135.108157
 30
0.0
 11
180371.370802
 21
105135.108157
 31
0.0
  0
LINE
  5
B0C5
330
B3EC
100
AcDbEntity
  8
A733_ストリートファニチャ
 62
     7
370
     9
100
AcDbLine
 10
180386.370802
 20
105135.108157
 30
0.0
 11
180386.370802
 21
105120.108157
 31
0.0
  0
LINE
  5
B0C6
330
B3EC
100
AcDbEntity
  8
A733_ストリートファニチャ
 62
     7
370
     9
100
AcDbLine
 10
180386.370802
 20
105120.108157
 30
0.0
 11
180371.370802
 21
105120.108157
 31
0.0
  0
LINE
  5
B0C7
330
B3EC
100
AcDbEntity
  8
A733_ストリートファニチャ
 62
     7
370
     9
100
AcDbLine
 10
180386.370802
 20
103270.108157
 30
0.0
 11
180371.370802
 21
103270.108157
 31
0.0
  0
LINE
  5
B0C8
330
B3EC
100
AcDbEntity
  8
A733_ストリートファニチャ
 62
     7
370
     9
100
AcDbLine
 10
180386.370802
 20
103270.108157
 30
0.0
 11
180386.370802
 21
103255.108157
 31
0.0
  0
LINE
  5
B0C9
330
B3EC
100
AcDbEntity
  8
A733_ストリートファニチャ
 62
     7
370
     9
100
AcDbLine
 10
180386.370802
 20
103255.108157
 30
0.0
 11
180371.370802
 21
103255.108157
 31
0.0
  0
LINE
  5
B0CA
330
B3EC
100
AcDbEntity
  8
A733_ストリートファニチャ
 62
     7
370
     9
100
AcDbLine
 10
180386.370802
 20
101405.108157
 30
0.0
 11
180371.370802
 21
101405.108157
 31
0.0
  0
LINE
  5
B0CB
330
B3EC
100
AcDbEntity
  8
A733_ストリートファニチャ
 62
     7
370
     9
100
AcDbLine
 10
180386.370802
 20
101405.108157
 30
0.0
 11
180386.370802
 21
101390.108157
 31
0.0
  0
LINE
  5
B0CC
330
B3EC
100
AcDbEntity
  8
A733_ストリートファニチャ
 62
     7
370
     9
100
AcDbLine
 10
180386.370802
 20
101390.108157
 30
0.0
 11
180371.370802
 21
101390.108157
 31
0.0
  0
LINE
  5
B0CD
330
B3EC
100
AcDbEntity
  8
A733_ストリートファニチャ
 62
     7
370
     9
100
AcDbLine
 10
180371.370802
 20
101405.108157
 30
0.0
 11
180371.370802
 21
101390.108157
 31
0.0
  0
LINE
  5
B0CE
330
B3EC
100
AcDbEntity
  8
A733_ストリートファニチャ
 62
     7
370
     9
100
AcDbLine
 10
180371.370802
 20
102010.108157
 30
0.0
 11
180371.370802
 21
102025.108157
 31
0.0
  0
LINE
  5
B0CF
330
B3EC
100
AcDbEntity
  8
A733_ストリートファニチャ
 62
     7
370
     9
100
AcDbLine
 10
180371.370802
 20
103270.108157
 30
0.0
 11
180371.370802
 21
103255.108157
 31
0.0
  0
LINE
  5
B0D0
330
B3EC
100
AcDbEntity
  8
A733_ストリートファニチャ
 62
     7
370
     9
100
AcDbLine
 10
180371.370802
 20
105135.108157
 30
0.0
 11
180371.370802
 21
105120.108157
 31
0.0
  0
LINE
  5
B0D1
330
B3EC
100
AcDbEntity
  8
A733_ストリートファニチャ
 62
     7
370
     9
100
AcDbLine
 10
180371.370802
 20
103875.108157
 30
0.0
 11
180371.370802
 21
103890.108157
 31
0.0
  0
LINE
  5
B0D2
330
B3EC
100
AcDbEntity
  8
A733_ストリートファニチャ
 62
     7
370
     9
100
AcDbLine
 10
182687.870802
 20
97979.108157
 30
0.0
 11
182687.870802
 21
97964.108157
 31
0.0
  0
LINE
  5
B0D3
330
B3EC
100
AcDbEntity
  8
A733_ストリートファニチャ
 62
     7
370
     9
100
AcDbLine
 10
182687.870802
 20
97979.108157
 30
0.0
 11
182702.870802
 21
97979.108157
 31
0.0
  0
LINE
  5
B0D4
330
B3EC
100
AcDbEntity
  8
A733_ストリートファニチャ
 62
     7
370
     9
100
AcDbLine
 10
182702.870802
 20
97979.108157
 30
0.0
 11
182702.870802
 21
97964.108157
 31
0.0
  0
LINE
  5
B0D5
330
B3EC
100
AcDbEntity
  8
A733_ストリートファニチャ
 62
     7
370
     9
100
AcDbLine
 10
183932.870802
 20
97979.108157
 30
0.0
 11
183932.870802
 21
97964.108157
 31
0.0
  0
LINE
  5
B0D6
330
B3EC
100
AcDbEntity
  8
A733_ストリートファニチャ
 62
     7
370
     9
100
AcDbLine
 10
183932.870802
 20
97979.108157
 30
0.0
 11
183947.870802
 21
97979.108157
 31
0.0
  0
LINE
  5
B0D7
330
B3EC
100
AcDbEntity
  8
A733_ストリートファニチャ
 62
     7
370
     9
100
AcDbLine
 10
183947.870802
 20
97979.108157
 30
0.0
 11
183947.870802
 21
97964.108157
 31
0.0
  0
LINE
  5
B0D8
330
B3EC
100
AcDbEntity
  8
A733_ストリートファニチャ
 62
     7
370
     9
100
AcDbLine
 10
185797.870802
 20
97979.108157
 30
0.0
 11
185797.870802
 21
97964.108157
 31
0.0
  0
LINE
  5
B0D9
330
B3EC
100
AcDbEntity
  8
A733_ストリートファニチャ
 62
     7
370
     9
100
AcDbLine
 10
185797.870802
 20
97979.108157
 30
0.0
 11
185812.870802
 21
97979.108157
 31
0.0
  0
LINE
  5
B0DA
330
B3EC
100
AcDbEntity
  8
A733_ストリートファニチャ
 62
     7
370
     9
100
AcDbLine
 10
185812.870802
 20
97979.108157
 30
0.0
 11
185812.870802
 21
97964.108157
 31
0.0
  0
LINE
  5
B0DB
330
B3EC
100
AcDbEntity
  8
A733_ストリートファニチャ
 62
     7
370
     9
100
AcDbLine
 10
185797.870802
 20
97964.108157
 30
0.0
 11
185812.870802
 21
97964.108157
 31
0.0
  0
LINE
  5
B0DC
330
B3EC
100
AcDbEntity
  8
A733_ストリートファニチャ
 62
     7
370
     9
100
AcDbLine
 10
182687.870802
 20
97964.108157
 30
0.0
 11
182702.870802
 21
97964.108157
 31
0.0
  0
LINE
  5
B0DD
330
B3EC
100
AcDbEntity
  8
A733_ストリートファニチャ
 62
     7
370
     9
100
AcDbLine
 10
183932.870802
 20
97964.108157
 30
0.0
 11
183947.870802
 21
97964.108157
 31
0.0
  0
LINE
  5
B0DE
330
B3EC
100
AcDbEntity
  8
A733_ストリートファニチャ
 62
     7
370
     9
100
AcDbLine
 10
184552.870802
 20
97979.108157
 30
0.0
 11
184552.870802
 21
97964.108157
 31
0.0
  0
LINE
  5
B0DF
330
B3EC
100
AcDbEntity
  8
A733_ストリートファニチャ
 62
     7
370
     9
100
AcDbLine
 10
184552.870802
 20
97979.108157
 30
0.0
 11
184567.870802
 21
97979.108157
 31
0.0
  0
LINE
  5
B0E0
330
B3EC
100
AcDbEntity
  8
A733_ストリートファニチャ
 62
     7
370
     9
100
AcDbLine
 10
184567.870802
 20
97979.108157
 30
0.0
 11
184567.870802
 21
97964.108157
 31
0.0
  0
LINE
  5
B0E1
330
B3EC
100
AcDbEntity
  8
A733_ストリートファニチャ
 62
     7
370
     9
100
AcDbLine
 10
184552.870802
 20
97964.108157
 30
0.0
 11
184567.870802
 21
97964.108157
 31
0.0
  0
LINE
  5
B0E2
330
B3EC
100
AcDbEntity
  8
A733_ストリートファニチャ
 62
     7
370
     9
100
AcDbLine
 10
182462.370802
 20
107436.108157
 30
0.0
 11
182462.370802
 21
107801.108157
 31
0.0
  0
LINE
  5
B0E3
330
B3EC
100
AcDbEntity
  8
A733_ストリートファニチャ
 62
     7
370
     9
100
AcDbLine
 10
180361.370802
 20
101425.108157
 30
0.0
 11
180361.370802
 21
101475.108157
 31
0.0
  0
LINE
  5
B0E4
330
B3EC
100
AcDbEntity
  8
A733_ストリートファニチャ
 62
     7
370
     9
100
AcDbLine
 10
180186.370802
 20
101425.108157
 30
0.0
 11
180361.370802
 21
101425.108157
 31
0.0
  0
LINE
  5
B0E5
330
B3EC
100
AcDbEntity
  8
A733_ストリートファニチャ
 62
     7
370
     9
100
AcDbLine
 10
180186.370802
 20
100125.108157
 30
0.0
 11
180361.370802
 21
100125.108157
 31
0.0
  0
LINE
  5
B0E6
330
B3EC
100
AcDbEntity
  8
A733_ストリートファニチャ
 62
     7
370
     9
100
AcDbLine
 10
180186.370802
 20
101425.108157
 30
0.0
 11
180186.370802
 21
101990.108157
 31
0.0
  0
LINE
  5
B0E7
330
B3EC
100
AcDbEntity
  8
A733_ストリートファニチャ
 62
     7
370
     9
100
AcDbLine
 10
180186.370802
 20
101990.108157
 30
0.0
 11
180361.370802
 21
101990.108157
 31
0.0
  0
LINE
  5
B0E8
330
B3EC
100
AcDbEntity
  8
A733_ストリートファニチャ
 62
     7
370
     9
100
AcDbLine
 10
180186.370802
 20
103855.108157
 30
0.0
 11
180361.370802
 21
103855.108157
 31
0.0
  0
LINE
  5
B0E9
330
B3EC
100
AcDbEntity
  8
A733_ストリートファニチャ
 62
     7
370
     9
100
AcDbLine
 10
180186.370802
 20
103290.108157
 30
0.0
 11
180186.370802
 21
103855.108157
 31
0.0
  0
LINE
  5
B0EA
330
B3EC
100
AcDbEntity
  8
A733_ストリートファニチャ
 62
     7
370
     9
100
AcDbLine
 10
180186.370802
 20
103290.108157
 30
0.0
 11
180361.370802
 21
103290.108157
 31
0.0
  0
LINE
  5
B0EB
330
B3EC
100
AcDbEntity
  8
A733_ストリートファニチャ
 62
     7
370
     9
100
AcDbLine
 10
180186.370802
 20
105155.108157
 30
0.0
 11
180361.370802
 21
105155.108157
 31
0.0
  0
ARC
  5
B0EC
330
B3EC
100
AcDbEntity
  8
A733_ストリートファニチャ
 62
     7
370
     9
100
AcDbCircle
 10
188189.370802
 20
97904.108157
 30
0.0
 40
125.0
100
AcDbArc
 50
270.0
 51
0.0
  0
LINE
  5
B0ED
330
B3EC
100
AcDbEntity
  8
A733_ストリートファニチャ
 62
     7
370
     9
100
AcDbLine
 10
185832.870802
 20
97779.108157
 30
0.0
 11
185832.870802
 21
97954.108157
 31
0.0
  0
LINE
  5
B0EE
330
B3EC
100
AcDbEntity
  8
A733_ストリートファニチャ
 62
     7
370
     9
100
AcDbLine
 10
188189.370802
 20
97779.108157
 30
0.0
 11
185832.870802
 21
97779.108157
 31
0.0
  0
LINE
  5
B0EF
330
B3EC
100
AcDbEntity
  8
A733_ストリートファニチャ
 62
     7
370
     9
100
AcDbLine
 10
184532.870802
 20
97779.108157
 30
0.0
 11
183967.870802
 21
97779.108157
 31
0.0
  0
ARC
  5
B0F0
330
B3EC
100
AcDbEntity
  8
A733_ストリートファニチャ
 62
     7
370
     9
100
AcDbCircle
 10
180311.370802
 20
97904.108157
 30
0.0
 40
125.0
100
AcDbArc
 50
180.0
 51
270.0
  0
LINE
  5
B0F1
330
B3EC
100
AcDbEntity
  8
A733_ストリートファニチャ
 62
     7
370
     9
100
AcDbLine
 10
182667.870802
 20
97779.108157
 30
0.0
 11
180311.370802
 21
97779.108157
 31
0.0
  0
LINE
  5
B0F2
330
B3EC
100
AcDbEntity
  8
A733_ストリートファニチャ
 62
     7
370
     9
100
AcDbLine
 10
180186.370802
 20
97904.108157
 30
0.0
 11
180186.370802
 21
100125.108157
 31
0.0
  0
LINE
  5
B0F3
330
B3EC
100
AcDbEntity
  8
A733_ストリートファニチャ
 62
     7
370
     9
100
AcDbLine
 10
180186.370802
 20
105155.108157
 30
0.0
 11
180186.370802
 21
106896.108157
 31
0.0
  0
LINE
  5
B0F4
330
B3EC
100
AcDbEntity
  8
A733_ストリートファニチャ
 62
     7
370
     9
100
AcDbLine
 10
180361.370802
 20
100125.108157
 30
0.0
 11
180361.370802
 21
100075.108157
 31
0.0
  0
LINE
  5
B0F5
330
B3EC
100
AcDbEntity
  8
A733_ストリートファニチャ
 62
     7
370
     9
100
AcDbLine
 10
180361.370802
 20
103290.108157
 30
0.0
 11
180361.370802
 21
103340.108157
 31
0.0
  0
LINE
  5
B0F6
330
B3EC
100
AcDbEntity
  8
A733_ストリートファニチャ
 62
     7
370
     9
100
AcDbLine
 10
180361.370802
 20
101990.108157
 30
0.0
 11
180361.370802
 21
101940.108157
 31
0.0
  0
LINE
  5
B0F7
330
B3EC
100
AcDbEntity
  8
A733_ストリートファニチャ
 62
     7
370
     9
100
AcDbLine
 10
180361.370802
 20
105155.108157
 30
0.0
 11
180361.370802
 21
105205.108157
 31
0.0
  0
LINE
  5
B0F8
330
B3EC
100
AcDbEntity
  8
A733_ストリートファニチャ
 62
     7
370
     9
100
AcDbLine
 10
180361.370802
 20
103855.108157
 30
0.0
 11
180361.370802
 21
103805.108157
 31
0.0
  0
LINE
  5
B0F9
330
B3EC
100
AcDbEntity
  8
A733_ストリートファニチャ
 62
     7
370
     9
100
AcDbLine
 10
185832.870802
 20
97954.108157
 30
0.0
 11
185882.870802
 21
97954.108157
 31
0.0
  0
LINE
  5
B0FA
330
B3EC
100
AcDbEntity
  8
A733_ストリートファニチャ
 62
     7
370
     9
100
AcDbLine
 10
184532.870802
 20
97779.108157
 30
0.0
 11
184532.870802
 21
97954.108157
 31
0.0
  0
LINE
  5
B0FB
330
B3EC
100
AcDbEntity
  8
A733_ストリートファニチャ
 62
     7
370
     9
100
AcDbLine
 10
184532.870802
 20
97954.108157
 30
0.0
 11
184482.870802
 21
97954.108157
 31
0.0
  0
LINE
  5
B0FC
330
B3EC
100
AcDbEntity
  8
A733_ストリートファニチャ
 62
     7
370
     9
100
AcDbLine
 10
183967.870802
 20
97779.108157
 30
0.0
 11
183967.870802
 21
97954.108157
 31
0.0
  0
LINE
  5
B0FD
330
B3EC
100
AcDbEntity
  8
A733_ストリートファニチャ
 62
     7
370
     9
100
AcDbLine
 10
183967.870802
 20
97954.108157
 30
0.0
 11
184017.870802
 21
97954.108157
 31
0.0
  0
LINE
  5
B0FE
330
B3EC
100
AcDbEntity
  8
A733_ストリートファニチャ
 62
     7
370
     9
100
AcDbLine
 10
182667.870802
 20
97779.108157
 30
0.0
 11
182667.870802
 21
97954.108157
 31
0.0
  0
LINE
  5
B0FF
330
B3EC
100
AcDbEntity
  8
A733_ストリートファニチャ
 62
     7
370
     9
100
AcDbLine
 10
182667.870802
 20
97954.108157
 30
0.0
 11
182617.870802
 21
97954.108157
 31
0.0
  0
LINE
  5
B100
330
B3EC
100
AcDbEntity
  8
A733_ストリートファニチャ
 62
     7
370
     9
100
AcDbLine
 10
182617.870802
 20
97954.108157
 30
0.0
 11
182617.870802
 21
98109.108157
 31
0.0
  0
LINE
  5
B101
330
B3EC
100
AcDbEntity
  8
A733_ストリートファニチャ
 62
     7
370
     9
100
AcDbLine
 10
181034.370802
 20
98109.108157
 30
0.0
 11
182617.870802
 21
98109.108157
 31
0.0
  0
LINE
  5
B102
330
B3EC
100
AcDbEntity
  8
A733_ストリートファニチャ
 62
     7
370
     9
100
AcDbLine
 10
181034.370802
 20
98109.108157
 30
0.0
 11
181034.370802
 21
98627.108157
 31
0.0
  0
LINE
  5
B103
330
B3EC
100
AcDbEntity
  8
A733_ストリートファニチャ
 62
     7
370
     9
100
AcDbLine
 10
184017.870802
 20
98109.108157
 30
0.0
 11
184482.870802
 21
98109.108157
 31
0.0
  0
LINE
  5
B104
330
B3EC
100
AcDbEntity
  8
A733_ストリートファニチャ
 62
     7
370
     9
100
AcDbLine
 10
184482.870802
 20
97954.108157
 30
0.0
 11
184482.870802
 21
98109.108157
 31
0.0
  0
LINE
  5
B105
330
B3EC
100
AcDbEntity
  8
A733_ストリートファニチャ
 62
     7
370
     9
100
AcDbLine
 10
184017.870802
 20
97954.108157
 30
0.0
 11
184017.870802
 21
98109.108157
 31
0.0
  0
LINE
  5
B106
330
B3EC
100
AcDbEntity
  8
A733_ストリートファニチャ
 62
     7
370
     9
100
AcDbLine
 10
185882.870802
 20
97954.108157
 30
0.0
 11
185882.870802
 21
98109.108157
 31
0.0
  0
LINE
  5
B107
330
B3EC
100
AcDbEntity
  8
A733_ストリートファニチャ
 62
     7
370
     9
100
AcDbLine
 10
187466.370802
 20
98109.108157
 30
0.0
 11
185882.870802
 21
98109.108157
 31
0.0
  0
LINE
  5
B108
330
B3EC
100
AcDbEntity
  8
A733_ストリートファニチャ
 62
     7
370
     9
100
AcDbLine
 10
187466.370802
 20
98109.108157
 30
0.0
 11
187466.370802
 21
98627.108157
 31
0.0
  0
LINE
  5
B109
330
B3EC
100
AcDbEntity
  8
A733_ストリートファニチャ
 62
     7
370
     9
100
AcDbLine
 10
187466.370802
 20
98627.108157
 30
0.0
 11
188019.370802
 21
98627.108157
 31
0.0
  0
LINE
  5
B10A
330
B3EC
100
AcDbEntity
  8
A733_ストリートファニチャ
 62
     7
370
     9
100
AcDbLine
 10
188019.370802
 20
98627.108157
 30
0.0
 11
188019.370802
 21
100715.108157
 31
0.0
  0
LINE
  5
B10B
330
B3EC
100
AcDbEntity
  8
A733_ストリートファニチャ
 62
     7
370
     9
100
AcDbLine
 10
187466.370802
 20
106628.108157
 30
0.0
 11
187466.370802
 21
107256.108157
 31
0.0
  0
LINE
  5
B10C
330
B3EC
100
AcDbEntity
  8
A733_ストリートファニチャ
 62
     7
370
     9
100
AcDbLine
 10
183219.370802
 20
107801.108157
 30
0.0
 11
182462.370802
 21
107801.108157
 31
0.0
  0
LINE
  5
B10D
330
B3EC
100
AcDbEntity
  8
A733_ストリートファニチャ
 62
     7
370
     9
100
AcDbLine
 10
181034.370802
 20
106588.108157
 30
0.0
 11
181034.370802
 21
107256.108157
 31
0.0
  0
LINE
  5
B10E
330
B3EC
100
AcDbEntity
  8
A733_ストリートファニチャ
 62
     7
370
     9
100
AcDbLine
 10
180361.370802
 20
100075.108157
 30
0.0
 11
180516.370802
 21
100075.108157
 31
0.0
  0
LINE
  5
B10F
330
B3EC
100
AcDbEntity
  8
A733_ストリートファニチャ
 62
     7
370
     9
100
AcDbLine
 10
180516.370802
 20
98627.108157
 30
0.0
 11
180516.370802
 21
100075.108157
 31
0.0
  0
LINE
  5
B110
330
B3EC
100
AcDbEntity
  8
A733_ストリートファニチャ
 62
     7
370
     9
100
AcDbLine
 10
180516.370802
 20
98627.108157
 30
0.0
 11
181034.370802
 21
98627.108157
 31
0.0
  0
LINE
  5
B111
330
B3EC
100
AcDbEntity
  8
A733_ストリートファニチャ
 62
     7
370
     9
100
AcDbLine
 10
180361.370802
 20
101475.108157
 30
0.0
 11
180516.370802
 21
101475.108157
 31
0.0
  0
LINE
  5
B112
330
B3EC
100
AcDbEntity
  8
A733_ストリートファニチャ
 62
     7
370
     9
100
AcDbLine
 10
180516.370802
 20
101940.108157
 30
0.0
 11
180516.370802
 21
101475.108157
 31
0.0
  0
LINE
  5
B113
330
B3EC
100
AcDbEntity
  8
A733_ストリートファニチャ
 62
     7
370
     9
100
AcDbLine
 10
180361.370802
 20
101940.108157
 30
0.0
 11
180516.370802
 21
101940.108157
 31
0.0
  0
LINE
  5
B114
330
B3EC
100
AcDbEntity
  8
A733_ストリートファニチャ
 62
     7
370
     9
100
AcDbLine
 10
180361.370802
 20
103340.108157
 30
0.0
 11
180516.370802
 21
103340.108157
 31
0.0
  0
LINE
  5
B115
330
B3EC
100
AcDbEntity
  8
A733_ストリートファニチャ
 62
     7
370
     9
100
AcDbLine
 10
180516.370802
 20
103805.108157
 30
0.0
 11
180516.370802
 21
103340.108157
 31
0.0
  0
LINE
  5
B116
330
B3EC
100
AcDbEntity
  8
A733_ストリートファニチャ
 62
     7
370
     9
100
AcDbLine
 10
180361.370802
 20
103805.108157
 30
0.0
 11
180516.370802
 21
103805.108157
 31
0.0
  0
LINE
  5
B117
330
B3EC
100
AcDbEntity
  8
A733_ストリートファニチャ
 62
     7
370
     9
100
AcDbLine
 10
180361.370802
 20
105205.108157
 30
0.0
 11
180516.370802
 21
105205.108157
 31
0.0
  0
LINE
  5
B118
330
B3EC
100
AcDbEntity
  8
A733_ストリートファニチャ
 62
     7
370
     9
100
AcDbLine
 10
180516.370802
 20
106588.108157
 30
0.0
 11
180516.370802
 21
105205.108157
 31
0.0
  0
LINE
  5
B119
330
B3EC
100
AcDbEntity
  8
A733_ストリートファニチャ
 62
     7
370
     9
100
AcDbLine
 10
181034.370802
 20
106588.108157
 30
0.0
 11
180516.370802
 21
106588.108157
 31
0.0
  0
LINE
  5
B11A
330
B3EC
100
AcDbEntity
  8
A733_ストリートファニチャ
 62
     7
370
     9
100
AcDbLine
 10
188314.370802
 20
97904.108157
 30
0.0
 11
188314.370802
 21
100109.108157
 31
0.0
  0
LINE
  5
B11B
330
B3EC
100
AcDbEntity
  8
A733_ストリートファニチャ
 62
     7
370
     9
100
AcDbLine
 10
188314.370802
 20
100109.108157
 30
0.0
 11
188616.588908
 21
100109.108157
 31
0.0
  0
LINE
  5
B11C
330
B3EC
100
AcDbEntity
  8
A733_ストリートファニチャ
 62
     7
370
     9
100
AcDbLine
 10
182462.370802
 20
107436.108157
 30
0.0
 11
179911.370802
 21
107436.108157
 31
0.0
  0
LINE
  5
B11D
330
B3EC
100
AcDbEntity
  8
A733_ストリートファニチャ
 62
     7
370
     9
100
AcDbLine
 10
179911.370802
 20
106896.108157
 30
0.0
 11
179911.370802
 21
107436.108157
 31
0.0
  0
LINE
  5
B11E
330
B3EC
100
AcDbEntity
  8
A733_ストリートファニチャ
 62
     7
370
     9
100
AcDbLine
 10
180186.370802
 20
106896.108157
 30
0.0
 11
179911.370802
 21
106896.108157
 31
0.0
  0
LINE
  5
B11F
330
B3EC
100
AcDbEntity
  8
A733_ストリートファニチャ
 62
     7
370
     9
100
AcDbLine
 10
183636.370802
 20
107256.108157
 30
0.0
 11
181034.370802
 21
107256.108157
 31
0.0
  0
LINE
  5
B120
330
B3EC
100
AcDbEntity
  8
A733_ストリートファニチャ
 62
     7
370
     9
100
AcDbLine
 10
180066.370802
 20
100180.108157
 30
0.0
 11
180066.370802
 21
101370.108157
 31
0.0
  0
LINE
  5
B121
330
B3EC
100
AcDbEntity
  8
A733_ストリートファニチャ
 62
     7
370
     9
100
AcDbLine
 10
180386.370802
 20
100180.108157
 30
0.0
 11
180066.370802
 21
100180.108157
 31
0.0
  0
LINE
  5
B122
330
B3EC
100
AcDbEntity
  8
A733_ストリートファニチャ
 62
     7
370
     9
100
AcDbLine
 10
180386.370802
 20
102045.108157
 30
0.0
 11
180066.370802
 21
102045.108157
 31
0.0
  0
LINE
  5
B123
330
B3EC
100
AcDbEntity
  8
A733_ストリートファニチャ
 62
     7
370
     9
100
AcDbLine
 10
180066.370802
 20
102045.108157
 30
0.0
 11
180066.370802
 21
103235.108157
 31
0.0
  0
LINE
  5
B124
330
B3EC
100
AcDbEntity
  8
A733_ストリートファニチャ
 62
     7
370
     9
100
AcDbLine
 10
180386.370802
 20
103910.108157
 30
0.0
 11
180066.370802
 21
103910.108157
 31
0.0
  0
LINE
  5
B125
330
B3EC
100
AcDbEntity
  8
A733_ストリートファニチャ
 62
     7
370
     9
100
AcDbLine
 10
180386.370802
 20
105100.108157
 30
0.0
 11
180066.370802
 21
105100.108157
 31
0.0
  0
LINE
  5
B126
330
B3EC
100
AcDbEntity
  8
A733_ストリートファニチャ
 62
     7
370
     9
100
AcDbLine
 10
180066.370802
 20
103910.108157
 30
0.0
 11
180066.370802
 21
105100.108157
 31
0.0
  0
LINE
  5
B127
330
B3EC
100
AcDbEntity
  8
A733_ストリートファニチャ
 62
     7
370
     9
100
AcDbLine
 10
180106.370802
 20
102025.108157
 30
0.0
 11
180106.370802
 21
101390.108157
 31
0.0
  0
LINE
  5
B128
330
B3EC
100
AcDbEntity
  8
A733_ストリートファニチャ
 62
     7
370
     9
100
AcDbLine
 10
180386.370802
 20
101370.108157
 30
0.0
 11
180066.370802
 21
101370.108157
 31
0.0
  0
LINE
  5
B129
330
B3EC
100
AcDbEntity
  8
A733_ストリートファニチャ
 62
     7
370
     9
100
AcDbLine
 10
180106.370802
 20
103890.108157
 30
0.0
 11
180106.370802
 21
103255.108157
 31
0.0
  0
LINE
  5
B12A
330
B3EC
100
AcDbEntity
  8
A733_ストリートファニチャ
 62
     7
370
     9
100
AcDbLine
 10
180386.370802
 20
103235.108157
 30
0.0
 11
180066.370802
 21
103235.108157
 31
0.0
  0
LINE
  5
B12B
330
B3EC
100
AcDbEntity
  8
A733_ストリートファニチャ
 62
     7
370
     9
100
AcDbLine
 10
180106.370802
 20
100160.108157
 30
0.0
 11
180106.370802
 21
97904.108157
 31
0.0
  0
LINE
  5
B12C
330
B3EC
100
AcDbEntity
  8
A733_ストリートファニチャ
 62
     7
370
     9
100
AcDbLine
 10
180066.370802
 20
105300.108157
 30
0.0
 11
180066.370802
 21
105100.108157
 31
0.0
  0
LINE
  5
B12D
330
B3EC
100
AcDbEntity
  8
A733_ストリートファニチャ
 62
     7
370
     9
100
AcDbLine
 10
180066.370802
 20
100180.108157
 30
0.0
 11
180066.370802
 21
99980.108157
 31
0.0
  0
LINE
  5
B12E
330
B3EC
100
AcDbEntity
  8
A733_ストリートファニチャ
 62
     7
370
     9
100
AcDbLine
 10
180106.370802
 20
99980.108157
 30
0.0
 11
180066.370802
 21
99980.108157
 31
0.0
  0
LINE
  5
B12F
330
B3EC
100
AcDbEntity
  8
A733_ストリートファニチャ
 62
     7
370
     9
100
AcDbLine
 10
180106.370802
 20
101570.108157
 30
0.0
 11
180066.370802
 21
101570.108157
 31
0.0
  0
LINE
  5
B130
330
B3EC
100
AcDbEntity
  8
A733_ストリートファニチャ
 62
     7
370
     9
100
AcDbLine
 10
180106.370802
 20
101845.108157
 30
0.0
 11
180066.370802
 21
101845.108157
 31
0.0
  0
LINE
  5
B131
330
B3EC
100
AcDbEntity
  8
A733_ストリートファニチャ
 62
     7
370
     9
100
AcDbLine
 10
180106.370802
 20
103435.108157
 30
0.0
 11
180066.370802
 21
103435.108157
 31
0.0
  0
LINE
  5
B132
330
B3EC
100
AcDbEntity
  8
A733_ストリートファニチャ
 62
     7
370
     9
100
AcDbLine
 10
180106.370802
 20
103710.108157
 30
0.0
 11
180066.370802
 21
103710.108157
 31
0.0
  0
LINE
  5
B133
330
B3EC
100
AcDbEntity
  8
A733_ストリートファニチャ
 62
     7
370
     9
100
AcDbLine
 10
180106.370802
 20
105300.108157
 30
0.0
 11
180066.370802
 21
105300.108157
 31
0.0
  0
LINE
  5
B134
330
B3EC
100
AcDbEntity
  8
A733_ストリートファニチャ
 62
     7
370
     9
100
AcDbLine
 10
180066.370802
 20
103910.108157
 30
0.0
 11
180066.370802
 21
103710.108157
 31
0.0
  0
LINE
  5
B135
330
B3EC
100
AcDbEntity
  8
A733_ストリートファニチャ
 62
     7
370
     9
100
AcDbLine
 10
180066.370802
 20
103435.108157
 30
0.0
 11
180066.370802
 21
103235.108157
 31
0.0
  0
LINE
  5
B136
330
B3EC
100
AcDbEntity
  8
A733_ストリートファニチャ
 62
     7
370
     9
100
AcDbLine
 10
180066.370802
 20
102045.108157
 30
0.0
 11
180066.370802
 21
101845.108157
 31
0.0
  0
LINE
  5
B137
330
B3EC
100
AcDbEntity
  8
A733_ストリートファニチャ
 62
     7
370
     9
100
AcDbLine
 10
180066.370802
 20
101570.108157
 30
0.0
 11
180066.370802
 21
101370.108157
 31
0.0
  0
LINE
  5
B138
330
B3EC
100
AcDbEntity
  8
A733_ストリートファニチャ
 62
     7
370
     9
100
AcDbLine
 10
180371.370802
 20
100160.108157
 30
0.0
 11
180106.370802
 21
100160.108157
 31
0.0
  0
LINE
  5
B139
330
B3EC
100
AcDbEntity
  8
A733_ストリートファニチャ
 62
     7
370
     9
100
AcDbLine
 10
180371.370802
 20
101390.108157
 30
0.0
 11
180106.370802
 21
101390.108157
 31
0.0
  0
LINE
  5
B13A
330
B3EC
100
AcDbEntity
  8
A733_ストリートファニチャ
 62
     7
370
     9
100
AcDbLine
 10
180371.370802
 20
102025.108157
 30
0.0
 11
180106.370802
 21
102025.108157
 31
0.0
  0
LINE
  5
B13B
330
B3EC
100
AcDbEntity
  8
A733_ストリートファニチャ
 62
     7
370
     9
100
AcDbLine
 10
180371.370802
 20
103255.108157
 30
0.0
 11
180106.370802
 21
103255.108157
 31
0.0
  0
LINE
  5
B13C
330
B3EC
100
AcDbEntity
  8
A733_ストリートファニチャ
 62
     7
370
     9
100
AcDbLine
 10
180371.370802
 20
105120.108157
 30
0.0
 11
180106.370802
 21
105120.108157
 31
0.0
  0
LINE
  5
B13D
330
B3EC
100
AcDbEntity
  8
A733_ストリートファニチャ
 62
     7
370
     9
100
AcDbLine
 10
180371.370802
 20
103890.108157
 30
0.0
 11
180106.370802
 21
103890.108157
 31
0.0
  0
LINE
  5
B13E
330
B3EC
100
AcDbEntity
  8
A733_ストリートファニチャ
 62
     7
370
     9
100
AcDbLine
 10
179911.370802
 20
106816.108157
 30
0.0
 11
180106.370802
 21
106816.108157
 31
0.0
  0
LINE
  5
B13F
330
B3EC
100
AcDbEntity
  8
A733_ストリートファニチャ
 62
     7
370
     9
100
AcDbLine
 10
180106.370802
 20
106816.108157
 30
0.0
 11
180106.370802
 21
105120.108157
 31
0.0
  0
LINE
  5
B140
330
B3EC
100
AcDbEntity
  8
A733_ストリートファニチャ
 62
     7
370
     9
100
AcDbLine
 10
185777.870802
 20
97979.108157
 30
0.0
 11
185777.870802
 21
97659.108157
 31
0.0
  0
LINE
  5
B141
330
B3EC
100
AcDbEntity
  8
A733_ストリートファニチャ
 62
     7
370
     9
100
AcDbLine
 10
184587.870802
 20
97979.108157
 30
0.0
 11
184587.870802
 21
97659.108157
 31
0.0
  0
LINE
  5
B142
330
B3EC
100
AcDbEntity
  8
A733_ストリートファニチャ
 62
     7
370
     9
100
AcDbLine
 10
185777.870802
 20
97659.108157
 30
0.0
 11
184587.870802
 21
97659.108157
 31
0.0
  0
LINE
  5
B143
330
B3EC
100
AcDbEntity
  8
A733_ストリートファニチャ
 62
     7
370
     9
100
AcDbLine
 10
183932.870802
 20
97699.108157
 30
0.0
 11
184567.870802
 21
97699.108157
 31
0.0
  0
LINE
  5
B144
330
B3EC
100
AcDbEntity
  8
A733_ストリートファニチャ
 62
     7
370
     9
100
AcDbLine
 10
183912.870802
 20
97979.108157
 30
0.0
 11
183912.870802
 21
97659.108157
 31
0.0
  0
LINE
  5
B145
330
B3EC
100
AcDbEntity
  8
A733_ストリートファニチャ
 62
     7
370
     9
100
AcDbLine
 10
183912.870802
 20
97659.108157
 30
0.0
 11
182722.870802
 21
97659.108157
 31
0.0
  0
LINE
  5
B146
330
B3EC
100
AcDbEntity
  8
A733_ストリートファニチャ
 62
     7
370
     9
100
AcDbLine
 10
180311.370802
 20
97699.108157
 30
0.0
 11
182702.870802
 21
97699.108157
 31
0.0
  0
LINE
  5
B147
330
B3EC
100
AcDbEntity
  8
A733_ストリートファニチャ
 62
     7
370
     9
100
AcDbLine
 10
185797.870802
 20
97699.108157
 30
0.0
 11
188189.370802
 21
97699.108157
 31
0.0
  0
LINE
  5
B148
330
B3EC
100
AcDbEntity
  8
A733_ストリートファニチャ
 62
     7
370
     9
100
AcDbLine
 10
182522.870802
 20
97699.108157
 30
0.0
 11
182522.870802
 21
97659.108157
 31
0.0
  0
LINE
  5
B149
330
B3EC
100
AcDbEntity
  8
A733_ストリートファニチャ
 62
     7
370
     9
100
AcDbLine
 10
182722.870802
 20
97659.108157
 30
0.0
 11
182522.870802
 21
97659.108157
 31
0.0
  0
LINE
  5
B14A
330
B3EC
100
AcDbEntity
  8
A733_ストリートファニチャ
 62
     7
370
     9
100
AcDbLine
 10
182722.870802
 20
97979.108157
 30
0.0
 11
182722.870802
 21
97659.108157
 31
0.0
  0
LINE
  5
B14B
330
B3EC
100
AcDbEntity
  8
A733_ストリートファニチャ
 62
     7
370
     9
100
AcDbLine
 10
184112.870802
 20
97659.108157
 30
0.0
 11
183912.870802
 21
97659.108157
 31
0.0
  0
LINE
  5
B14C
330
B3EC
100
AcDbEntity
  8
A733_ストリートファニチャ
 62
     7
370
     9
100
AcDbLine
 10
184112.870802
 20
97699.108157
 30
0.0
 11
184112.870802
 21
97659.108157
 31
0.0
  0
LINE
  5
B14D
330
B3EC
100
AcDbEntity
  8
A733_ストリートファニチャ
 62
     7
370
     9
100
AcDbLine
 10
184387.870802
 20
97699.108157
 30
0.0
 11
184387.870802
 21
97659.108157
 31
0.0
  0
LINE
  5
B14E
330
B3EC
100
AcDbEntity
  8
A733_ストリートファニチャ
 62
     7
370
     9
100
AcDbLine
 10
184587.870802
 20
97659.108157
 30
0.0
 11
184387.870802
 21
97659.108157
 31
0.0
  0
LINE
  5
B14F
330
B3EC
100
AcDbEntity
  8
A733_ストリートファニチャ
 62
     7
370
     9
100
AcDbLine
 10
185977.870802
 20
97699.108157
 30
0.0
 11
185977.870802
 21
97659.108157
 31
0.0
  0
LINE
  5
B150
330
B3EC
100
AcDbEntity
  8
A733_ストリートファニチャ
 62
     7
370
     9
100
AcDbLine
 10
185777.870802
 20
97659.108157
 30
0.0
 11
185977.870802
 21
97659.108157
 31
0.0
  0
LINE
  5
B151
330
B3EC
100
AcDbEntity
  8
A733_ストリートファニチャ
 62
     7
370
     9
100
AcDbLine
 10
185797.870802
 20
97964.108157
 30
0.0
 11
185797.870802
 21
97699.108157
 31
0.0
  0
LINE
  5
B152
330
B3EC
100
AcDbEntity
  8
A733_ストリートファニチャ
 62
     7
370
     9
100
AcDbLine
 10
182702.870802
 20
97964.108157
 30
0.0
 11
182702.870802
 21
97699.108157
 31
0.0
  0
LINE
  5
B153
330
B3EC
100
AcDbEntity
  8
A733_ストリートファニチャ
 62
     7
370
     9
100
AcDbLine
 10
183932.870802
 20
97964.108157
 30
0.0
 11
183932.870802
 21
97699.108157
 31
0.0
  0
LINE
  5
B154
330
B3EC
100
AcDbEntity
  8
A733_ストリートファニチャ
 62
     7
370
     9
100
AcDbLine
 10
184567.870802
 20
97964.108157
 30
0.0
 11
184567.870802
 21
97699.108157
 31
0.0
  0
ARC
  5
B155
330
B3EC
100
AcDbEntity
  8
A733_ストリートファニチャ
 62
     7
370
     9
100
AcDbCircle
 10
180311.370802
 20
97904.108157
 30
0.0
 40
205.0
100
AcDbArc
 50
180.0
 51
270.0
  0
LINE
  5
B156
330
B3EC
100
AcDbEntity
  8
A733_ストリートファニチャ
 62
     7
370
     9
100
AcDbLine
 10
182462.370802
 20
107436.108157
 30
0.0
 11
182462.370802
 21
107256.108157
 31
0.0
  0
LINE
  5
B157
330
B3EC
100
AcDbEntity
  8
A733_ストリートファニチャ
 62
     7
370
     9
100
AcDbLine
 10
180186.370802
 20
106896.108157
 30
0.0
 11
180186.370802
 21
107436.108157
 31
0.0
  0
LINE
  5
B158
330
B3EC
100
AcDbEntity
  8
A733_ストリートファニチャ
 62
     7
370
     9
100
AcDbLine
 10
181034.370802
 20
98627.108157
 30
0.0
 11
180222.982454
 21
97815.719809
 31
0.0
  0
LINE
  5
B159
330
B3EC
100
AcDbEntity
  8
A733_ストリートファニチャ
 62
     7
370
     9
100
AcDbLine
 10
181034.370802
 20
97779.108157
 30
0.0
 11
180186.370802
 21
98627.108157
 31
0.0
  0
LINE
  5
B15A
330
B3EC
100
AcDbEntity
  8
A733_ストリートファニチャ
 62
     7
370
     9
100
AcDbLine
 10
181034.370802
 20
98109.108157
 30
0.0
 11
181034.370802
 21
97779.108157
 31
0.0
  0
LINE
  5
B15B
330
B3EC
100
AcDbEntity
  8
A733_ストリートファニチャ
 62
     7
370
     9
100
AcDbLine
 10
187466.370802
 20
98109.108157
 30
0.0
 11
187466.370802
 21
97779.108157
 31
0.0
  0
LINE
  5
B15C
330
B3EC
100
AcDbEntity
  8
A733_ストリートファニチャ
 62
     7
370
     9
100
AcDbLine
 10
187466.370802
 20
98627.108157
 30
0.0
 11
188275.637516
 21
97813.647922
 31
0.0
  0
LINE
  5
B15D
330
B3EC
100
AcDbEntity
  8
A733_ストリートファニチャ
 62
     7
370
     9
100
AcDbLine
 10
187466.370802
 20
97779.108157
 30
0.0
 11
188314.370802
 21
98627.108157
 31
0.0
  0
LINE
  5
B15E
330
B3EC
100
AcDbEntity
  8
A733_ストリートファニチャ
 62
     7
370
     9
100
AcDbLine
 10
188019.370802
 20
98627.108157
 30
0.0
 11
188314.370802
 21
98627.108157
 31
0.0
  0
LINE
  5
B15F
330
B3EC
100
AcDbEntity
  8
A733_ストリートファニチャ
 62
     7
370
     9
100
AcDbLine
 10
188314.370802
 20
106628.108157
 30
0.0
 11
187466.370802
 21
107476.108157
 31
0.0
  0
LINE
  5
B160
330
B3EC
100
AcDbEntity
  8
A733_ストリートファニチャ
 62
     7
370
     9
100
AcDbLine
 10
188314.370802
 20
107476.108157
 30
0.0
 11
187466.370802
 21
106628.108157
 31
0.0
  0
LINE
  5
B161
330
B3EC
100
AcDbEntity
  8
A733_ストリートファニチャ
 62
     7
370
     9
100
AcDbLine
 10
183219.370802
 20
107256.108157
 30
0.0
 11
182462.370802
 21
107801.108157
 31
0.0
  0
LINE
  5
B162
330
B3EC
100
AcDbEntity
  8
A733_ストリートファニチャ
 62
     7
370
     9
100
AcDbLine
 10
183219.370802
 20
107801.108157
 30
0.0
 11
182462.370802
 21
107256.108157
 31
0.0
  0
LINE
  5
B163
330
B3EC
100
AcDbEntity
  8
A733_ストリートファニチャ
 62
     7
370
     9
100
AcDbLine
 10
181034.370802
 20
107256.108157
 30
0.0
 11
181034.370802
 21
107436.108157
 31
0.0
  0
LINE
  5
B164
330
B3EC
100
AcDbEntity
  8
A733_ストリートファニチャ
 62
     7
370
     9
100
AcDbLine
 10
180186.370802
 20
106588.108157
 30
0.0
 11
181034.370802
 21
107436.108157
 31
0.0
  0
LINE
  5
B165
330
B3EC
100
AcDbEntity
  8
A733_ストリートファニチャ
 62
     7
370
     9
100
AcDbLine
 10
181034.370802
 20
106588.108157
 30
0.0
 11
180186.370802
 21
107436.108157
 31
0.0
  0
LINE
  5
B166
330
B3EC
100
AcDbEntity
  8
A733_ストリートファニチャ
 62
     7
370
     9
100
AcDbLine
 10
180516.370802
 20
98627.108157
 30
0.0
 11
180186.370802
 21
98627.108157
 31
0.0
  0
LINE
  5
B167
330
B3EC
100
AcDbEntity
  8
A733_ストリートファニチャ
 62
     7
370
     9
100
AcDbLine
 10
180516.370802
 20
106588.108157
 30
0.0
 11
180186.370802
 21
106588.108157
 31
0.0
  0
LINE
  5
B168
330
B3EC
100
AcDbEntity
  8
A733_ストリートファニチャ
 62
     7
370
     9
100
AcDbLine
 10
188314.370802
 20
100109.108157
 30
0.0
 11
188019.370802
 21
100109.108157
 31
0.0
  0
LINE
  5
B169
330
B3EC
100
AcDbEntity
  8
A733_ストリートファニチャ
 62
     7
370
     9
100
AcDbLine
 10
188616.588908
 20
100325.953133
 30
0.0
 11
188019.370802
 21
100715.108157
 31
0.0
  0
LINE
  5
B16A
330
B3EC
100
AcDbEntity
  8
A733_ストリートファニチャ
 62
     7
370
     9
100
AcDbLine
 10
188019.370802
 20
100109.108157
 30
0.0
 11
188616.588908
 21
100498.263181
 31
0.0
  0
LINE
  5
B16B
330
B3EC
100
AcDbEntity
  8
A733_ストリートファニチャ
 62
     7
370
     9
100
AcDbLine
 10
187384.370802
 20
98189.108157
 30
0.0
 11
187384.370802
 21
98709.108157
 31
0.0
  0
LINE
  5
B16C
330
B3EC
100
AcDbEntity
  8
A733_ストリートファニチャ
 62
     7
370
     9
100
AcDbLine
 10
187384.370802
 20
98189.108157
 30
0.0
 11
181116.370802
 21
98189.108157
 31
0.0
  0
LINE
  5
B16D
330
B3EC
100
AcDbEntity
  8
A733_ストリートファニチャ
 62
     7
370
     9
100
AcDbLine
 10
187414.370802
 20
98159.108157
 30
0.0
 11
185857.870802
 21
98159.108157
 31
0.0
  0
LINE
  5
B16E
330
B3EC
100
AcDbEntity
  8
A733_ストリートファニチャ
 62
     7
370
     9
100
AcDbLine
 10
187414.370802
 20
98159.108157
 30
0.0
 11
187414.370802
 21
98679.108157
 31
0.0
  0
LINE
  5
B16F
330
B3EC
100
AcDbEntity
  8
A733_ストリートファニチャ
 62
     7
370
     9
100
AcDbLine
 10
188394.370802
 20
97904.108157
 30
0.0
 11
188394.370802
 21
100029.108157
 31
0.0
  0
LINE
  5
B170
330
B3EC
100
AcDbEntity
  8
A733_ストリートファニチャ
 62
     7
370
     9
100
AcDbLine
 10
188394.370802
 20
100029.108157
 30
0.0
 11
188616.588908
 21
100029.108157
 31
0.0
  0
LINE
  5
B171
330
B3EC
100
AcDbEntity
  8
A733_ストリートファニチャ
 62
     7
370
     9
100
AcDbLine
 10
187414.370802
 20
98679.108157
 30
0.0
 11
187967.370802
 21
98679.108157
 31
0.0
  0
LINE
  5
B172
330
B3EC
100
AcDbEntity
  8
A733_ストリートファニチャ
 62
     7
370
     9
100
AcDbLine
 10
187384.370802
 20
98709.108157
 30
0.0
 11
187937.370802
 21
98709.108157
 31
0.0
  0
LINE
  5
B173
330
B3EC
100
AcDbEntity
  8
A733_ストリートファニチャ
 62
     7
370
     9
100
AcDbLine
 10
183636.370802
 20
107476.108157
 30
0.0
 11
183636.370802
 21
107256.108157
 31
0.0
  0
LINE
  5
B174
330
B3EC
100
AcDbEntity
  8
A733_ストリートファニチャ
 62
     7
370
     9
100
AcDbLine
 10
183219.370802
 20
107476.108157
 30
0.0
 11
183219.370802
 21
107801.108157
 31
0.0
  0
LINE
  5
B175
330
B3EC
100
AcDbEntity
  8
A733_ストリートファニチャ
 62
     7
370
     9
100
AcDbLine
 10
183636.370802
 20
107476.108157
 30
0.0
 11
183219.370802
 21
107476.108157
 31
0.0
  0
LINE
  5
B176
330
B3EC
100
AcDbEntity
  8
A733_ストリートファニチャ
 62
     7
370
     9
100
AcDbLine
 10
183219.370802
 20
107476.108157
 30
0.0
 11
183219.370802
 21
107256.108157
 31
0.0
  0
ARC
  5
B177
330
B3EC
100
AcDbEntity
  8
A733_ストリートファニチャ
 62
     7
370
     9
100
AcDbCircle
 10
182412.370802
 20
107851.108157
 30
0.0
 40
50.0
100
AcDbArc
 50
90.0
 51
180.0
  0
ARC
  5
B178
330
B3EC
100
AcDbEntity
  8
A733_ストリートファニチャ
 62
     7
370
     9
100
AcDbCircle
 10
182412.370802
 20
107851.108157
 30
0.0
 40
60.0
100
AcDbArc
 50
90.0
 51
180.0
  0
LINE
  5
B179
330
B3EC
100
AcDbEntity
  8
A733_ストリートファニチャ
 62
     7
370
     9
100
AcDbLine
 10
182352.370802
 20
107851.108157
 30
0.0
 11
182352.370802
 21
107486.108157
 31
0.0
  0
LINE
  5
B17A
330
B3EC
100
AcDbEntity
  8
A733_ストリートファニチャ
 62
     7
370
     9
100
AcDbLine
 10
182362.370802
 20
107851.108157
 30
0.0
 11
182362.370802
 21
107436.108157
 31
0.0
  0
LINE
  5
B17B
330
B3EC
100
AcDbEntity
  8
A733_ストリートファニチャ
 62
     7
370
     9
100
AcDbLine
 10
182412.370802
 20
107851.108157
 30
0.0
 11
182412.370802
 21
107436.108157
 31
0.0
  0
ARC
  5
B17C
330
B3EC
100
AcDbEntity
  8
A733_ストリートファニチャ
 62
     7
370
     9
100
AcDbCircle
 10
183269.370802
 20
107851.108157
 30
0.0
 40
50.0
100
AcDbArc
 50
0.0
 51
90.0
  0
ARC
  5
B17D
330
B3EC
100
AcDbEntity
  8
A733_ストリートファニチャ
 62
     7
370
     9
100
AcDbCircle
 10
183269.370802
 20
107851.108157
 30
0.0
 40
60.0
100
AcDbArc
 50
0.0
 51
90.0
  0
LINE
  5
B17E
330
B3EC
100
AcDbEntity
  8
A733_ストリートファニチャ
 62
     7
370
     9
100
AcDbLine
 10
182412.370802
 20
107901.108157
 30
0.0
 11
183269.370802
 21
107901.108157
 31
0.0
  0
LINE
  5
B17F
330
B3EC
100
AcDbEntity
  8
A733_ストリートファニチャ
 62
     7
370
     9
100
AcDbLine
 10
182412.370802
 20
107851.108157
 30
0.0
 11
183269.370802
 21
107851.108157
 31
0.0
  0
LINE
  5
B180
330
B3EC
100
AcDbEntity
  8
A733_ストリートファニチャ
 62
     7
370
     9
100
AcDbLine
 10
182412.370802
 20
107911.108157
 30
0.0
 11
183269.370802
 21
107911.108157
 31
0.0
  0
LINE
  5
B181
330
B3EC
100
AcDbEntity
  8
A733_ストリートファニチャ
 62
     7
370
     9
100
AcDbLine
 10
183776.370802
 20
107526.108157
 30
0.0
 11
183776.370802
 21
107406.108157
 31
0.0
  0
ARC
  5
B182
330
B3EC
100
AcDbEntity
  8
A733_ストリートファニチャ
 62
     7
370
     9
100
AcDbCircle
 10
183726.370802
 20
107526.108157
 30
0.0
 40
50.0
100
AcDbArc
 50
0.0
 51
90.0
  0
LINE
  5
B183
330
B3EC
100
AcDbEntity
  8
A733_ストリートファニチャ
 62
     7
370
     9
100
AcDbLine
 10
183726.370802
 20
107526.108157
 30
0.0
 11
183726.370802
 21
107406.108157
 31
0.0
  0
LINE
  5
B184
330
B3EC
100
AcDbEntity
  8
A733_ストリートファニチャ
 62
     7
370
     9
100
AcDbLine
 10
183786.370802
 20
107526.108157
 30
0.0
 11
183786.370802
 21
107406.108157
 31
0.0
  0
ARC
  5
B185
330
B3EC
100
AcDbEntity
  8
A733_ストリートファニチャ
 62
     7
370
     9
100
AcDbCircle
 10
183726.370802
 20
107526.108157
 30
0.0
 40
60.0
100
AcDbArc
 50
0.0
 51
90.0
  0
LINE
  5
B186
330
B3EC
100
AcDbEntity
  8
A733_ストリートファニチャ
 62
     7
370
     9
100
AcDbLine
 10
183726.370802
 20
107586.108157
 30
0.0
 11
183646.370802
 21
107586.108157
 31
0.0
  0
LINE
  5
B187
330
B3EC
100
AcDbEntity
  8
A733_ストリートファニチャ
 62
     7
370
     9
100
AcDbLine
 10
183646.370802
 20
107576.108157
 30
0.0
 11
183646.370802
 21
107586.108157
 31
0.0
  0
LINE
  5
B188
330
B3EC
100
AcDbEntity
  8
A733_ストリートファニチャ
 62
     7
370
     9
100
AcDbLine
 10
183726.370802
 20
107576.108157
 30
0.0
 11
183319.370802
 21
107576.108157
 31
0.0
  0
LINE
  5
B189
330
B3EC
100
AcDbEntity
  8
A733_ストリートファニチャ
 62
     7
370
     9
100
AcDbLine
 10
183726.370802
 20
107526.108157
 30
0.0
 11
183269.370802
 21
107526.108157
 31
0.0
  0
LINE
  5
B18A
330
B3EC
100
AcDbEntity
  8
A733_ストリートファニチャ
 62
     7
370
     9
100
AcDbLine
 10
183329.370802
 20
107851.108157
 30
0.0
 11
183329.370802
 21
107576.108157
 31
0.0
  0
LINE
  5
B18B
330
B3EC
100
AcDbEntity
  8
A733_ストリートファニチャ
 62
     7
370
     9
100
AcDbLine
 10
183319.370802
 20
107851.108157
 30
0.0
 11
183319.370802
 21
107576.108157
 31
0.0
  0
LINE
  5
B18C
330
B3EC
100
AcDbEntity
  8
A733_ストリートファニチャ
 62
     7
370
     9
100
AcDbLine
 10
183269.370802
 20
107851.108157
 30
0.0
 11
183269.370802
 21
107526.108157
 31
0.0
  0
LINE
  5
B18D
330
B3EC
100
AcDbEntity
  8
A733_ストリートファニチャ
 62
     7
370
     9
100
AcDbLine
 10
185741.370802
 20
107476.108157
 30
0.0
 11
188616.588908
 21
107476.108157
 31
0.0
  0
LINE
  5
B18E
330
B3EC
100
AcDbEntity
  8
A733_ストリートファニチャ
 62
     7
370
     9
100
AcDbLine
 10
185621.370802
 20
107526.108157
 30
0.0
 11
185621.370802
 21
107406.108157
 31
0.0
  0
ARC
  5
B18F
330
B3EC
100
AcDbEntity
  8
A733_ストリートファニチャ
 62
     7
370
     9
100
AcDbCircle
 10
185671.370802
 20
107526.108157
 30
0.0
 40
50.0
100
AcDbArc
 50
90.0
 51
180.0
  0
LINE
  5
B190
330
B3EC
100
AcDbEntity
  8
A733_ストリートファニチャ
 62
     7
370
     9
100
AcDbLine
 10
185671.370802
 20
107526.108157
 30
0.0
 11
185671.370802
 21
107406.108157
 31
0.0
  0
LINE
  5
B191
330
B3EC
100
AcDbEntity
  8
A733_ストリートファニチャ
 62
     7
370
     9
100
AcDbLine
 10
185611.370802
 20
107526.108157
 30
0.0
 11
185611.370802
 21
107406.108157
 31
0.0
  0
ARC
  5
B192
330
B3EC
100
AcDbEntity
  8
A733_ストリートファニチャ
 62
     7
370
     9
100
AcDbCircle
 10
185671.370802
 20
107526.108157
 30
0.0
 40
60.0
100
AcDbArc
 50
90.0
 51
180.0
  0
LINE
  5
B193
330
B3EC
100
AcDbEntity
  8
A733_ストリートファニチャ
 62
     7
370
     9
100
AcDbLine
 10
185671.370802
 20
107586.108157
 30
0.0
 11
185751.370802
 21
107586.108157
 31
0.0
  0
LINE
  5
B194
330
B3EC
100
AcDbEntity
  8
A733_ストリートファニチャ
 62
     7
370
     9
100
AcDbLine
 10
185751.370802
 20
107576.108157
 30
0.0
 11
185751.370802
 21
107586.108157
 31
0.0
  0
LINE
  5
B195
330
B3EC
100
AcDbEntity
  8
A733_ストリートファニチャ
 62
     7
370
     9
100
AcDbLine
 10
185671.370802
 20
107526.108157
 30
0.0
 11
188616.588908
 21
107526.108157
 31
0.0
  0
LINE
  5
B196
330
B3EC
100
AcDbEntity
  8
A733_ストリートファニチャ
 62
     7
370
     9
100
AcDbLine
 10
185671.370802
 20
107576.108157
 30
0.0
 11
188616.588908
 21
107576.108157
 31
0.0
  0
LINE
  5
B197
330
B3EC
100
AcDbEntity
  8
A733_ストリートファニチャ
 62
     7
370
     9
100
AcDbLine
 10
187466.370802
 20
107256.108157
 30
0.0
 11
187466.370802
 21
107476.108157
 31
0.0
  0
LINE
  5
B198
330
B3EC
100
AcDbEntity
  8
A733_ストリートファニチャ
 62
     7
370
     9
100
AcDbLine
 10
185741.370802
 20
107256.108157
 30
0.0
 11
187466.370802
 21
107256.108157
 31
0.0
  0
LINE
  5
B199
330
B3EC
100
AcDbEntity
  8
A733_ストリートファニチャ
 62
     7
370
     9
100
AcDbLine
 10
185741.370802
 20
107476.108157
 30
0.0
 11
185741.370802
 21
107256.108157
 31
0.0
  0
LINE
  5
B19A
330
B3EC
100
AcDbEntity
  8
A733_ストリートファニチャ
 62
     7
370
     9
100
AcDbLine
 10
187384.370802
 20
106546.108157
 30
0.0
 11
187384.370802
 21
107176.108157
 31
0.0
  0
LINE
  5
B19B
330
B3EC
100
AcDbEntity
  8
A733_ストリートファニチャ
 62
     7
370
     9
100
AcDbLine
 10
185701.370802
 20
107176.108157
 30
0.0
 11
187384.370802
 21
107176.108157
 31
0.0
  0
LINE
  5
B19C
330
B3EC
100
AcDbEntity
  8
A733_ストリートファニチャ
 62
     7
370
     9
100
AcDbLine
 10
185701.370802
 20
107206.108157
 30
0.0
 11
187414.370802
 21
107206.108157
 31
0.0
  0
LINE
  5
B19D
330
B3EC
100
AcDbEntity
  8
A733_ストリートファニチャ
 62
     7
370
     9
100
AcDbLine
 10
187414.370802
 20
106576.108157
 30
0.0
 11
187414.370802
 21
107206.108157
 31
0.0
  0
LINE
  5
B19E
330
B3EC
100
AcDbEntity
  8
A733_ストリートファニチャ
 62
     7
370
     9
100
AcDbLine
 10
187937.370802
 20
98709.108157
 30
0.0
 11
187937.370802
 21
106546.108157
 31
0.0
  0
LINE
  5
B19F
330
B3EC
100
AcDbEntity
  8
A733_ストリートファニチャ
 62
     7
370
     9
100
AcDbLine
 10
187937.370802
 20
106546.108157
 30
0.0
 11
187384.370802
 21
106546.108157
 31
0.0
  0
LINE
  5
B1A0
330
B3EC
100
AcDbEntity
  8
A733_ストリートファニチャ
 62
     7
370
     9
100
AcDbLine
 10
187967.370802
 20
106576.108157
 30
0.0
 11
187414.370802
 21
106576.108157
 31
0.0
  0
LINE
  5
B1A1
330
B3EC
100
AcDbEntity
  8
A733_ストリートファニチャ
 62
     7
370
     9
100
AcDbLine
 10
187967.370802
 20
98679.108157
 30
0.0
 11
187967.370802
 21
106576.108157
 31
0.0
  0
LINE
  5
B1A2
330
B3EC
100
AcDbEntity
  8
A733_ストリートファニチャ
 62
     7
370
     9
100
AcDbLine
 10
188019.370802
 20
100715.108157
 30
0.0
 11
188019.370802
 21
106628.108157
 31
0.0
  0
LINE
  5
B1A3
330
B3EC
100
AcDbEntity
  8
A733_ストリートファニチャ
 62
     7
370
     9
100
AcDbLine
 10
188019.370802
 20
106628.108157
 30
0.0
 11
187466.370802
 21
106628.108157
 31
0.0
  0
LINE
  5
B1A4
330
B3EC
100
AcDbEntity
  8
A733_ストリートファニチャ
 62
     7
370
     9
100
AcDbLine
 10
188616.588908
 20
105475.108157
 30
0.0
 11
188314.370802
 21
105475.108157
 31
0.0
  0
LINE
  5
B1A5
330
B3EC
100
AcDbEntity
  8
A733_ストリートファニチャ
 62
     7
370
     9
100
AcDbLine
 10
188019.370802
 20
106628.108157
 30
0.0
 11
188314.370802
 21
106628.108157
 31
0.0
  0
LINE
  5
B1A6
330
B3EC
100
AcDbEntity
  8
A733_ストリートファニチャ
 62
     7
370
     9
100
AcDbLine
 10
188314.370802
 20
105475.108157
 30
0.0
 11
188314.370802
 21
107256.108157
 31
0.0
  0
LINE
  5
B1A7
330
B3EC
100
AcDbEntity
  8
A733_ストリートファニチャ
 62
     7
370
     9
100
AcDbLine
 10
188314.370802
 20
107256.108157
 30
0.0
 11
188314.370802
 21
107476.108157
 31
0.0
  0
LINE
  5
B1A8
330
B3EC
100
AcDbEntity
  8
A733_ストリートファニチャ
 62
     7
370
     9
100
AcDbLine
 10
188314.370802
 20
107256.108157
 30
0.0
 11
188616.588908
 21
107256.108157
 31
0.0
  0
LINE
  5
B1A9
330
B3EC
100
AcDbEntity
  8
A733_ストリートファニチャ
 62
     7
370
     9
100
AcDbLine
 10
188195.370802
 20
100740.108157
 30
0.0
 11
188616.588908
 21
100740.108157
 31
0.0
  0
LINE
  5
B1AA
330
B3EC
100
AcDbEntity
  8
A733_ストリートファニチャ
 62
     7
370
     9
100
AcDbLine
 10
188170.370802
 20
100715.108157
 30
0.0
 11
188616.588908
 21
100715.108157
 31
0.0
  0
LINE
  5
B1AB
330
B3EC
100
AcDbEntity
  8
A733_ストリートファニチャ
 62
     7
370
     9
100
AcDbLine
 10
188616.588908
 20
105290.108157
 30
0.0
 11
188170.370802
 21
105290.108157
 31
0.0
  0
LINE
  5
B1AC
330
B3EC
100
AcDbEntity
  8
A733_ストリートファニチャ
 62
     7
370
     9
100
AcDbLine
 10
188170.370802
 20
100715.108157
 30
0.0
 11
188019.370802
 21
100715.108157
 31
0.0
  0
LINE
  5
B1AD
330
B3EC
100
AcDbEntity
  8
A733_ストリートファニチャ
 62
     7
370
     9
100
AcDbLine
 10
188170.370802
 20
100715.108157
 30
0.0
 11
188170.370802
 21
105290.108157
 31
0.0
  0
LINE
  5
B1AE
330
B3EC
100
AcDbEntity
  8
A733_ストリートファニチャ
 62
     7
370
     9
100
AcDbLine
 10
188395.370802
 20
100740.108157
 30
0.0
 11
188395.370802
 21
105265.108157
 31
0.0
  0
LINE
  5
B1AF
330
B3EC
100
AcDbEntity
  8
A733_ストリートファニチャ
 62
     7
370
     9
100
AcDbLine
 10
188616.588908
 20
105265.108157
 30
0.0
 11
188195.370802
 21
105265.108157
 31
0.0
  0
LINE
  5
B1B0
330
B3EC
100
AcDbEntity
  8
A733_ストリートファニチャ
 62
     7
370
     9
100
AcDbLine
 10
188195.370802
 20
100740.108157
 30
0.0
 11
188195.370802
 21
105265.108157
 31
0.0
  0
LINE
  5
B1B1
330
B3EC
100
AcDbEntity
  8
A733_ストリートファニチャ
 62
     7
370
     9
100
AcDbLine
 10
182452.883364
 20
107286.108157
 30
0.0
 11
182302.883364
 21
107436.108157
 31
0.0
  0
LINE
  5
B1B2
330
B3EC
100
AcDbEntity
  8
A733_ストリートファニチャ
 62
     7
370
     9
100
AcDbLine
 10
182240.75133
 20
107286.108157
 30
0.0
 11
182090.75133
 21
107436.108157
 31
0.0
  0
LINE
  5
B1B3
330
B3EC
100
AcDbEntity
  8
A733_ストリートファニチャ
 62
     7
370
     9
100
AcDbLine
 10
182028.619296
 20
107286.108157
 30
0.0
 11
181878.619296
 21
107436.108157
 31
0.0
  0
LINE
  5
B1B4
330
B3EC
100
AcDbEntity
  8
A733_ストリートファニチャ
 62
     7
370
     9
100
AcDbLine
 10
181816.487261
 20
107286.108157
 30
0.0
 11
181666.487261
 21
107436.108157
 31
0.0
  0
LINE
  5
B1B5
330
B3EC
100
AcDbEntity
  8
A733_ストリートファニチャ
 62
     7
370
     9
100
AcDbLine
 10
181604.355227
 20
107286.108157
 30
0.0
 11
181454.355227
 21
107436.108157
 31
0.0
  0
LINE
  5
B1B6
330
B3EC
100
AcDbEntity
  8
A733_ストリートファニチャ
 62
     7
370
     9
100
AcDbLine
 10
181392.223193
 20
107286.108157
 30
0.0
 11
181242.223193
 21
107436.108157
 31
0.0
  0
LINE
  5
B1B7
330
B3EC
100
AcDbEntity
  8
A733_ストリートファニチャ
 62
     7
370
     9
100
AcDbLine
 10
181180.091158
 20
107286.108157
 30
0.0
 11
181030.091158
 21
107436.108157
 31
0.0
  0
LINE
  5
B1B8
330
B3EC
100
AcDbEntity
  8
A733_ストリートファニチャ
 62
     7
370
     9
100
AcDbLine
 10
180967.959124
 20
107286.108157
 30
0.0
 11
180817.959124
 21
107436.108157
 31
0.0
  0
LINE
  5
B1B9
330
B3EC
100
AcDbEntity
  8
A733_ストリートファニチャ
 62
     7
370
     9
100
AcDbLine
 10
180755.82709
 20
107286.108157
 30
0.0
 11
180605.82709
 21
107436.108157
 31
0.0
  0
LINE
  5
B1BA
330
B3EC
100
AcDbEntity
  8
A733_ストリートファニチャ
 62
     7
370
     9
100
AcDbLine
 10
180543.695055
 20
107286.108157
 30
0.0
 11
180393.695055
 21
107436.108157
 31
0.0
  0
LINE
  5
B1BB
330
B3EC
100
AcDbEntity
  8
A733_ストリートファニチャ
 62
     7
370
     9
100
AcDbLine
 10
180331.563021
 20
107286.108157
 30
0.0
 11
180181.563021
 21
107436.108157
 31
0.0
  0
LINE
  5
B1BC
330
B3EC
100
AcDbEntity
  8
A733_ストリートファニチャ
 62
     7
370
     9
100
AcDbLine
 10
180119.430986
 20
107286.108157
 30
0.0
 11
179969.430986
 21
107436.108157
 31
0.0
  0
LINE
  5
B1BD
330
B3EC
100
AcDbEntity
  8
A733_ストリートファニチャ
 62
     7
370
     9
100
AcDbLine
 10
180516.370802
 20
106464.904273
 30
0.0
 11
180393.166918
 21
106588.108157
 31
0.0
  0
LINE
  5
B1BE
330
B3EC
100
AcDbEntity
  8
A733_ストリートファニチャ
 62
     7
370
     9
100
AcDbLine
 10
180516.370802
 20
106252.772239
 30
0.0
 11
180366.370802
 21
106402.772239
 31
0.0
  0
LINE
  5
B1BF
330
B3EC
100
AcDbEntity
  8
A733_ストリートファニチャ
 62
     7
370
     9
100
AcDbLine
 10
180516.370802
 20
106040.640205
 30
0.0
 11
180366.370802
 21
106190.640205
 31
0.0
  0
LINE
  5
B1C0
330
B3EC
100
AcDbEntity
  8
A733_ストリートファニチャ
 62
     7
370
     9
100
AcDbLine
 10
180516.370802
 20
105828.50817
 30
0.0
 11
180366.370802
 21
105978.50817
 31
0.0
  0
LINE
  5
B1C1
330
B3EC
100
AcDbEntity
  8
A733_ストリートファニチャ
 62
     7
370
     9
100
AcDbLine
 10
180516.370802
 20
105616.376136
 30
0.0
 11
180366.370802
 21
105766.376136
 31
0.0
  0
LINE
  5
B1C2
330
B3EC
100
AcDbEntity
  8
A733_ストリートファニチャ
 62
     7
370
     9
100
AcDbLine
 10
180516.370802
 20
105404.244101
 30
0.0
 11
180366.370802
 21
105554.244101
 31
0.0
  0
LINE
  5
B1C3
330
B3EC
100
AcDbEntity
  8
A733_ストリートファニチャ
 62
     7
370
     9
100
AcDbLine
 10
180516.370802
 20
105192.112067
 30
0.0
 11
180366.370802
 21
105342.112067
 31
0.0
  0
LINE
  5
B1C4
330
B3EC
100
AcDbEntity
  8
A733_ストリートファニチャ
 62
     7
370
     9
100
AcDbLine
 10
180516.370802
 20
103495.055792
 30
0.0
 11
180366.370802
 21
103645.055792
 31
0.0
  0
LINE
  5
B1C5
330
B3EC
100
AcDbEntity
  8
A733_ストリートファニチャ
 62
     7
370
     9
100
AcDbLine
 10
180516.370802
 20
101797.999517
 30
0.0
 11
180366.370802
 21
101947.999517
 31
0.0
  0
LINE
  5
B1C6
330
B3EC
100
AcDbEntity
  8
A733_ストリートファニチャ
 62
     7
370
     9
100
AcDbLine
 10
180516.370802
 20
101585.867483
 30
0.0
 11
180366.370802
 21
101735.867483
 31
0.0
  0
LINE
  5
B1C7
330
B3EC
100
AcDbEntity
  8
A733_ストリートファニチャ
 62
     7
370
     9
100
AcDbLine
 10
180516.370802
 20
99888.811208
 30
0.0
 11
180366.370802
 21
100038.811208
 31
0.0
  0
LINE
  5
B1C8
330
B3EC
100
AcDbEntity
  8
A733_ストリートファニチャ
 62
     7
370
     9
100
AcDbLine
 10
180516.370802
 20
99676.679174
 30
0.0
 11
180366.370802
 21
99826.679174
 31
0.0
  0
LINE
  5
B1C9
330
B3EC
100
AcDbEntity
  8
A733_ストリートファニチャ
 62
     7
370
     9
100
AcDbLine
 10
180516.370802
 20
99464.547139
 30
0.0
 11
180366.370802
 21
99614.547139
 31
0.0
  0
LINE
  5
B1CA
330
B3EC
100
AcDbEntity
  8
A733_ストリートファニチャ
 62
     7
370
     9
100
AcDbLine
 10
180516.370802
 20
99252.415105
 30
0.0
 11
180366.370802
 21
99402.415105
 31
0.0
  0
LINE
  5
B1CB
330
B3EC
100
AcDbEntity
  8
A733_ストリートファニチャ
 62
     7
370
     9
100
AcDbLine
 10
180516.370802
 20
99040.283071
 30
0.0
 11
180366.370802
 21
99190.283071
 31
0.0
  0
LINE
  5
B1CC
330
B3EC
100
AcDbEntity
  8
A733_ストリートファニチャ
 62
     7
370
     9
100
AcDbLine
 10
180516.370802
 20
98828.151036
 30
0.0
 11
180366.370802
 21
98978.151036
 31
0.0
  0
LINE
  5
B1CD
330
B3EC
100
AcDbEntity
  8
A733_ストリートファニチャ
 62
     7
370
     9
100
AcDbLine
 10
180505.281647
 20
98627.108157
 30
0.0
 11
180366.370802
 21
98766.019002
 31
0.0
  0
LINE
  5
B1CE
330
B3EC
100
AcDbEntity
  8
A733_ストリートファニチャ
 62
     7
370
     9
100
AcDbLine
 10
187466.370802
 20
98029.980033
 30
0.0
 11
187387.242677
 21
98109.108157
 31
0.0
  0
LINE
  5
B1CF
330
B3EC
100
AcDbEntity
  8
A733_ストリートファニチャ
 62
     7
370
     9
100
AcDbLine
 10
187325.110643
 20
97959.108157
 30
0.0
 11
187175.110643
 21
98109.108157
 31
0.0
  0
LINE
  5
B1D0
330
B3EC
100
AcDbEntity
  8
A733_ストリートファニチャ
 62
     7
370
     9
100
AcDbLine
 10
187112.978609
 20
97959.108157
 30
0.0
 11
186962.978609
 21
98109.108157
 31
0.0
  0
LINE
  5
B1D1
330
B3EC
100
AcDbEntity
  8
A733_ストリートファニチャ
 62
     7
370
     9
100
AcDbLine
 10
186900.846574
 20
97959.108157
 30
0.0
 11
186750.846574
 21
98109.108157
 31
0.0
  0
LINE
  5
B1D2
330
B3EC
100
AcDbEntity
  8
A733_ストリートファニチャ
 62
     7
370
     9
100
AcDbLine
 10
186688.71454
 20
97959.108157
 30
0.0
 11
186538.71454
 21
98109.108157
 31
0.0
  0
LINE
  5
B1D3
330
B3EC
100
AcDbEntity
  8
A733_ストリートファニチャ
 62
     7
370
     9
100
AcDbLine
 10
186476.582505
 20
97959.108157
 30
0.0
 11
186326.582505
 21
98109.108157
 31
0.0
  0
LINE
  5
B1D4
330
B3EC
100
AcDbEntity
  8
A733_ストリートファニチャ
 62
     7
370
     9
100
AcDbLine
 10
186264.450471
 20
97959.108157
 30
0.0
 11
186114.450471
 21
98109.108157
 31
0.0
  0
LINE
  5
B1D5
330
B3EC
100
AcDbEntity
  8
A733_ストリートファニチャ
 62
     7
370
     9
100
AcDbLine
 10
186052.318437
 20
97959.108157
 30
0.0
 11
185902.318437
 21
98109.108157
 31
0.0
  0
LINE
  5
B1D6
330
B3EC
100
AcDbEntity
  8
A733_ストリートファニチャ
 62
     7
370
     9
100
AcDbLine
 10
184355.262162
 20
97959.108157
 30
0.0
 11
184205.262162
 21
98109.108157
 31
0.0
  0
LINE
  5
B1D7
330
B3EC
100
AcDbEntity
  8
A733_ストリートファニチャ
 62
     7
370
     9
100
AcDbLine
 10
182658.205887
 20
97959.108157
 30
0.0
 11
182508.205887
 21
98109.108157
 31
0.0
  0
LINE
  5
B1D8
330
B3EC
100
AcDbEntity
  8
A733_ストリートファニチャ
 62
     7
370
     9
100
AcDbLine
 10
182446.073853
 20
97959.108157
 30
0.0
 11
182296.073853
 21
98109.108157
 31
0.0
  0
LINE
  5
B1D9
330
B3EC
100
AcDbEntity
  8
A733_ストリートファニチャ
 62
     7
370
     9
100
AcDbLine
 10
182233.941818
 20
97959.108157
 30
0.0
 11
182083.941818
 21
98109.108157
 31
0.0
  0
LINE
  5
B1DA
330
B3EC
100
AcDbEntity
  8
A733_ストリートファニチャ
 62
     7
370
     9
100
AcDbLine
 10
182021.809784
 20
97959.108157
 30
0.0
 11
181871.809784
 21
98109.108157
 31
0.0
  0
LINE
  5
B1DB
330
B3EC
100
AcDbEntity
  8
A733_ストリートファニチャ
 62
     7
370
     9
100
AcDbLine
 10
181809.67775
 20
97959.108157
 30
0.0
 11
181659.67775
 21
98109.108157
 31
0.0
  0
LINE
  5
B1DC
330
B3EC
100
AcDbEntity
  8
A733_ストリートファニチャ
 62
     7
370
     9
100
AcDbLine
 10
181597.545715
 20
97959.108157
 30
0.0
 11
181447.545715
 21
98109.108157
 31
0.0
  0
LINE
  5
B1DD
330
B3EC
100
AcDbEntity
  8
A733_ストリートファニチャ
 62
     7
370
     9
100
AcDbLine
 10
181385.413681
 20
97959.108157
 30
0.0
 11
181235.413681
 21
98109.108157
 31
0.0
  0
LINE
  5
B1DE
330
B3EC
100
AcDbEntity
  8
A733_ストリートファニチャ
 62
     7
370
     9
100
AcDbLine
 10
181173.281647
 20
97959.108157
 30
0.0
 11
181034.370802
 21
98098.019002
 31
0.0
  0
LINE
  5
B1DF
330
B3EC
100
AcDbEntity
  8
A733_ストリートファニチャ
 62
     7
370
     9
100
AcDbLine
 10
188616.588908
 20
100698.138545
 30
0.0
 11
188599.619296
 21
100715.108157
 31
0.0
  0
LINE
  5
B1E0
330
B3EC
100
AcDbEntity
  8
A733_ストリートファニチャ
 62
     7
370
     9
100
AcDbLine
 10
188537.487261
 20
100565.108157
 30
0.0
 11
188387.487261
 21
100715.108157
 31
0.0
  0
LINE
  5
B1E1
330
B3EC
100
AcDbEntity
  8
A733_ストリートファニチャ
 62
     7
370
     9
100
AcDbLine
 10
188325.355227
 20
100565.108157
 30
0.0
 11
188175.355227
 21
100715.108157
 31
0.0
  0
LINE
  5
B1E2
330
B3EC
100
AcDbEntity
  8
A733_ストリートファニチャ
 62
     7
370
     9
100
AcDbLine
 10
188169.370802
 20
100508.960548
 30
0.0
 11
188019.370802
 21
100658.960548
 31
0.0
  0
LINE
  5
B1E3
330
B3EC
100
AcDbEntity
  8
A733_ストリートファニチャ
 62
     7
370
     9
100
AcDbLine
 10
188169.370802
 20
100296.828514
 30
0.0
 11
188019.370802
 21
100446.828514
 31
0.0
  0
LINE
  5
B1E4
330
B3EC
100
AcDbEntity
  8
A733_ストリートファニチャ
 62
     7
370
     9
100
AcDbLine
 10
188169.370802
 20
100084.696479
 30
0.0
 11
188019.370802
 21
100234.696479
 31
0.0
  0
LINE
  5
B1E5
330
B3EC
100
AcDbEntity
  8
A733_ストリートファニチャ
 62
     7
370
     9
100
AcDbLine
 10
188169.370802
 20
99872.564445
 30
0.0
 11
188019.370802
 21
100022.564445
 31
0.0
  0
LINE
  5
B1E6
330
B3EC
100
AcDbEntity
  8
A733_ストリートファニチャ
 62
     7
370
     9
100
AcDbLine
 10
188169.370802
 20
99660.432411
 30
0.0
 11
188019.370802
 21
99810.432411
 31
0.0
  0
LINE
  5
B1E7
330
B3EC
100
AcDbEntity
  8
A733_ストリートファニチャ
 62
     7
370
     9
100
AcDbLine
 10
188169.370802
 20
99448.300376
 30
0.0
 11
188019.370802
 21
99598.300376
 31
0.0
  0
LINE
  5
B1E8
330
B3EC
100
AcDbEntity
  8
A733_ストリートファニチャ
 62
     7
370
     9
100
AcDbLine
 10
188169.370802
 20
99236.168342
 30
0.0
 11
188019.370802
 21
99386.168342
 31
0.0
  0
LINE
  5
B1E9
330
B3EC
100
AcDbEntity
  8
A733_ストリートファニチャ
 62
     7
370
     9
100
AcDbLine
 10
188169.370802
 20
99024.036308
 30
0.0
 11
188019.370802
 21
99174.036308
 31
0.0
  0
LINE
  5
B1EA
330
B3EC
100
AcDbEntity
  8
A733_ストリートファニチャ
 62
     7
370
     9
100
AcDbLine
 10
188169.370802
 20
98811.904273
 30
0.0
 11
188019.370802
 21
98961.904273
 31
0.0
  0
LINE
  5
B1EB
330
B3EC
100
AcDbEntity
  8
A733_ストリートファニチャ
 62
     7
370
     9
100
AcDbLine
 10
188142.034883
 20
98627.108157
 30
0.0
 11
188019.370802
 21
98749.772239
 31
0.0
  0
LINE
  5
B1EC
330
B3EC
100
AcDbEntity
  8
A733_ストリートファニチャ
 62
     7
370
     9
100
AcDbLine
 10
182362.370802
 20
107486.108157
 30
0.0
 11
179911.370802
 21
107486.108157
 31
0.0
  0
LINE
  5
B1ED
330
B3EC
100
AcDbEntity
  8
A733_ストリートファニチャ
 62
     7
370
     9
100
AcDbLine
 10
182362.370802
 20
107461.108157
 30
0.0
 11
179911.370802
 21
107461.108157
 31
0.0
  0
SOLID
  5
B1EE
330
B3EC
100
AcDbEntity
  8
A733_ストリートファニチャ
 62
     7
370
     9
100
AcDbTrace
 10
188019.370802
 20
106628.108157
 30
0.0
 11
187466.370802
 21
107256.108157
 31
0.0
 12
187466.370802
 22
106628.108157
 32
0.0
 13
187466.370802
 23
106628.108157
 33
0.0
  0
SOLID
  5
B1EF
330
B3EC
100
AcDbEntity
  8
A733_ストリートファニチャ
 62
     7
370
     9
100
AcDbTrace
 10
188314.370802
 20
105475.108157
 30
0.0
 11
188314.370802
 21
107256.108157
 31
0.0
 12
188019.370802
 22
106628.108157
 32
0.0
 13
188019.370802
 23
106628.108157
 33
0.0
  0
SOLID
  5
B1F0
330
B3EC
100
AcDbEntity
  8
A733_ストリートファニチャ
 62
     7
370
     9
100
AcDbTrace
 10
-188019.370802
 20
106628.108157
 30
0.0
 11
-188170.370802
 21
100715.108157
 31
0.0
 12
-188170.370802
 22
105290.108157
 32
0.0
 13
-188170.370802
 23
105290.108157
 33
0.0
210
0.0
220
0.0
230
-1.0
  0
SOLID
  5
B1F1
330
B3EC
100
AcDbEntity
  8
A733_ストリートファニチャ
 62
     7
370
     9
100
AcDbTrace
 10
-188019.370802
 20
106628.108157
 30
0.0
 11
-188189.370802
 21
97779.108157
 31
0.0
 12
-188221.723182
 22
97783.367429
 32
0.0
 13
-188221.723182
 23
97783.367429
 33
0.0
210
0.0
220
0.0
230
-1.0
  0
SOLID
  5
B1F2
330
B3EC
100
AcDbEntity
  8
A733_ストリートファニチャ
 62
     7
370
     9
100
AcDbTrace
 10
-187466.370802
 20
107256.108157
 30
0.0
 11
-185741.370802
 21
107476.108157
 31
0.0
 12
-185741.370802
 22
107256.108157
 32
0.0
 13
-185741.370802
 23
107256.108157
 33
0.0
210
0.0
220
0.0
230
-1.0
  0
SOLID
  5
B1F3
330
B3EC
100
AcDbEntity
  8
A733_ストリートファニチャ
 62
     7
370
     9
100
AcDbTrace
 10
-187466.370802
 20
107256.108157
 30
0.0
 11
-188314.370802
 21
107256.108157
 31
0.0
 12
-188019.370802
 22
106628.108157
 32
0.0
 13
-188019.370802
 23
106628.108157
 33
0.0
210
0.0
220
0.0
230
-1.0
  0
SOLID
  5
B1F4
330
B3EC
100
AcDbEntity
  8
A733_ストリートファニチャ
 62
     7
370
     9
100
AcDbTrace
 10
-188170.370802
 20
105290.108157
 30
0.0
 11
-188019.370802
 21
106628.108157
 31
0.0
 12
-188314.370802
 22
105475.108157
 32
0.0
 13
-188314.370802
 23
105475.108157
 33
0.0
210
0.0
220
0.0
230
-1.0
  0
SOLID
  5
B1F5
330
B3EC
100
AcDbEntity
  8
A733_ストリートファニチャ
 62
     7
370
     9
100
AcDbTrace
 10
-188170.370802
 20
100715.108157
 30
0.0
 11
-188314.370802
 21
97904.108157
 31
0.0
 12
-188314.370802
 22
100109.108157
 32
0.0
 13
-188314.370802
 23
100109.108157
 33
0.0
210
0.0
220
0.0
230
-1.0
  0
SOLID
  5
B1F6
330
B3EC
100
AcDbEntity
  8
A733_ストリートファニチャ
 62
     7
370
     9
100
AcDbTrace
 10
-188170.370802
 20
100715.108157
 30
0.0
 11
-188310.11153
 21
97871.755776
 31
0.0
 12
-188314.370802
 22
97904.108157
 32
0.0
 13
-188314.370802
 23
97904.108157
 33
0.0
210
0.0
220
0.0
230
-1.0
  0
SOLID
  5
B1F7
330
B3EC
100
AcDbEntity
  8
A733_ストリートファニチャ
 62
     7
370
     9
100
AcDbTrace
 10
-188170.370802
 20
100715.108157
 30
0.0
 11
-188297.623977
 21
97841.608157
 31
0.0
 12
-188310.11153
 22
97871.755776
 32
0.0
 13
-188310.11153
 23
97871.755776
 33
0.0
210
0.0
220
0.0
230
-1.0
  0
SOLID
  5
B1F8
330
B3EC
100
AcDbEntity
  8
A733_ストリートファニチャ
 62
     7
370
     9
100
AcDbTrace
 10
-188170.370802
 20
100715.108157
 30
0.0
 11
-188277.759149
 21
97815.719809
 31
0.0
 12
-188297.623977
 22
97841.608157
 32
0.0
 13
-188297.623977
 23
97841.608157
 33
0.0
210
0.0
220
0.0
230
-1.0
  0
SOLID
  5
B1F9
330
B3EC
100
AcDbEntity
  8
A733_ストリートファニチャ
 62
     7
370
     9
100
AcDbTrace
 10
-188170.370802
 20
100715.108157
 30
0.0
 11
-188251.870802
 21
97795.854982
 31
0.0
 12
-188277.759149
 22
97815.719809
 32
0.0
 13
-188277.759149
 23
97815.719809
 33
0.0
210
0.0
220
0.0
230
-1.0
  0
SOLID
  5
B1FA
330
B3EC
100
AcDbEntity
  8
A733_ストリートファニチャ
 62
     7
370
     9
100
AcDbTrace
 10
-188221.723182
 20
97783.367429
 30
0.0
 11
-188019.370802
 21
106628.108157
 31
0.0
 12
-188170.370802
 22
100715.108157
 32
0.0
 13
-188170.370802
 23
100715.108157
 33
0.0
210
0.0
220
0.0
230
-1.0
  0
SOLID
  5
B1FB
330
B3EC
100
AcDbEntity
  8
A733_ストリートファニチャ
 62
     7
370
     9
100
AcDbTrace
 10
-188170.370802
 20
100715.108157
 30
0.0
 11
-188221.723182
 21
97783.367429
 31
0.0
 12
-188251.870802
 22
97795.854982
 32
0.0
 13
-188251.870802
 23
97795.854982
 33
0.0
210
0.0
220
0.0
230
-1.0
  0
SOLID
  5
B1FC
330
B3EC
100
AcDbEntity
  8
A733_ストリートファニチャ
 62
     7
370
     9
100
AcDbTrace
 10
-188189.370802
 20
97779.108157
 30
0.0
 11
-185832.870802
 21
97954.108157
 31
0.0
 12
-185832.870802
 22
97779.108157
 32
0.0
 13
-185832.870802
 23
97779.108157
 33
0.0
210
0.0
220
0.0
230
-1.0
  0
SOLID
  5
B1FD
330
B3EC
100
AcDbEntity
  8
A733_ストリートファニチャ
 62
     7
370
     9
100
AcDbTrace
 10
185832.870802
 20
97954.108157
 30
0.0
 11
188189.370802
 21
97779.108157
 31
0.0
 12
185882.870802
 22
97954.108157
 32
0.0
 13
185882.870802
 23
97954.108157
 33
0.0
  0
SOLID
  5
B1FE
330
B3EC
100
AcDbEntity
  8
A733_ストリートファニチャ
 62
     7
370
     9
100
AcDbTrace
 10
-188189.370802
 20
97779.108157
 30
0.0
 11
-185882.870802
 21
98109.108157
 31
0.0
 12
-185882.870802
 22
97954.108157
 32
0.0
 13
-185882.870802
 23
97954.108157
 33
0.0
210
0.0
220
0.0
230
-1.0
  0
SOLID
  5
B1FF
330
B3EC
100
AcDbEntity
  8
A733_ストリートファニチャ
 62
     7
370
     9
100
AcDbTrace
 10
185882.870802
 20
98109.108157
 30
0.0
 11
188189.370802
 21
97779.108157
 31
0.0
 12
187466.370802
 22
98109.108157
 32
0.0
 13
187466.370802
 23
98109.108157
 33
0.0
  0
SOLID
  5
B200
330
B3EC
100
AcDbEntity
  8
A733_ストリートファニチャ
 62
     7
370
     9
100
AcDbTrace
 10
188189.370802
 20
97779.108157
 30
0.0
 11
187466.370802
 21
98627.108157
 31
0.0
 12
187466.370802
 22
98109.108157
 32
0.0
 13
187466.370802
 23
98109.108157
 33
0.0
  0
SOLID
  5
B201
330
B3EC
100
AcDbEntity
  8
A733_ストリートファニチャ
 62
     7
370
     9
100
AcDbTrace
 10
188019.370802
 20
106628.108157
 30
0.0
 11
188189.370802
 21
97779.108157
 31
0.0
 12
188019.370802
 22
98627.108157
 32
0.0
 13
188019.370802
 23
98627.108157
 33
0.0
  0
SOLID
  5
B202
330
B3EC
100
AcDbEntity
  8
A733_ストリートファニチャ
 62
     7
370
     9
100
AcDbTrace
 10
-187466.370802
 20
98627.108157
 30
0.0
 11
-188189.370802
 21
97779.108157
 31
0.0
 12
-188019.370802
 22
98627.108157
 32
0.0
 13
-188019.370802
 23
98627.108157
 33
0.0
210
0.0
220
0.0
230
-1.0
  0
SOLID
  5
B203
330
B3EC
100
AcDbEntity
  8
A733_ストリートファニチャ
 62
     7
370
     9
100
AcDbTrace
 10
182462.370802
 20
107801.108157
 30
0.0
 11
183219.370802
 21
107476.108157
 31
0.0
 12
183219.370802
 22
107801.108157
 32
0.0
 13
183219.370802
 23
107801.108157
 33
0.0
  0
SOLID
  5
B204
330
B3EC
100
AcDbEntity
  8
A733_ストリートファニチャ
 62
     7
370
     9
100
AcDbTrace
 10
183219.370802
 20
107476.108157
 30
0.0
 11
183636.370802
 21
107256.108157
 31
0.0
 12
183636.370802
 22
107476.108157
 32
0.0
 13
183636.370802
 23
107476.108157
 33
0.0
  0
SOLID
  5
B205
330
B3EC
100
AcDbEntity
  8
A733_ストリートファニチャ
 62
     7
370
     9
100
AcDbTrace
 10
183636.370802
 20
107256.108157
 30
0.0
 11
182462.370802
 21
107801.108157
 31
0.0
 12
183219.370802
 22
107476.108157
 32
0.0
 13
183219.370802
 23
107476.108157
 33
0.0
  0
SOLID
  5
B206
330
B3EC
100
AcDbEntity
  8
A733_ストリートファニチャ
 62
     7
370
     9
100
AcDbTrace
 10
-182462.370802
 20
107801.108157
 30
0.0
 11
-183636.370802
 21
107256.108157
 31
0.0
 12
-182462.370802
 22
107436.108157
 32
0.0
 13
-182462.370802
 23
107436.108157
 33
0.0
210
0.0
220
0.0
230
-1.0
  0
SOLID
  5
B207
330
B3EC
100
AcDbEntity
  8
A733_ストリートファニチャ
 62
     7
370
     9
100
AcDbTrace
 10
179911.370802
 20
107436.108157
 30
0.0
 11
183636.370802
 21
107256.108157
 31
0.0
 12
182462.370802
 22
107436.108157
 32
0.0
 13
182462.370802
 23
107436.108157
 33
0.0
  0
SOLID
  5
B208
330
B3EC
100
AcDbEntity
  8
A733_ストリートファニチャ
 62
     7
370
     9
100
AcDbTrace
 10
-181034.370802
 20
107256.108157
 30
0.0
 11
-180516.370802
 21
106588.108157
 31
0.0
 12
-181034.370802
 22
106588.108157
 32
0.0
 13
-181034.370802
 23
106588.108157
 33
0.0
210
0.0
220
0.0
230
-1.0
  0
SOLID
  5
B209
330
B3EC
100
AcDbEntity
  8
A733_ストリートファニチャ
 62
     7
370
     9
100
AcDbTrace
 10
-181034.370802
 20
107256.108157
 30
0.0
 11
-179911.370802
 21
106896.108157
 31
0.0
 12
-180186.370802
 22
106896.108157
 32
0.0
 13
-180186.370802
 23
106896.108157
 33
0.0
210
0.0
220
0.0
230
-1.0
  0
SOLID
  5
B20A
330
B3EC
100
AcDbEntity
  8
A733_ストリートファニチャ
 62
     7
370
     9
100
AcDbTrace
 10
-179911.370802
 20
107436.108157
 30
0.0
 11
-183636.370802
 21
107256.108157
 31
0.0
 12
-181034.370802
 22
107256.108157
 32
0.0
 13
-181034.370802
 23
107256.108157
 33
0.0
210
0.0
220
0.0
230
-1.0
  0
SOLID
  5
B20B
330
B3EC
100
AcDbEntity
  8
A733_ストリートファニチャ
 62
     7
370
     9
100
AcDbTrace
 10
179911.370802
 20
106896.108157
 30
0.0
 11
181034.370802
 21
107256.108157
 31
0.0
 12
179911.370802
 22
107436.108157
 32
0.0
 13
179911.370802
 23
107436.108157
 33
0.0
  0
SOLID
  5
B20C
330
B3EC
100
AcDbEntity
  8
A733_ストリートファニチャ
 62
     7
370
     9
100
AcDbTrace
 10
-180516.370802
 20
106588.108157
 30
0.0
 11
-180361.370802
 21
105205.108157
 31
0.0
 12
-180516.370802
 22
105205.108157
 32
0.0
 13
-180516.370802
 23
105205.108157
 33
0.0
210
0.0
220
0.0
230
-1.0
  0
SOLID
  5
B20D
330
B3EC
100
AcDbEntity
  8
A733_ストリートファニチャ
 62
     7
370
     9
100
AcDbTrace
 10
-180186.370802
 20
106896.108157
 30
0.0
 11
-181034.370802
 21
107256.108157
 31
0.0
 12
-180516.370802
 22
106588.108157
 32
0.0
 13
-180516.370802
 23
106588.108157
 33
0.0
210
0.0
220
0.0
230
-1.0
  0
SOLID
  5
B20E
330
B3EC
100
AcDbEntity
  8
A733_ストリートファニチャ
 62
     7
370
     9
100
AcDbTrace
 10
-180186.370802
 20
106896.108157
 30
0.0
 11
-180186.370802
 21
105155.108157
 31
0.0
 12
-180516.370802
 22
106588.108157
 32
0.0
 13
-180516.370802
 23
106588.108157
 33
0.0
210
0.0
220
0.0
230
-1.0
  0
SOLID
  5
B20F
330
B3EC
100
AcDbEntity
  8
A733_ストリートファニチャ
 62
     7
370
     9
100
AcDbTrace
 10
-180361.370802
 20
105205.108157
 30
0.0
 11
-180186.370802
 21
105155.108157
 31
0.0
 12
-180361.370802
 22
105155.108157
 32
0.0
 13
-180361.370802
 23
105155.108157
 33
0.0
210
0.0
220
0.0
230
-1.0
  0
SOLID
  5
B210
330
B3EC
100
AcDbEntity
  8
A733_ストリートファニチャ
 62
     7
370
     9
100
AcDbTrace
 10
-180186.370802
 20
105155.108157
 30
0.0
 11
-180516.370802
 21
106588.108157
 31
0.0
 12
-180361.370802
 22
105205.108157
 32
0.0
 13
-180361.370802
 23
105205.108157
 33
0.0
210
0.0
220
0.0
230
-1.0
  0
SOLID
  5
B211
330
B3EC
100
AcDbEntity
  8
A733_ストリートファニチャ
 62
     7
370
     9
100
AcDbTrace
 10
180516.370802
 20
98627.108157
 30
0.0
 11
181034.370802
 21
98109.108157
 31
0.0
 12
181034.370802
 22
98627.108157
 32
0.0
 13
181034.370802
 23
98627.108157
 33
0.0
  0
SOLID
  5
B212
330
B3EC
100
AcDbEntity
  8
A733_ストリートファニチャ
 62
     7
370
     9
100
AcDbTrace
 10
180516.370802
 20
98627.108157
 30
0.0
 11
180279.018421
 21
97783.367429
 31
0.0
 12
180311.370802
 22
97779.108157
 32
0.0
 13
180311.370802
 23
97779.108157
 33
0.0
  0
SOLID
  5
B213
330
B3EC
100
AcDbEntity
  8
A733_ストリートファニチャ
 62
     7
370
     9
100
AcDbTrace
 10
180279.018421
 20
97783.367429
 30
0.0
 11
180516.370802
 21
98627.108157
 31
0.0
 12
180248.870802
 22
97795.854982
 32
0.0
 13
180248.870802
 23
97795.854982
 33
0.0
  0
SOLID
  5
B214
330
B3EC
100
AcDbEntity
  8
A733_ストリートファニチャ
 62
     7
370
     9
100
AcDbTrace
 10
180248.870802
 20
97795.854982
 30
0.0
 11
180516.370802
 21
98627.108157
 31
0.0
 12
180222.982454
 22
97815.719809
 32
0.0
 13
180222.982454
 23
97815.719809
 33
0.0
  0
SOLID
  5
B215
330
B3EC
100
AcDbEntity
  8
A733_ストリートファニチャ
 62
     7
370
     9
100
AcDbTrace
 10
180222.982454
 20
97815.719809
 30
0.0
 11
180516.370802
 21
98627.108157
 31
0.0
 12
180203.117626
 22
97841.608157
 32
0.0
 13
180203.117626
 23
97841.608157
 33
0.0
  0
SOLID
  5
B216
330
B3EC
100
AcDbEntity
  8
A733_ストリートファニチャ
 62
     7
370
     9
100
AcDbTrace
 10
180203.117626
 20
97841.608157
 30
0.0
 11
180516.370802
 21
98627.108157
 31
0.0
 12
180190.630073
 22
97871.755776
 32
0.0
 13
180190.630073
 23
97871.755776
 33
0.0
  0
SOLID
  5
B217
330
B3EC
100
AcDbEntity
  8
A733_ストリートファニチャ
 62
     7
370
     9
100
AcDbTrace
 10
180190.630073
 20
97871.755776
 30
0.0
 11
180516.370802
 21
98627.108157
 31
0.0
 12
180186.370802
 22
97904.108157
 32
0.0
 13
180186.370802
 23
97904.108157
 33
0.0
  0
SOLID
  5
B218
330
B3EC
100
AcDbEntity
  8
A733_ストリートファニチャ
 62
     7
370
     9
100
AcDbTrace
 10
-180186.370802
 20
100125.108157
 30
0.0
 11
-180186.370802
 21
97904.108157
 31
0.0
 12
-180516.370802
 22
98627.108157
 32
0.0
 13
-180516.370802
 23
98627.108157
 33
0.0
210
0.0
220
0.0
230
-1.0
  0
SOLID
  5
B219
330
B3EC
100
AcDbEntity
  8
A733_ストリートファニチャ
 62
     7
370
     9
100
AcDbTrace
 10
-180516.370802
 20
98627.108157
 30
0.0
 11
-180361.370802
 21
100075.108157
 31
0.0
 12
-180516.370802
 22
100075.108157
 32
0.0
 13
-180516.370802
 23
100075.108157
 33
0.0
210
0.0
220
0.0
230
-1.0
  0
SOLID
  5
B21A
330
B3EC
100
AcDbEntity
  8
A733_ストリートファニチャ
 62
     7
370
     9
100
AcDbTrace
 10
181034.370802
 20
98109.108157
 30
0.0
 11
182617.870802
 21
97954.108157
 31
0.0
 12
182617.870802
 22
98109.108157
 32
0.0
 13
182617.870802
 23
98109.108157
 33
0.0
  0
SOLID
  5
B21B
330
B3EC
100
AcDbEntity
  8
A733_ストリートファニチャ
 62
     7
370
     9
100
AcDbTrace
 10
-180311.370802
 20
97779.108157
 30
0.0
 11
-180516.370802
 21
98627.108157
 31
0.0
 12
-181034.370802
 22
98109.108157
 32
0.0
 13
-181034.370802
 23
98109.108157
 33
0.0
210
0.0
220
0.0
230
-1.0
  0
SOLID
  5
B21C
330
B3EC
100
AcDbEntity
  8
A733_ストリートファニチャ
 62
     7
370
     9
100
AcDbTrace
 10
180311.370802
 20
97779.108157
 30
0.0
 11
182667.870802
 21
97779.108157
 31
0.0
 12
181034.370802
 22
98109.108157
 32
0.0
 13
181034.370802
 23
98109.108157
 33
0.0
  0
SOLID
  5
B21D
330
B3EC
100
AcDbEntity
  8
A733_ストリートファニチャ
 62
     7
370
     9
100
AcDbTrace
 10
-182617.870802
 20
97954.108157
 30
0.0
 11
-182667.870802
 21
97779.108157
 31
0.0
 12
-182667.870802
 22
97954.108157
 32
0.0
 13
-182667.870802
 23
97954.108157
 33
0.0
210
0.0
220
0.0
230
-1.0
  0
SOLID
  5
B21E
330
B3EC
100
AcDbEntity
  8
A733_ストリートファニチャ
 62
     7
370
     9
100
AcDbTrace
 10
182667.870802
 20
97779.108157
 30
0.0
 11
181034.370802
 21
98109.108157
 31
0.0
 12
182617.870802
 22
97954.108157
 32
0.0
 13
182617.870802
 23
97954.108157
 33
0.0
  0
SOLID
  5
B21F
330
B3EC
100
AcDbEntity
  8
A733_ストリートファニチャ
 62
     7
370
     9
100
AcDbTrace
 10
180186.370802
 20
100125.108157
 30
0.0
 11
180361.370802
 21
100075.108157
 31
0.0
 12
180361.370802
 22
100125.108157
 32
0.0
 13
180361.370802
 23
100125.108157
 33
0.0
  0
SOLID
  5
B220
330
B3EC
100
AcDbEntity
  8
A733_ストリートファニチャ
 62
     7
370
     9
100
AcDbTrace
 10
-180516.370802
 20
98627.108157
 30
0.0
 11
-180186.370802
 21
100125.108157
 31
0.0
 12
-180361.370802
 22
100075.108157
 32
0.0
 13
-180361.370802
 23
100075.108157
 33
0.0
210
0.0
220
0.0
230
-1.0
  0
SOLID
  5
B221
330
B3EC
100
AcDbEntity
  8
A733_ストリートファニチャ
 62
     7
370
     9
100
AcDbTrace
 10
-180516.370802
 20
103340.108157
 30
0.0
 11
-180361.370802
 21
103805.108157
 31
0.0
 12
-180516.370802
 22
103805.108157
 32
0.0
 13
-180516.370802
 23
103805.108157
 33
0.0
210
0.0
220
0.0
230
-1.0
  0
SOLID
  5
B222
330
B3EC
100
AcDbEntity
  8
A733_ストリートファニチャ
 62
     7
370
     9
100
AcDbTrace
 10
-180361.370802
 20
103340.108157
 30
0.0
 11
-180186.370802
 21
103290.108157
 31
0.0
 12
-180361.370802
 22
103290.108157
 32
0.0
 13
-180361.370802
 23
103290.108157
 33
0.0
210
0.0
220
0.0
230
-1.0
  0
SOLID
  5
B223
330
B3EC
100
AcDbEntity
  8
A733_ストリートファニチャ
 62
     7
370
     9
100
AcDbTrace
 10
180186.370802
 20
103855.108157
 30
0.0
 11
180516.370802
 21
103340.108157
 31
0.0
 12
180361.370802
 22
103340.108157
 32
0.0
 13
180361.370802
 23
103340.108157
 33
0.0
  0
SOLID
  5
B224
330
B3EC
100
AcDbEntity
  8
A733_ストリートファニチャ
 62
     7
370
     9
100
AcDbTrace
 10
-180186.370802
 20
103855.108157
 30
0.0
 11
-180186.370802
 21
103290.108157
 31
0.0
 12
-180361.370802
 22
103340.108157
 32
0.0
 13
-180361.370802
 23
103340.108157
 33
0.0
210
0.0
220
0.0
230
-1.0
  0
SOLID
  5
B225
330
B3EC
100
AcDbEntity
  8
A733_ストリートファニチャ
 62
     7
370
     9
100
AcDbTrace
 10
180186.370802
 20
103855.108157
 30
0.0
 11
180361.370802
 21
103805.108157
 31
0.0
 12
180361.370802
 22
103855.108157
 32
0.0
 13
180361.370802
 23
103855.108157
 33
0.0
  0
SOLID
  5
B226
330
B3EC
100
AcDbEntity
  8
A733_ストリートファニチャ
 62
     7
370
     9
100
AcDbTrace
 10
-180516.370802
 20
103340.108157
 30
0.0
 11
-180186.370802
 21
103855.108157
 31
0.0
 12
-180361.370802
 22
103805.108157
 32
0.0
 13
-180361.370802
 23
103805.108157
 33
0.0
210
0.0
220
0.0
230
-1.0
  0
SOLID
  5
B227
330
B3EC
100
AcDbEntity
  8
A733_ストリートファニチャ
 62
     7
370
     9
100
AcDbTrace
 10
-180516.370802
 20
101475.108157
 30
0.0
 11
-180361.370802
 21
101940.108157
 31
0.0
 12
-180516.370802
 22
101940.108157
 32
0.0
 13
-180516.370802
 23
101940.108157
 33
0.0
210
0.0
220
0.0
230
-1.0
  0
SOLID
  5
B228
330
B3EC
100
AcDbEntity
  8
A733_ストリートファニチャ
 62
     7
370
     9
100
AcDbTrace
 10
-180361.370802
 20
101475.108157
 30
0.0
 11
-180186.370802
 21
101425.108157
 31
0.0
 12
-180361.370802
 22
101425.108157
 32
0.0
 13
-180361.370802
 23
101425.108157
 33
0.0
210
0.0
220
0.0
230
-1.0
  0
SOLID
  5
B229
330
B3EC
100
AcDbEntity
  8
A733_ストリートファニチャ
 62
     7
370
     9
100
AcDbTrace
 10
180186.370802
 20
101990.108157
 30
0.0
 11
180516.370802
 21
101475.108157
 31
0.0
 12
180361.370802
 22
101475.108157
 32
0.0
 13
180361.370802
 23
101475.108157
 33
0.0
  0
SOLID
  5
B22A
330
B3EC
100
AcDbEntity
  8
A733_ストリートファニチャ
 62
     7
370
     9
100
AcDbTrace
 10
-180186.370802
 20
101990.108157
 30
0.0
 11
-180186.370802
 21
101425.108157
 31
0.0
 12
-180361.370802
 22
101475.108157
 32
0.0
 13
-180361.370802
 23
101475.108157
 33
0.0
210
0.0
220
0.0
230
-1.0
  0
SOLID
  5
B22B
330
B3EC
100
AcDbEntity
  8
A733_ストリートファニチャ
 62
     7
370
     9
100
AcDbTrace
 10
180186.370802
 20
101990.108157
 30
0.0
 11
180361.370802
 21
101940.108157
 31
0.0
 12
180361.370802
 22
101990.108157
 32
0.0
 13
180361.370802
 23
101990.108157
 33
0.0
  0
SOLID
  5
B22C
330
B3EC
100
AcDbEntity
  8
A733_ストリートファニチャ
 62
     7
370
     9
100
AcDbTrace
 10
-180516.370802
 20
101475.108157
 30
0.0
 11
-180186.370802
 21
101990.108157
 31
0.0
 12
-180361.370802
 22
101940.108157
 32
0.0
 13
-180361.370802
 23
101940.108157
 33
0.0
210
0.0
220
0.0
230
-1.0
  0
SOLID
  5
B22D
330
B3EC
100
AcDbEntity
  8
A733_ストリートファニチャ
 62
     7
370
     9
100
AcDbTrace
 10
-184482.870802
 20
97954.108157
 30
0.0
 11
-184532.870802
 21
97779.108157
 31
0.0
 12
-184532.870802
 22
97954.108157
 32
0.0
 13
-184532.870802
 23
97954.108157
 33
0.0
210
0.0
220
0.0
230
-1.0
  0
SOLID
  5
B22E
330
B3EC
100
AcDbEntity
  8
A733_ストリートファニチャ
 62
     7
370
     9
100
AcDbTrace
 10
183967.870802
 20
97779.108157
 30
0.0
 11
184532.870802
 21
97779.108157
 31
0.0
 12
184482.870802
 22
97954.108157
 32
0.0
 13
184482.870802
 23
97954.108157
 33
0.0
  0
SOLID
  5
B22F
330
B3EC
100
AcDbEntity
  8
A733_ストリートファニチャ
 62
     7
370
     9
100
AcDbTrace
 10
184482.870802
 20
97954.108157
 30
0.0
 11
184017.870802
 21
98109.108157
 31
0.0
 12
184482.870802
 22
98109.108157
 32
0.0
 13
184482.870802
 23
98109.108157
 33
0.0
  0
SOLID
  5
B230
330
B3EC
100
AcDbEntity
  8
A733_ストリートファニチャ
 62
     7
370
     9
100
AcDbTrace
 10
-184482.870802
 20
97954.108157
 30
0.0
 11
-184017.870802
 21
98109.108157
 31
0.0
 12
-184017.870802
 22
97954.108157
 32
0.0
 13
-184017.870802
 23
97954.108157
 33
0.0
210
0.0
220
0.0
230
-1.0
  0
SOLID
  5
B231
330
B3EC
100
AcDbEntity
  8
A733_ストリートファニチャ
 62
     7
370
     9
100
AcDbTrace
 10
183967.870802
 20
97779.108157
 30
0.0
 11
184017.870802
 21
97954.108157
 31
0.0
 12
183967.870802
 22
97954.108157
 32
0.0
 13
183967.870802
 23
97954.108157
 33
0.0
  0
SOLID
  5
B232
330
B3EC
100
AcDbEntity
  8
A733_ストリートファニチャ
 62
     7
370
     9
100
AcDbTrace
 10
184482.870802
 20
97954.108157
 30
0.0
 11
183967.870802
 21
97779.108157
 31
0.0
 12
184017.870802
 22
97954.108157
 32
0.0
 13
184017.870802
 23
97954.108157
 33
0.0
  0
LINE
  5
B233
330
B3EC
100
AcDbEntity
  8
A733_ストリートファニチャ
 62
     7
370
     9
100
AcDbLine
 10
180516.370802
 20
105443.608157
 30
0.0
 11
181008.870802
 21
105443.608157
 31
0.0
  0
LINE
  5
B234
330
B3EC
100
AcDbEntity
  8
A733_ストリートファニチャ
 62
     7
370
     9
100
AcDbLine
 10
180516.370802
 20
105378.608157
 30
0.0
 11
181073.870802
 21
105378.608157
 31
0.0
  0
LINE
  5
B235
330
B3EC
100
AcDbEntity
  8
A733_ストリートファニチャ
 62
     7
370
     9
100
AcDbLine
 10
180516.370802
 20
105366.108157
 30
0.0
 11
181086.370802
 21
105366.108157
 31
0.0
  0
LINE
  5
B236
330
B3EC
100
AcDbEntity
  8
A733_ストリートファニチャ
 62
     7
370
     9
100
AcDbLine
 10
180566.370802
 20
105366.108157
 30
0.0
 11
180566.370802
 21
105180.108157
 31
0.0
  0
LINE
  5
B237
330
B3EC
100
AcDbEntity
  8
A733_ストリートファニチャ
 62
     7
370
     9
100
AcDbLine
 10
181116.370802
 20
106536.108157
 30
0.0
 11
181116.370802
 21
105336.108157
 31
0.0
  0
LINE
  5
B238
330
B3EC
100
AcDbEntity
  8
A733_ストリートファニチャ
 62
     7
370
     9
100
AcDbLine
 10
180596.370802
 20
98709.108157
 30
0.0
 11
180596.370802
 21
105336.108157
 31
0.0
  0
LINE
  5
B239
330
B3EC
100
AcDbEntity
  8
A733_ストリートファニチャ
 62
     7
370
     9
100
AcDbLine
 10
180596.370802
 20
105336.108157
 30
0.0
 11
181116.370802
 21
105336.108157
 31
0.0
  0
LINE
  5
B23A
330
B3EC
100
AcDbEntity
  8
A733_ストリートファニチャ
 62
     7
370
     9
100
AcDbLine
 10
181116.370802
 20
107176.108157
 30
0.0
 11
181116.370802
 21
106506.108157
 31
0.0
  0
LINE
  5
B23B
330
B3EC
100
AcDbEntity
  8
A733_ストリートファニチャ
 62
     7
370
     9
100
AcDbLine
 10
183696.370802
 20
107176.108157
 30
0.0
 11
181116.370802
 21
107176.108157
 31
0.0
  0
LINE
  5
B23C
330
B3EC
100
AcDbEntity
  8
A733_ストリートファニチャ
 62
     7
370
     9
100
AcDbLine
 10
181008.870802
 20
106586.108157
 30
0.0
 11
181008.870802
 21
105443.608157
 31
0.0
  0
LINE
  5
B23D
330
B3EC
100
AcDbEntity
  8
A733_ストリートファニチャ
 62
     7
370
     9
100
AcDbLine
 10
181008.870802
 20
106586.108157
 30
0.0
 11
181073.870802
 21
106586.108157
 31
0.0
  0
LINE
  5
B23E
330
B3EC
100
AcDbEntity
  8
A733_ストリートファニチャ
 62
     7
370
     9
100
AcDbLine
 10
181073.870802
 20
106586.108157
 30
0.0
 11
181073.870802
 21
105378.608157
 31
0.0
  0
LINE
  5
B23F
330
B3EC
100
AcDbEntity
  8
A733_ストリートファニチャ
 62
     7
370
     9
100
AcDbLine
 10
181086.370802
 20
106586.108157
 30
0.0
 11
181086.370802
 21
107206.108157
 31
0.0
  0
LINE
  5
B240
330
B3EC
100
AcDbEntity
  8
A733_ストリートファニチャ
 62
     7
370
     9
100
AcDbLine
 10
181086.370802
 20
106586.108157
 30
0.0
 11
181086.370802
 21
105366.108157
 31
0.0
  0
LINE
  5
B241
330
B3EC
100
AcDbEntity
  8
A733_ストリートファニチャ
 62
     7
370
     9
100
AcDbLine
 10
181073.870802
 20
106586.108157
 30
0.0
 11
181086.370802
 21
106586.108157
 31
0.0
  0
POINT
  5
B242
330
B3EC
100
AcDbEntity
  8
A733_ストリートファニチャ
 62
     7
370
     9
100
AcDbPoint
 10
181866.370802
 20
107206.108157
 30
0.0
 50
-90.0
  0
POINT
  5
B243
330
B3EC
100
AcDbEntity
  8
A733_ストリートファニチャ
 62
     7
370
     9
100
AcDbPoint
 10
181616.370802
 20
107206.108157
 30
0.0
 50
-90.0
  0
POINT
  5
B244
330
B3EC
100
AcDbEntity
  8
A733_ストリートファニチャ
 62
     7
370
     9
100
AcDbPoint
 10
180941.561656
 20
105366.108157
 30
0.0
 50
-90.0
  0
POINT
  5
B245
330
B3EC
100
AcDbEntity
  8
A733_ストリートファニチャ
 62
     7
370
     9
100
AcDbPoint
 10
180941.561656
 20
105443.608157
 30
0.0
 50
-90.0
  0
POINT
  5
B246
330
B3EC
100
AcDbEntity
  8
A733_ストリートファニチャ
 62
     7
370
     9
100
AcDbPoint
 10
181008.870755
 20
106158.141012
 30
0.0
 50
-90.0
  0
POINT
  5
B247
330
B3EC
100
AcDbEntity
  8
A733_ストリートファニチャ
 62
     7
370
     9
100
AcDbPoint
 10
181086.370802
 20
106158.141012
 30
0.0
 50
-90.0
  0
LINE
  5
B248
330
B3EC
100
AcDbEntity
  8
A733_ストリートファニチャ
 62
     7
370
     9
100
AcDbLine
 10
180941.561656
 20
105366.108157
 30
0.0
 11
180941.561656
 21
105443.608157
 31
0.0
  0
LINE
  5
B249
330
B3EC
100
AcDbEntity
  8
A733_ストリートファニチャ
 62
     7
370
     9
100
AcDbLine
 10
181008.870755
 20
106158.141012
 30
0.0
 11
181086.370802
 21
106158.141012
 31
0.0
  0
ARC
  5
B24A
330
B3EC
100
AcDbEntity
  8
A733_ストリートファニチャ
 62
     7
370
     9
100
AcDbCircle
 10
188297.177024
 20
106363.836752
 30
0.0
 40
48.7994254007371
100
AcDbArc
 50
96.428629
 51
276.428514
  0
ARC
  5
B24B
330
B3EC
100
AcDbEntity
  8
A733_ストリートファニチャ
 62
     7
370
     9
100
AcDbCircle
 10
188297.177024
 20
106460.821911
 30
0.0
 40
48.79942540073801
100
AcDbArc
 50
83.571486
 51
263.571371
  0
POINT
  5
B24C
330
B3EC
100
AcDbEntity
  8
A733_ストリートファニチャ
 62
     7
370
     9
100
AcDbPoint
 10
185782.870802
 20
109335.068075
 30
0.0
 50
-90.0
  0
SOLID
  5
B24D
330
B3EC
100
AcDbEntity
  8
A733_ストリートファニチャ
 62
     7
370
     9
100
AcDbTrace
 10
-188616.588908
 20
105450.596824
 30
0.0
 11
-188314.370802
 21
105475.108157
 31
0.0
 12
-188616.588908
 22
105290.108157
 32
0.0
 13
-188170.370802
 23
105290.108157
 33
0.0
210
0.0
220
0.0
230
-1.0
  0
SOLID
  5
B250
330
B3EC
100
AcDbEntity
  8
A733_ストリートファニチャ
 62
     7
370
     9
100
AcDbTrace
 10
-188616.588908
 20
107476.108157
 30
0.0
 11
-185741.370802
 21
107476.108157
 31
0.0
 12
-188616.588908
 22
107396.768515
 32
0.0
 13
-187466.370802
 23
107256.108157
 33
0.0
210
0.0
220
0.0
230
-1.0
  0
SOLID
  5
B253
330
B3EC
100
AcDbEntity
  8
A733_ストリートファニチャ
 62
     7
370
     9
100
AcDbTrace
 10
-188616.588908
 20
107396.768515
 30
0.0
 11
-187466.370802
 21
107256.108157
 31
0.0
 12
-188616.588908
 22
107332.192623
 32
0.0
 13
-188616.588908
 23
107332.192623
 33
0.0
210
0.0
220
0.0
230
-1.0
  0
SOLID
  5
B256
330
B3EC
100
AcDbEntity
  8
A733_ストリートファニチャ
 62
     7
370
     9
100
AcDbTrace
 10
-188616.588908
 20
107332.192623
 30
0.0
 11
-187466.370802
 21
107256.108157
 31
0.0
 12
-188616.588908
 22
107329.736965
 32
0.0
 13
-188616.588908
 23
107329.736965
 33
0.0
210
0.0
220
0.0
230
-1.0
  0
SOLID
  5
B259
330
B3EC
100
AcDbEntity
  8
A733_ストリートファニチャ
 62
     7
370
     9
100
AcDbTrace
 10
-188616.588908
 20
107329.736965
 30
0.0
 11
-187466.370802
 21
107256.108157
 31
0.0
 12
-188616.588908
 22
107291.680813
 32
0.0
 13
-188314.370802
 23
107256.108157
 33
0.0
210
0.0
220
0.0
230
-1.0
  0
SOLID
  5
B25C
330
B3EC
100
AcDbEntity
  8
A733_ストリートファニチャ
 62
     7
370
     9
100
AcDbTrace
 10
-188616.588908
 20
107291.680813
 30
0.0
 11
-188314.370802
 21
107256.108157
 31
0.0
 12
-188616.588908
 22
107256.108157
 32
0.0
 13
-188616.588908
 23
107256.108157
 33
0.0
210
0.0
220
0.0
230
-1.0
  0
SOLID
  5
B25F
330
B3EC
100
AcDbEntity
  8
A733_ストリートファニチャ
 62
     7
370
     9
100
AcDbTrace
 10
-188616.588908
 20
100715.108157
 30
0.0
 11
-188170.370802
 21
100715.108157
 31
0.0
 12
-188616.588908
 22
100508.324146
 32
0.0
 13
-188616.588908
 23
100508.324146
 33
0.0
210
0.0
220
0.0
230
-1.0
  0
SOLID
  5
B262
330
B3EC
100
AcDbEntity
  8
A733_ストリートファニチャ
 62
     7
370
     9
100
AcDbTrace
 10
-188616.588908
 20
100388.922183
 30
0.0
 11
-188170.370802
 21
100715.108157
 31
0.0
 12
-188616.588908
 22
100109.108157
 32
0.0
 13
-188314.370802
 23
100109.108157
 33
0.0
210
0.0
220
0.0
230
-1.0
  0
SOLID
  5
B265
330
B3EC
100
AcDbEntity
  8
A733_ストリートファニチャ
 62
     7
370
     9
100
AcDbTrace
 10
-188616.588908
 20
100508.324146
 30
0.0
 11
-188170.370802
 21
100715.108157
 31
0.0
 12
-188616.588908
 22
100388.922183
 32
0.0
 13
-188616.588908
 23
100388.922183
 33
0.0
210
0.0
220
0.0
230
-1.0
  0
SOLID
  5
B268
330
B3EC
100
AcDbEntity
  8
A733_ストリートファニチャ
 62
     7
370
     9
100
AcDbTrace
 10
-188616.588908
 20
105475.108157
 30
0.0
 11
-188314.370802
 21
105475.108157
 31
0.0
 12
-188616.588908
 22
105450.596824
 32
0.0
 13
-188616.588908
 23
105450.596824
 33
0.0
210
0.0
220
0.0
230
-1.0
  0
LINE
  5
B26B
330
B3EC
100
AcDbEntity
  8
A221_記入文字
  6
Continuous
 62
     7
370
    13
100
AcDbLine
 10
184052.870802
 20
98354.108157
 30
0.0
 11
184447.870802
 21
98354.108157
 31
0.0
  0
LINE
  5
B26C
330
B3EC
100
AcDbEntity
  8
A221_記入文字
  6
Continuous
 62
     7
370
    13
100
AcDbLine
 10
185150.370802
 20
100088.858157
 30
0.0
 11
185150.370802
 21
101888.858157
 31
0.0
  0
LINE
  5
B26D
330
B3EC
100
AcDbEntity
  8
A221_記入文字
  6
Continuous
 62
     7
370
    13
100
AcDbLine
 10
185600.370802
 20
100088.858157
 30
0.0
 11
185600.370802
 21
101888.858157
 31
0.0
  0
LINE
  5
B26E
330
B3EC
100
AcDbEntity
  8
A221_記入文字
  6
Continuous
 62
     7
370
    13
100
AcDbLine
 10
183350.370802
 20
100088.858157
 30
0.0
 11
183350.370802
 21
101888.858157
 31
0.0
  0
LINE
  5
B26F
330
B3EC
100
AcDbEntity
  8
A221_記入文字
  6
Continuous
 62
     7
370
    13
100
AcDbLine
 10
182900.370802
 20
100088.858157
 30
0.0
 11
182900.370802
 21
101888.858157
 31
0.0
  0
LINE
  5
B270
330
B3EC
100
AcDbEntity
  8
A221_記入文字
  6
Continuous
 62
     7
370
    13
100
AcDbLine
 10
186050.370802
 20
100088.858157
 30
0.0
 11
186050.370802
 21
101888.858157
 31
0.0
  0
LINE
  5
B271
330
B3EC
100
AcDbEntity
  8
A221_記入文字
  6
Continuous
 62
     7
370
    13
100
AcDbLine
 10
182450.370802
 20
100088.858157
 30
0.0
 11
182450.370802
 21
101888.858157
 31
0.0
  0
LINE
  5
B272
330
B3EC
100
AcDbEntity
  8
A221_記入文字
  6
Continuous
 62
     7
370
    13
100
AcDbLine
 10
186050.370802
 20
102788.858157
 30
0.0
 11
186050.370802
 21
104588.858157
 31
0.0
  0
LINE
  5
B273
330
B3EC
100
AcDbEntity
  8
A221_記入文字
  6
Continuous
 62
     7
370
    13
100
AcDbLine
 10
185600.370802
 20
102788.858157
 30
0.0
 11
185600.370802
 21
104588.858157
 31
0.0
  0
LINE
  5
B274
330
B3EC
100
AcDbEntity
  8
A221_記入文字
  6
Continuous
 62
     7
370
    13
100
AcDbLine
 10
185150.370802
 20
102788.858157
 30
0.0
 11
185150.370802
 21
104588.858157
 31
0.0
  0
LINE
  5
B275
330
B3EC
100
AcDbEntity
  8
A221_記入文字
  6
Continuous
 62
     7
370
    13
100
AcDbLine
 10
183350.370802
 20
102788.858157
 30
0.0
 11
183350.370802
 21
104588.858157
 31
0.0
  0
LINE
  5
B276
330
B3EC
100
AcDbEntity
  8
A221_記入文字
  6
Continuous
 62
     7
370
    13
100
AcDbLine
 10
182900.370802
 20
102788.858157
 30
0.0
 11
182900.370802
 21
104588.858157
 31
0.0
  0
LINE
  5
B277
330
B3EC
100
AcDbEntity
  8
A221_記入文字
  6
Continuous
 62
     7
370
    13
100
AcDbLine
 10
182450.370802
 20
102788.858157
 30
0.0
 11
182450.370802
 21
104588.858157
 31
0.0
  0
LINE
  5
B278
330
B3EC
100
AcDbEntity
  8
A221_記入文字
  6
Continuous
 62
     7
370
    13
100
AcDbLine
 10
182450.370802
 20
102788.858157
 30
0.0
 11
183350.370802
 21
102788.858157
 31
0.0
  0
LINE
  5
B279
330
B3EC
100
AcDbEntity
  8
A221_記入文字
  6
Continuous
 62
     7
370
    13
100
AcDbLine
 10
182450.370802
 20
104588.858157
 30
0.0
 11
183350.370802
 21
104588.858157
 31
0.0
  0
LINE
  5
B27A
330
B3EC
100
AcDbEntity
  8
A221_記入文字
  6
Continuous
 62
     7
370
    13
100
AcDbLine
 10
185150.370802
 20
104588.858157
 30
0.0
 11
186050.370802
 21
104588.858157
 31
0.0
  0
LINE
  5
B27B
330
B3EC
100
AcDbEntity
  8
A221_記入文字
  6
Continuous
 62
     7
370
    13
100
AcDbLine
 10
185150.370802
 20
102788.858157
 30
0.0
 11
186050.370802
 21
102788.858157
 31
0.0
  0
LINE
  5
B27C
330
B3EC
100
AcDbEntity
  8
A221_記入文字
  6
Continuous
 62
     7
370
    13
100
AcDbLine
 10
182450.370802
 20
101888.858157
 30
0.0
 11
183350.370802
 21
101888.858157
 31
0.0
  0
LINE
  5
B27D
330
B3EC
100
AcDbEntity
  8
A221_記入文字
  6
Continuous
 62
     7
370
    13
100
AcDbLine
 10
185150.370802
 20
101888.858157
 30
0.0
 11
186050.370802
 21
101888.858157
 31
0.0
  0
LINE
  5
B27E
330
B3EC
100
AcDbEntity
  8
A221_記入文字
  6
Continuous
 62
     7
370
    13
100
AcDbLine
 10
185150.370802
 20
100088.858157
 30
0.0
 11
186050.370802
 21
100088.858157
 31
0.0
  0
LINE
  5
B27F
330
B3EC
100
AcDbEntity
  8
A221_記入文字
  6
Continuous
 62
     7
370
    13
100
AcDbLine
 10
182450.370802
 20
100088.858157
 30
0.0
 11
183350.370802
 21
100088.858157
 31
0.0
  0
LINE
  5
B280
330
B3EC
100
AcDbEntity
  8
A822_別途：家具
  6
Continuous
 62
     7
370
     9
100
AcDbLine
 10
186330.370802
 20
100848.858157
 30
0.0
 11
186330.370802
 21
101128.858157
 31
0.0
  0
LINE
  5
B281
330
B3EC
100
AcDbEntity
  8
A822_別途：家具
  6
Continuous
 62
     7
370
    13
100
AcDbLine
 10
186330.370802
 20
101138.858157
 30
0.0
 11
186050.370802
 21
101138.858157
 31
0.0
  0
LINE
  5
B282
330
B3EC
100
AcDbEntity
  8
A822_別途：家具
  6
Continuous
 62
     7
370
    13
100
AcDbLine
 10
186330.370802
 20
100838.858157
 30
0.0
 11
186050.370802
 21
100838.858157
 31
0.0
  0
ELLIPSE
  5
B283
330
B3EC
100
AcDbEntity
  8
A822_別途：家具
  6
Continuous
 62
     7
370
    13
100
AcDbEllipse
 10
186330.370802
 20
100988.858157
 30
0.0
 11
0.0
 21
150.0000000000116
 31
0.0
210
0.0
220
0.0
230
-1.0
 40
0.3333333333333075
 41
0.0
 42
3.141592653589793
  0
LINE
  5
B284
330
B3EC
100
AcDbEntity
  8
A822_別途：家具
  6
Continuous
 62
     7
370
     9
100
AcDbLine
 10
186330.370802
 20
100848.858157
 30
0.0
 11
186050.370802
 21
100848.858157
 31
0.0
  0
LINE
  5
B285
330
B3EC
100
AcDbEntity
  8
A822_別途：家具
  6
Continuous
 62
     7
370
     9
100
AcDbLine
 10
186330.370802
 20
101128.858157
 30
0.0
 11
186050.370802
 21
101128.858157
 31
0.0
  0
SPLINE
  5
B286
330
B3EC
100
AcDbEntity
  8
A822_別途：家具
  6
Continuous
 62
     7
370
     9
100
AcDbSpline
210
0.0
220
0.0
230
1.0
 70
     8
 71
     3
 72
    18
 73
    14
 74
     0
 42
0.0000000001
 43
0.0000000001
 40
0.0
 40
0.0
 40
0.0
 40
0.0
 40
0.125
 40
0.125
 40
0.25
 40
0.25
 40
0.5
 40
0.5
 40
0.75
 40
0.75
 40
0.875
 40
0.875
 40
1.0
 40
1.0
 40
1.0
 40
1.0
 10
186330.3708016157
 20
101128.8581570821
 30
0.0
 10
186333.210373377
 20
101128.8581570821
 30
0.0
 10
186337.0827940569
 20
101127.0801064837
 30
0.0
 10
186346.8551867665
 20
101114.6711096956
 30
0.0
 10
186351.9481600396
 20
101104.5937438249
 30
0.0
 10
186364.8008051344
 20
101066.0358085405
 30
0.0
 10
186370.3708016157
 20
101029.3497015236
 30
0.0
 10
186370.3708016157
 20
100948.3666126407
 30
0.0
 10
186364.8008051344
 20
100911.6805056237
 30
0.0
 10
186351.9481600396
 20
100873.1225703393
 30
0.0
 10
186346.8551867665
 20
100863.0452044686
 30
0.0
 10
186337.0827940569
 20
100850.6362076806
 30
0.0
 10
186333.210373377
 20
100848.8581570822
 30
0.0
 10
186330.3708016157
 20
100848.8581570821
 30
0.0
  0
LINE
  5
B289
330
B3EC
100
AcDbEntity
  8
A822_別途：家具
  6
Continuous
 62
     7
370
     9
100
AcDbLine
 10
186330.370802
 20
100323.858157
 30
0.0
 11
186330.370802
 21
100603.858157
 31
0.0
  0
LINE
  5
B28A
330
B3EC
100
AcDbEntity
  8
A822_別途：家具
  6
Continuous
 62
     7
370
    13
100
AcDbLine
 10
186330.370802
 20
100613.858157
 30
0.0
 11
186050.370802
 21
100613.858157
 31
0.0
  0
LINE
  5
B28B
330
B3EC
100
AcDbEntity
  8
A822_別途：家具
  6
Continuous
 62
     7
370
    13
100
AcDbLine
 10
186330.370802
 20
100313.858157
 30
0.0
 11
186050.370802
 21
100313.858157
 31
0.0
  0
ELLIPSE
  5
B28C
330
B3EC
100
AcDbEntity
  8
A822_別途：家具
  6
Continuous
 62
     7
370
    13
100
AcDbEllipse
 10
186330.370802
 20
100463.858157
 30
0.0
 11
0.0
 21
150.0000000000116
 31
0.0
210
0.0
220
0.0
230
-1.0
 40
0.3333333333333075
 41
0.0
 42
3.141592653589793
  0
LINE
  5
B28D
330
B3EC
100
AcDbEntity
  8
A822_別途：家具
  6
Continuous
 62
     7
370
     9
100
AcDbLine
 10
186330.370802
 20
100323.858157
 30
0.0
 11
186050.370802
 21
100323.858157
 31
0.0
  0
LINE
  5
B28E
330
B3EC
100
AcDbEntity
  8
A822_別途：家具
  6
Continuous
 62
     7
370
     9
100
AcDbLine
 10
186330.370802
 20
100603.858157
 30
0.0
 11
186050.370802
 21
100603.858157
 31
0.0
  0
SPLINE
  5
B28F
330
B3EC
100
AcDbEntity
  8
A822_別途：家具
  6
Continuous
 62
     7
370
     9
100
AcDbSpline
210
0.0
220
0.0
230
1.0
 70
     8
 71
     3
 72
    18
 73
    14
 74
     0
 42
0.0000000001
 43
0.0000000001
 40
0.0
 40
0.0
 40
0.0
 40
0.0
 40
0.125
 40
0.125
 40
0.25
 40
0.25
 40
0.5
 40
0.5
 40
0.75
 40
0.75
 40
0.875
 40
0.875
 40
1.0
 40
1.0
 40
1.0
 40
1.0
 10
186330.3708016157
 20
100603.8581570821
 30
0.0
 10
186333.210373377
 20
100603.8581570821
 30
0.0
 10
186337.0827940569
 20
100602.0801064837
 30
0.0
 10
186346.8551867665
 20
100589.6711096956
 30
0.0
 10
186351.9481600396
 20
100579.593743825
 30
0.0
 10
186364.8008051344
 20
100541.0358085405
 30
0.0
 10
186370.3708016157
 20
100504.3497015236
 30
0.0
 10
186370.3708016157
 20
100423.3666126408
 30
0.0
 10
186364.8008051344
 20
100386.6805056238
 30
0.0
 10
186351.9481600396
 20
100348.1225703393
 30
0.0
 10
186346.8551867665
 20
100338.0452044686
 30
0.0
 10
186337.0827940569
 20
100325.6362076806
 30
0.0
 10
186333.210373377
 20
100323.8581570822
 30
0.0
 10
186330.3708016157
 20
100323.8581570822
 30
0.0
  0
LINE
  5
B292
330
B3EC
100
AcDbEntity
  8
A822_別途：家具
  6
Continuous
 62
     7
370
     9
100
AcDbLine
 10
186330.370802
 20
101373.858157
 30
0.0
 11
186330.370802
 21
101653.858157
 31
0.0
  0
LINE
  5
B293
330
B3EC
100
AcDbEntity
  8
A822_別途：家具
  6
Continuous
 62
     7
370
    13
100
AcDbLine
 10
186330.370802
 20
101663.858157
 30
0.0
 11
186050.370802
 21
101663.858157
 31
0.0
  0
LINE
  5
B294
330
B3EC
100
AcDbEntity
  8
A822_別途：家具
  6
Continuous
 62
     7
370
    13
100
AcDbLine
 10
186330.370802
 20
101363.858157
 30
0.0
 11
186050.370802
 21
101363.858157
 31
0.0
  0
ELLIPSE
  5
B295
330
B3EC
100
AcDbEntity
  8
A822_別途：家具
  6
Continuous
 62
     7
370
    13
100
AcDbEllipse
 10
186330.370802
 20
101513.858157
 30
0.0
 11
0.0
 21
150.0000000000116
 31
0.0
210
0.0
220
0.0
230
-1.0
 40
0.3333333333333075
 41
0.0
 42
3.141592653589793
  0
LINE
  5
B296
330
B3EC
100
AcDbEntity
  8
A822_別途：家具
  6
Continuous
 62
     7
370
     9
100
AcDbLine
 10
186330.370802
 20
101373.858157
 30
0.0
 11
186050.370802
 21
101373.858157
 31
0.0
  0
LINE
  5
B297
330
B3EC
100
AcDbEntity
  8
A822_別途：家具
  6
Continuous
 62
     7
370
     9
100
AcDbLine
 10
186330.370802
 20
101653.858157
 30
0.0
 11
186050.370802
 21
101653.858157
 31
0.0
  0
SPLINE
  5
B298
330
B3EC
100
AcDbEntity
  8
A822_別途：家具
  6
Continuous
 62
     7
370
     9
100
AcDbSpline
210
0.0
220
0.0
230
1.0
 70
     8
 71
     3
 72
    18
 73
    14
 74
     0
 42
0.0000000001
 43
0.0000000001
 40
0.0
 40
0.0
 40
0.0
 40
0.0
 40
0.125
 40
0.125
 40
0.25
 40
0.25
 40
0.5
 40
0.5
 40
0.75
 40
0.75
 40
0.875
 40
0.875
 40
1.0
 40
1.0
 40
1.0
 40
1.0
 10
186330.3708016157
 20
101653.8581570822
 30
0.0
 10
186333.210373377
 20
101653.8581570821
 30
0.0
 10
186337.0827940569
 20
101652.0801064837
 30
0.0
 10
186346.8551867665
 20
101639.6711096956
 30
0.0
 10
186351.9481600396
 20
101629.593743825
 30
0.0
 10
186364.8008051344
 20
101591.0358085405
 30
0.0
 10
186370.3708016157
 20
101554.3497015236
 30
0.0
 10
186370.3708016157
 20
101473.3666126407
 30
0.0
 10
186364.8008051344
 20
101436.6805056237
 30
0.0
 10
186351.9481600396
 20
101398.1225703393
 30
0.0
 10
186346.8551867665
 20
101388.0452044686
 30
0.0
 10
186337.0827940569
 20
101375.6362076806
 30
0.0
 10
186333.210373377
 20
101373.8581570822
 30
0.0
 10
186330.3708016157
 20
101373.8581570822
 30
0.0
  0
LINE
  5
B29B
330
B3EC
100
AcDbEntity
  8
A822_別途：家具
  6
Continuous
 62
     7
370
     9
100
AcDbLine
 10
184870.370802
 20
100848.858157
 30
0.0
 11
184870.370802
 21
101128.858157
 31
0.0
  0
LINE
  5
B29C
330
B3EC
100
AcDbEntity
  8
A822_別途：家具
  6
Continuous
 62
     7
370
    13
100
AcDbLine
 10
184870.370802
 20
101138.858157
 30
0.0
 11
185150.370802
 21
101138.858157
 31
0.0
  0
LINE
  5
B29D
330
B3EC
100
AcDbEntity
  8
A822_別途：家具
  6
Continuous
 62
     7
370
    13
100
AcDbLine
 10
184870.370802
 20
100838.858157
 30
0.0
 11
185150.370802
 21
100838.858157
 31
0.0
  0
ELLIPSE
  5
B29E
330
B3EC
100
AcDbEntity
  8
A822_別途：家具
  6
Continuous
 62
     7
370
    13
100
AcDbEllipse
 10
184870.370802
 20
100988.858157
 30
0.0
 11
0.0
 21
150.0000000000116
 31
0.0
210
0.0
220
0.0
230
1.0
 40
0.3333333333333075
 41
0.0
 42
3.141592653589793
  0
LINE
  5
B29F
330
B3EC
100
AcDbEntity
  8
A822_別途：家具
  6
Continuous
 62
     7
370
     9
100
AcDbLine
 10
184870.370802
 20
100848.858157
 30
0.0
 11
185150.370802
 21
100848.858157
 31
0.0
  0
LINE
  5
B2A0
330
B3EC
100
AcDbEntity
  8
A822_別途：家具
  6
Continuous
 62
     7
370
     9
100
AcDbLine
 10
184870.370802
 20
101128.858157
 30
0.0
 11
185150.370802
 21
101128.858157
 31
0.0
  0
SPLINE
  5
B2A1
330
B3EC
100
AcDbEntity
  8
A822_別途：家具
  6
Continuous
 62
     7
370
     9
100
AcDbSpline
210
0.0
220
0.0
230
1.0
 70
     8
 71
     3
 72
    18
 73
    14
 74
     0
 42
0.0000000001
 43
0.0000000001
 40
0.0
 40
0.0
 40
0.0
 40
0.0
 40
0.125
 40
0.125
 40
0.25
 40
0.25
 40
0.5
 40
0.5
 40
0.75
 40
0.75
 40
0.875
 40
0.875
 40
1.0
 40
1.0
 40
1.0
 40
1.0
 10
184870.3708016157
 20
101128.8581570821
 30
0.0
 10
184867.5312298543
 20
101128.8581570821
 30
0.0
 10
184863.6588091745
 20
101127.0801064837
 30
0.0
 10
184853.8864164648
 20
101114.6711096956
 30
0.0
 10
184848.7934431918
 20
101104.5937438249
 30
0.0
 10
184835.9407980969
 20
101066.0358085405
 30
0.0
 10
184830.3708016157
 20
101029.3497015236
 30
0.0
 10
184830.3708016157
 20
100948.3666126407
 30
0.0
 10
184835.9407980969
 20
100911.6805056237
 30
0.0
 10
184848.7934431918
 20
100873.1225703393
 30
0.0
 10
184853.8864164648
 20
100863.0452044686
 30
0.0
 10
184863.6588091745
 20
100850.6362076806
 30
0.0
 10
184867.5312298543
 20
100848.8581570822
 30
0.0
 10
184870.3708016157
 20
100848.8581570821
 30
0.0
  0
LINE
  5
B2A4
330
B3EC
100
AcDbEntity
  8
A822_別途：家具
  6
Continuous
 62
     7
370
     9
100
AcDbLine
 10
184870.370802
 20
100323.858157
 30
0.0
 11
184870.370802
 21
100603.858157
 31
0.0
  0
LINE
  5
B2A5
330
B3EC
100
AcDbEntity
  8
A822_別途：家具
  6
Continuous
 62
     7
370
    13
100
AcDbLine
 10
184870.370802
 20
100613.858157
 30
0.0
 11
185150.370802
 21
100613.858157
 31
0.0
  0
LINE
  5
B2A6
330
B3EC
100
AcDbEntity
  8
A822_別途：家具
  6
Continuous
 62
     7
370
    13
100
AcDbLine
 10
184870.370802
 20
100313.858157
 30
0.0
 11
185150.370802
 21
100313.858157
 31
0.0
  0
ELLIPSE
  5
B2A7
330
B3EC
100
AcDbEntity
  8
A822_別途：家具
  6
Continuous
 62
     7
370
    13
100
AcDbEllipse
 10
184870.370802
 20
100463.858157
 30
0.0
 11
0.0
 21
150.0000000000116
 31
0.0
210
0.0
220
0.0
230
1.0
 40
0.3333333333333075
 41
0.0
 42
3.141592653589793
  0
LINE
  5
B2A8
330
B3EC
100
AcDbEntity
  8
A822_別途：家具
  6
Continuous
 62
     7
370
     9
100
AcDbLine
 10
184870.370802
 20
100323.858157
 30
0.0
 11
185150.370802
 21
100323.858157
 31
0.0
  0
LINE
  5
B2A9
330
B3EC
100
AcDbEntity
  8
A822_別途：家具
  6
Continuous
 62
     7
370
     9
100
AcDbLine
 10
184870.370802
 20
100603.858157
 30
0.0
 11
185150.370802
 21
100603.858157
 31
0.0
  0
SPLINE
  5
B2AA
330
B3EC
100
AcDbEntity
  8
A822_別途：家具
  6
Continuous
 62
     7
370
     9
100
AcDbSpline
210
0.0
220
0.0
230
1.0
 70
     8
 71
     3
 72
    18
 73
    14
 74
     0
 42
0.0000000001
 43
0.0000000001
 40
0.0
 40
0.0
 40
0.0
 40
0.0
 40
0.125
 40
0.125
 40
0.25
 40
0.25
 40
0.5
 40
0.5
 40
0.75
 40
0.75
 40
0.875
 40
0.875
 40
1.0
 40
1.0
 40
1.0
 40
1.0
 10
184870.3708016157
 20
100603.8581570821
 30
0.0
 10
184867.5312298543
 20
100603.8581570821
 30
0.0
 10
184863.6588091745
 20
100602.0801064837
 30
0.0
 10
184853.8864164648
 20
100589.6711096956
 30
0.0
 10
184848.7934431918
 20
100579.593743825
 30
0.0
 10
184835.9407980969
 20
100541.0358085405
 30
0.0
 10
184830.3708016157
 20
100504.3497015236
 30
0.0
 10
184830.3708016157
 20
100423.3666126408
 30
0.0
 10
184835.9407980969
 20
100386.6805056238
 30
0.0
 10
184848.7934431918
 20
100348.1225703393
 30
0.0
 10
184853.8864164648
 20
100338.0452044686
 30
0.0
 10
184863.6588091745
 20
100325.6362076806
 30
0.0
 10
184867.5312298543
 20
100323.8581570822
 30
0.0
 10
184870.3708016157
 20
100323.8581570822
 30
0.0
  0
LINE
  5
B2AD
330
B3EC
100
AcDbEntity
  8
A822_別途：家具
  6
Continuous
 62
     7
370
     9
100
AcDbLine
 10
184870.370802
 20
101373.858157
 30
0.0
 11
184870.370802
 21
101653.858157
 31
0.0
  0
LINE
  5
B2AE
330
B3EC
100
AcDbEntity
  8
A822_別途：家具
  6
Continuous
 62
     7
370
    13
100
AcDbLine
 10
184870.370802
 20
101663.858157
 30
0.0
 11
185150.370802
 21
101663.858157
 31
0.0
  0
LINE
  5
B2AF
330
B3EC
100
AcDbEntity
  8
A822_別途：家具
  6
Continuous
 62
     7
370
    13
100
AcDbLine
 10
184870.370802
 20
101363.858157
 30
0.0
 11
185150.370802
 21
101363.858157
 31
0.0
  0
ELLIPSE
  5
B2B0
330
B3EC
100
AcDbEntity
  8
A822_別途：家具
  6
Continuous
 62
     7
370
    13
100
AcDbEllipse
 10
184870.370802
 20
101513.858157
 30
0.0
 11
0.0
 21
150.0000000000116
 31
0.0
210
0.0
220
0.0
230
1.0
 40
0.3333333333333075
 41
0.0
 42
3.141592653589793
  0
LINE
  5
B2B1
330
B3EC
100
AcDbEntity
  8
A822_別途：家具
  6
Continuous
 62
     7
370
     9
100
AcDbLine
 10
184870.370802
 20
101373.858157
 30
0.0
 11
185150.370802
 21
101373.858157
 31
0.0
  0
LINE
  5
B2B2
330
B3EC
100
AcDbEntity
  8
A822_別途：家具
  6
Continuous
 62
     7
370
     9
100
AcDbLine
 10
184870.370802
 20
101653.858157
 30
0.0
 11
185150.370802
 21
101653.858157
 31
0.0
  0
SPLINE
  5
B2B3
330
B3EC
100
AcDbEntity
  8
A822_別途：家具
  6
Continuous
 62
     7
370
     9
100
AcDbSpline
210
0.0
220
0.0
230
1.0
 70
     8
 71
     3
 72
    18
 73
    14
 74
     0
 42
0.0000000001
 43
0.0000000001
 40
0.0
 40
0.0
 40
0.0
 40
0.0
 40
0.125
 40
0.125
 40
0.25
 40
0.25
 40
0.5
 40
0.5
 40
0.75
 40
0.75
 40
0.875
 40
0.875
 40
1.0
 40
1.0
 40
1.0
 40
1.0
 10
184870.3708016157
 20
101653.8581570822
 30
0.0
 10
184867.5312298543
 20
101653.8581570821
 30
0.0
 10
184863.6588091745
 20
101652.0801064837
 30
0.0
 10
184853.8864164648
 20
101639.6711096956
 30
0.0
 10
184848.7934431918
 20
101629.593743825
 30
0.0
 10
184835.9407980969
 20
101591.0358085405
 30
0.0
 10
184830.3708016157
 20
101554.3497015236
 30
0.0
 10
184830.3708016157
 20
101473.3666126407
 30
0.0
 10
184835.9407980969
 20
101436.6805056237
 30
0.0
 10
184848.7934431918
 20
101398.1225703393
 30
0.0
 10
184853.8864164648
 20
101388.0452044686
 30
0.0
 10
184863.6588091745
 20
101375.6362076806
 30
0.0
 10
184867.5312298543
 20
101373.8581570822
 30
0.0
 10
184870.3708016157
 20
101373.8581570822
 30
0.0
  0
LINE
  5
B2B6
330
B3EC
100
AcDbEntity
  8
A822_別途：家具
  6
Continuous
 62
     7
370
     9
100
AcDbLine
 10
183630.370802
 20
100848.858157
 30
0.0
 11
183630.370802
 21
101128.858157
 31
0.0
  0
LINE
  5
B2B7
330
B3EC
100
AcDbEntity
  8
A822_別途：家具
  6
Continuous
 62
     7
370
    13
100
AcDbLine
 10
183630.370802
 20
101138.858157
 30
0.0
 11
183350.370802
 21
101138.858157
 31
0.0
  0
LINE
  5
B2B8
330
B3EC
100
AcDbEntity
  8
A822_別途：家具
  6
Continuous
 62
     7
370
    13
100
AcDbLine
 10
183630.370802
 20
100838.858157
 30
0.0
 11
183350.370802
 21
100838.858157
 31
0.0
  0
ELLIPSE
  5
B2B9
330
B3EC
100
AcDbEntity
  8
A822_別途：家具
  6
Continuous
 62
     7
370
    13
100
AcDbEllipse
 10
183630.370802
 20
100988.858157
 30
0.0
 11
0.0
 21
150.0000000000116
 31
0.0
210
0.0
220
0.0
230
-1.0
 40
0.3333333333333075
 41
0.0
 42
3.141592653589793
  0
LINE
  5
B2BA
330
B3EC
100
AcDbEntity
  8
A822_別途：家具
  6
Continuous
 62
     7
370
     9
100
AcDbLine
 10
183630.370802
 20
100848.858157
 30
0.0
 11
183350.370802
 21
100848.858157
 31
0.0
  0
LINE
  5
B2BB
330
B3EC
100
AcDbEntity
  8
A822_別途：家具
  6
Continuous
 62
     7
370
     9
100
AcDbLine
 10
183630.370802
 20
101128.858157
 30
0.0
 11
183350.370802
 21
101128.858157
 31
0.0
  0
SPLINE
  5
B2BC
330
B3EC
100
AcDbEntity
  8
A822_別途：家具
  6
Continuous
 62
     7
370
     9
100
AcDbSpline
210
0.0
220
0.0
230
1.0
 70
     8
 71
     3
 72
    18
 73
    14
 74
     0
 42
0.0000000001
 43
0.0000000001
 40
0.0
 40
0.0
 40
0.0
 40
0.0
 40
0.125
 40
0.125
 40
0.25
 40
0.25
 40
0.5
 40
0.5
 40
0.75
 40
0.75
 40
0.875
 40
0.875
 40
1.0
 40
1.0
 40
1.0
 40
1.0
 10
183630.3708016157
 20
101128.8581570821
 30
0.0
 10
183633.210373377
 20
101128.8581570821
 30
0.0
 10
183637.0827940569
 20
101127.0801064837
 30
0.0
 10
183646.8551867666
 20
101114.6711096956
 30
0.0
 10
183651.9481600396
 20
101104.5937438249
 30
0.0
 10
183664.8008051344
 20
101066.0358085405
 30
0.0
 10
183670.3708016157
 20
101029.3497015236
 30
0.0
 10
183670.3708016157
 20
100948.3666126407
 30
0.0
 10
183664.8008051344
 20
100911.6805056237
 30
0.0
 10
183651.9481600396
 20
100873.1225703393
 30
0.0
 10
183646.8551867666
 20
100863.0452044686
 30
0.0
 10
183637.0827940569
 20
100850.6362076806
 30
0.0
 10
183633.210373377
 20
100848.8581570822
 30
0.0
 10
183630.3708016157
 20
100848.8581570821
 30
0.0
  0
LINE
  5
B2BF
330
B3EC
100
AcDbEntity
  8
A822_別途：家具
  6
Continuous
 62
     7
370
     9
100
AcDbLine
 10
183630.370802
 20
100323.858157
 30
0.0
 11
183630.370802
 21
100603.858157
 31
0.0
  0
LINE
  5
B2C0
330
B3EC
100
AcDbEntity
  8
A822_別途：家具
  6
Continuous
 62
     7
370
    13
100
AcDbLine
 10
183630.370802
 20
100613.858157
 30
0.0
 11
183350.370802
 21
100613.858157
 31
0.0
  0
LINE
  5
B2C1
330
B3EC
100
AcDbEntity
  8
A822_別途：家具
  6
Continuous
 62
     7
370
    13
100
AcDbLine
 10
183630.370802
 20
100313.858157
 30
0.0
 11
183350.370802
 21
100313.858157
 31
0.0
  0
ELLIPSE
  5
B2C2
330
B3EC
100
AcDbEntity
  8
A822_別途：家具
  6
Continuous
 62
     7
370
    13
100
AcDbEllipse
 10
183630.370802
 20
100463.858157
 30
0.0
 11
0.0
 21
150.0000000000116
 31
0.0
210
0.0
220
0.0
230
-1.0
 40
0.3333333333333075
 41
0.0
 42
3.141592653589793
  0
LINE
  5
B2C3
330
B3EC
100
AcDbEntity
  8
A822_別途：家具
  6
Continuous
 62
     7
370
     9
100
AcDbLine
 10
183630.370802
 20
100323.858157
 30
0.0
 11
183350.370802
 21
100323.858157
 31
0.0
  0
LINE
  5
B2C4
330
B3EC
100
AcDbEntity
  8
A822_別途：家具
  6
Continuous
 62
     7
370
     9
100
AcDbLine
 10
183630.370802
 20
100603.858157
 30
0.0
 11
183350.370802
 21
100603.858157
 31
0.0
  0
SPLINE
  5
B2C5
330
B3EC
100
AcDbEntity
  8
A822_別途：家具
  6
Continuous
 62
     7
370
     9
100
AcDbSpline
210
0.0
220
0.0
230
1.0
 70
     8
 71
     3
 72
    18
 73
    14
 74
     0
 42
0.0000000001
 43
0.0000000001
 40
0.0
 40
0.0
 40
0.0
 40
0.0
 40
0.125
 40
0.125
 40
0.25
 40
0.25
 40
0.5
 40
0.5
 40
0.75
 40
0.75
 40
0.875
 40
0.875
 40
1.0
 40
1.0
 40
1.0
 40
1.0
 10
183630.3708016157
 20
100603.8581570821
 30
0.0
 10
183633.210373377
 20
100603.8581570821
 30
0.0
 10
183637.0827940569
 20
100602.0801064837
 30
0.0
 10
183646.8551867666
 20
100589.6711096956
 30
0.0
 10
183651.9481600396
 20
100579.593743825
 30
0.0
 10
183664.8008051344
 20
100541.0358085405
 30
0.0
 10
183670.3708016157
 20
100504.3497015236
 30
0.0
 10
183670.3708016157
 20
100423.3666126408
 30
0.0
 10
183664.8008051344
 20
100386.6805056238
 30
0.0
 10
183651.9481600396
 20
100348.1225703393
 30
0.0
 10
183646.8551867666
 20
100338.0452044686
 30
0.0
 10
183637.0827940569
 20
100325.6362076806
 30
0.0
 10
183633.210373377
 20
100323.8581570822
 30
0.0
 10
183630.3708016157
 20
100323.8581570822
 30
0.0
  0
LINE
  5
B2C8
330
B3EC
100
AcDbEntity
  8
A822_別途：家具
  6
Continuous
 62
     7
370
     9
100
AcDbLine
 10
183630.370802
 20
101373.858157
 30
0.0
 11
183630.370802
 21
101653.858157
 31
0.0
  0
LINE
  5
B2C9
330
B3EC
100
AcDbEntity
  8
A822_別途：家具
  6
Continuous
 62
     7
370
    13
100
AcDbLine
 10
183630.370802
 20
101663.858157
 30
0.0
 11
183350.370802
 21
101663.858157
 31
0.0
  0
LINE
  5
B2CA
330
B3EC
100
AcDbEntity
  8
A822_別途：家具
  6
Continuous
 62
     7
370
    13
100
AcDbLine
 10
183630.370802
 20
101363.858157
 30
0.0
 11
183350.370802
 21
101363.858157
 31
0.0
  0
ELLIPSE
  5
B2CB
330
B3EC
100
AcDbEntity
  8
A822_別途：家具
  6
Continuous
 62
     7
370
    13
100
AcDbEllipse
 10
183630.370802
 20
101513.858157
 30
0.0
 11
0.0
 21
150.0000000000116
 31
0.0
210
0.0
220
0.0
230
-1.0
 40
0.3333333333333075
 41
0.0
 42
3.141592653589793
  0
LINE
  5
B2CC
330
B3EC
100
AcDbEntity
  8
A822_別途：家具
  6
Continuous
 62
     7
370
     9
100
AcDbLine
 10
183630.370802
 20
101373.858157
 30
0.0
 11
183350.370802
 21
101373.858157
 31
0.0
  0
LINE
  5
B2CD
330
B3EC
100
AcDbEntity
  8
A822_別途：家具
  6
Continuous
 62
     7
370
     9
100
AcDbLine
 10
183630.370802
 20
101653.858157
 30
0.0
 11
183350.370802
 21
101653.858157
 31
0.0
  0
SPLINE
  5
B2CE
330
B3EC
100
AcDbEntity
  8
A822_別途：家具
  6
Continuous
 62
     7
370
     9
100
AcDbSpline
210
0.0
220
0.0
230
1.0
 70
     8
 71
     3
 72
    18
 73
    14
 74
     0
 42
0.0000000001
 43
0.0000000001
 40
0.0
 40
0.0
 40
0.0
 40
0.0
 40
0.125
 40
0.125
 40
0.25
 40
0.25
 40
0.5
 40
0.5
 40
0.75
 40
0.75
 40
0.875
 40
0.875
 40
1.0
 40
1.0
 40
1.0
 40
1.0
 10
183630.3708016157
 20
101653.8581570822
 30
0.0
 10
183633.210373377
 20
101653.8581570821
 30
0.0
 10
183637.0827940569
 20
101652.0801064837
 30
0.0
 10
183646.8551867666
 20
101639.6711096956
 30
0.0
 10
183651.9481600396
 20
101629.593743825
 30
0.0
 10
183664.8008051344
 20
101591.0358085405
 30
0.0
 10
183670.3708016157
 20
101554.3497015236
 30
0.0
 10
183670.3708016157
 20
101473.3666126407
 30
0.0
 10
183664.8008051344
 20
101436.6805056237
 30
0.0
 10
183651.9481600396
 20
101398.1225703393
 30
0.0
 10
183646.8551867666
 20
101388.0452044686
 30
0.0
 10
183637.0827940569
 20
101375.6362076806
 30
0.0
 10
183633.210373377
 20
101373.8581570822
 30
0.0
 10
183630.3708016157
 20
101373.8581570822
 30
0.0
  0
LINE
  5
B2D1
330
B3EC
100
AcDbEntity
  8
A822_別途：家具
  6
Continuous
 62
     7
370
     9
100
AcDbLine
 10
182170.370802
 20
100848.858157
 30
0.0
 11
182170.370802
 21
101128.858157
 31
0.0
  0
LINE
  5
B2D2
330
B3EC
100
AcDbEntity
  8
A822_別途：家具
  6
Continuous
 62
     7
370
    13
100
AcDbLine
 10
182170.370802
 20
101138.858157
 30
0.0
 11
182450.370802
 21
101138.858157
 31
0.0
  0
LINE
  5
B2D3
330
B3EC
100
AcDbEntity
  8
A822_別途：家具
  6
Continuous
 62
     7
370
    13
100
AcDbLine
 10
182170.370802
 20
100838.858157
 30
0.0
 11
182450.370802
 21
100838.858157
 31
0.0
  0
ELLIPSE
  5
B2D4
330
B3EC
100
AcDbEntity
  8
A822_別途：家具
  6
Continuous
 62
     7
370
    13
100
AcDbEllipse
 10
182170.370802
 20
100988.858157
 30
0.0
 11
0.0
 21
150.0000000000116
 31
0.0
210
0.0
220
0.0
230
1.0
 40
0.3333333333333075
 41
0.0
 42
3.141592653589793
  0
LINE
  5
B2D5
330
B3EC
100
AcDbEntity
  8
A822_別途：家具
  6
Continuous
 62
     7
370
     9
100
AcDbLine
 10
182170.370802
 20
100848.858157
 30
0.0
 11
182450.370802
 21
100848.858157
 31
0.0
  0
LINE
  5
B2D6
330
B3EC
100
AcDbEntity
  8
A822_別途：家具
  6
Continuous
 62
     7
370
     9
100
AcDbLine
 10
182170.370802
 20
101128.858157
 30
0.0
 11
182450.370802
 21
101128.858157
 31
0.0
  0
SPLINE
  5
B2D7
330
B3EC
100
AcDbEntity
  8
A822_別途：家具
  6
Continuous
 62
     7
370
     9
100
AcDbSpline
210
0.0
220
0.0
230
1.0
 70
     8
 71
     3
 72
    18
 73
    14
 74
     0
 42
0.0000000001
 43
0.0000000001
 40
0.0
 40
0.0
 40
0.0
 40
0.0
 40
0.125
 40
0.125
 40
0.25
 40
0.25
 40
0.5
 40
0.5
 40
0.75
 40
0.75
 40
0.875
 40
0.875
 40
1.0
 40
1.0
 40
1.0
 40
1.0
 10
182170.3708016157
 20
101128.8581570821
 30
0.0
 10
182167.5312298544
 20
101128.8581570821
 30
0.0
 10
182163.6588091745
 20
101127.0801064837
 30
0.0
 10
182153.8864164648
 20
101114.6711096956
 30
0.0
 10
182148.7934431918
 20
101104.5937438249
 30
0.0
 10
182135.9407980969
 20
101066.0358085405
 30
0.0
 10
182130.3708016157
 20
101029.3497015236
 30
0.0
 10
182130.3708016157
 20
100948.3666126407
 30
0.0
 10
182135.9407980969
 20
100911.6805056237
 30
0.0
 10
182148.7934431918
 20
100873.1225703393
 30
0.0
 10
182153.8864164648
 20
100863.0452044686
 30
0.0
 10
182163.6588091745
 20
100850.6362076806
 30
0.0
 10
182167.5312298544
 20
100848.8581570822
 30
0.0
 10
182170.3708016157
 20
100848.8581570821
 30
0.0
  0
LINE
  5
B2DA
330
B3EC
100
AcDbEntity
  8
A822_別途：家具
  6
Continuous
 62
     7
370
     9
100
AcDbLine
 10
182170.370802
 20
100323.858157
 30
0.0
 11
182170.370802
 21
100603.858157
 31
0.0
  0
LINE
  5
B2DB
330
B3EC
100
AcDbEntity
  8
A822_別途：家具
  6
Continuous
 62
     7
370
    13
100
AcDbLine
 10
182170.370802
 20
100613.858157
 30
0.0
 11
182450.370802
 21
100613.858157
 31
0.0
  0
LINE
  5
B2DC
330
B3EC
100
AcDbEntity
  8
A822_別途：家具
  6
Continuous
 62
     7
370
    13
100
AcDbLine
 10
182170.370802
 20
100313.858157
 30
0.0
 11
182450.370802
 21
100313.858157
 31
0.0
  0
ELLIPSE
  5
B2DD
330
B3EC
100
AcDbEntity
  8
A822_別途：家具
  6
Continuous
 62
     7
370
    13
100
AcDbEllipse
 10
182170.370802
 20
100463.858157
 30
0.0
 11
0.0
 21
150.0000000000116
 31
0.0
210
0.0
220
0.0
230
1.0
 40
0.3333333333333075
 41
0.0
 42
3.141592653589793
  0
LINE
  5
B2DE
330
B3EC
100
AcDbEntity
  8
A822_別途：家具
  6
Continuous
 62
     7
370
     9
100
AcDbLine
 10
182170.370802
 20
100323.858157
 30
0.0
 11
182450.370802
 21
100323.858157
 31
0.0
  0
LINE
  5
B2DF
330
B3EC
100
AcDbEntity
  8
A822_別途：家具
  6
Continuous
 62
     7
370
     9
100
AcDbLine
 10
182170.370802
 20
100603.858157
 30
0.0
 11
182450.370802
 21
100603.858157
 31
0.0
  0
SPLINE
  5
B2E0
330
B3EC
100
AcDbEntity
  8
A822_別途：家具
  6
Continuous
 62
     7
370
     9
100
AcDbSpline
210
0.0
220
0.0
230
1.0
 70
     8
 71
     3
 72
    18
 73
    14
 74
     0
 42
0.0000000001
 43
0.0000000001
 40
0.0
 40
0.0
 40
0.0
 40
0.0
 40
0.125
 40
0.125
 40
0.25
 40
0.25
 40
0.5
 40
0.5
 40
0.75
 40
0.75
 40
0.875
 40
0.875
 40
1.0
 40
1.0
 40
1.0
 40
1.0
 10
182170.3708016157
 20
100603.8581570821
 30
0.0
 10
182167.5312298544
 20
100603.8581570821
 30
0.0
 10
182163.6588091745
 20
100602.0801064837
 30
0.0
 10
182153.8864164648
 20
100589.6711096956
 30
0.0
 10
182148.7934431918
 20
100579.593743825
 30
0.0
 10
182135.9407980969
 20
100541.0358085405
 30
0.0
 10
182130.3708016157
 20
100504.3497015236
 30
0.0
 10
182130.3708016157
 20
100423.3666126408
 30
0.0
 10
182135.9407980969
 20
100386.6805056238
 30
0.0
 10
182148.7934431918
 20
100348.1225703393
 30
0.0
 10
182153.8864164648
 20
100338.0452044686
 30
0.0
 10
182163.6588091745
 20
100325.6362076806
 30
0.0
 10
182167.5312298544
 20
100323.8581570822
 30
0.0
 10
182170.3708016157
 20
100323.8581570822
 30
0.0
  0
LINE
  5
B2E3
330
B3EC
100
AcDbEntity
  8
A822_別途：家具
  6
Continuous
 62
     7
370
     9
100
AcDbLine
 10
182170.370802
 20
101373.858157
 30
0.0
 11
182170.370802
 21
101653.858157
 31
0.0
  0
LINE
  5
B2E4
330
B3EC
100
AcDbEntity
  8
A822_別途：家具
  6
Continuous
 62
     7
370
    13
100
AcDbLine
 10
182170.370802
 20
101663.858157
 30
0.0
 11
182450.370802
 21
101663.858157
 31
0.0
  0
LINE
  5
B2E5
330
B3EC
100
AcDbEntity
  8
A822_別途：家具
  6
Continuous
 62
     7
370
    13
100
AcDbLine
 10
182170.370802
 20
101363.858157
 30
0.0
 11
182450.370802
 21
101363.858157
 31
0.0
  0
ELLIPSE
  5
B2E6
330
B3EC
100
AcDbEntity
  8
A822_別途：家具
  6
Continuous
 62
     7
370
    13
100
AcDbEllipse
 10
182170.370802
 20
101513.858157
 30
0.0
 11
0.0
 21
150.0000000000116
 31
0.0
210
0.0
220
0.0
230
1.0
 40
0.3333333333333075
 41
0.0
 42
3.141592653589793
  0
LINE
  5
B2E7
330
B3EC
100
AcDbEntity
  8
A822_別途：家具
  6
Continuous
 62
     7
370
     9
100
AcDbLine
 10
182170.370802
 20
101373.858157
 30
0.0
 11
182450.370802
 21
101373.858157
 31
0.0
  0
LINE
  5
B2E8
330
B3EC
100
AcDbEntity
  8
A822_別途：家具
  6
Continuous
 62
     7
370
     9
100
AcDbLine
 10
182170.370802
 20
101653.858157
 30
0.0
 11
182450.370802
 21
101653.858157
 31
0.0
  0
SPLINE
  5
B2E9
330
B3EC
100
AcDbEntity
  8
A822_別途：家具
  6
Continuous
 62
     7
370
     9
100
AcDbSpline
210
0.0
220
0.0
230
1.0
 70
     8
 71
     3
 72
    18
 73
    14
 74
     0
 42
0.0000000001
 43
0.0000000001
 40
0.0
 40
0.0
 40
0.0
 40
0.0
 40
0.125
 40
0.125
 40
0.25
 40
0.25
 40
0.5
 40
0.5
 40
0.75
 40
0.75
 40
0.875
 40
0.875
 40
1.0
 40
1.0
 40
1.0
 40
1.0
 10
182170.3708016157
 20
101653.8581570822
 30
0.0
 10
182167.5312298544
 20
101653.8581570821
 30
0.0
 10
182163.6588091745
 20
101652.0801064837
 30
0.0
 10
182153.8864164648
 20
101639.6711096956
 30
0.0
 10
182148.7934431918
 20
101629.593743825
 30
0.0
 10
182135.9407980969
 20
101591.0358085405
 30
0.0
 10
182130.3708016157
 20
101554.3497015236
 30
0.0
 10
182130.3708016157
 20
101473.3666126407
 30
0.0
 10
182135.9407980969
 20
101436.6805056237
 30
0.0
 10
182148.7934431918
 20
101398.1225703393
 30
0.0
 10
182153.8864164648
 20
101388.0452044686
 30
0.0
 10
182163.6588091745
 20
101375.6362076806
 30
0.0
 10
182167.5312298544
 20
101373.8581570822
 30
0.0
 10
182170.3708016157
 20
101373.8581570822
 30
0.0
  0
LINE
  5
B2EC
330
B3EC
100
AcDbEntity
  8
A822_別途：家具
  6
Continuous
 62
     7
370
     9
100
AcDbLine
 10
183630.370802
 20
103548.858157
 30
0.0
 11
183630.370802
 21
103828.858157
 31
0.0
  0
LINE
  5
B2ED
330
B3EC
100
AcDbEntity
  8
A822_別途：家具
  6
Continuous
 62
     7
370
    13
100
AcDbLine
 10
183630.370802
 20
103838.858157
 30
0.0
 11
183350.370802
 21
103838.858157
 31
0.0
  0
LINE
  5
B2EE
330
B3EC
100
AcDbEntity
  8
A822_別途：家具
  6
Continuous
 62
     7
370
    13
100
AcDbLine
 10
183630.370802
 20
103538.858157
 30
0.0
 11
183350.370802
 21
103538.858157
 31
0.0
  0
ELLIPSE
  5
B2EF
330
B3EC
100
AcDbEntity
  8
A822_別途：家具
  6
Continuous
 62
     7
370
    13
100
AcDbEllipse
 10
183630.370802
 20
103688.858157
 30
0.0
 11
0.0
 21
150.0000000000116
 31
0.0
210
0.0
220
0.0
230
-1.0
 40
0.3333333333333075
 41
0.0
 42
3.141592653589793
  0
LINE
  5
B2F0
330
B3EC
100
AcDbEntity
  8
A822_別途：家具
  6
Continuous
 62
     7
370
     9
100
AcDbLine
 10
183630.370802
 20
103548.858157
 30
0.0
 11
183350.370802
 21
103548.858157
 31
0.0
  0
LINE
  5
B2F1
330
B3EC
100
AcDbEntity
  8
A822_別途：家具
  6
Continuous
 62
     7
370
     9
100
AcDbLine
 10
183630.370802
 20
103828.858157
 30
0.0
 11
183350.370802
 21
103828.858157
 31
0.0
  0
SPLINE
  5
B2F2
330
B3EC
100
AcDbEntity
  8
A822_別途：家具
  6
Continuous
 62
     7
370
     9
100
AcDbSpline
210
0.0
220
0.0
230
1.0
 70
     8
 71
     3
 72
    18
 73
    14
 74
     0
 42
0.0000000001
 43
0.0000000001
 40
0.0
 40
0.0
 40
0.0
 40
0.0
 40
0.125
 40
0.125
 40
0.25
 40
0.25
 40
0.5
 40
0.5
 40
0.75
 40
0.75
 40
0.875
 40
0.875
 40
1.0
 40
1.0
 40
1.0
 40
1.0
 10
183630.3708016156
 20
103828.8581570821
 30
0.0
 10
183633.210373377
 20
103828.8581570821
 30
0.0
 10
183637.0827940568
 20
103827.0801064837
 30
0.0
 10
183646.8551867665
 20
103814.6711096956
 30
0.0
 10
183651.9481600396
 20
103804.593743825
 30
0.0
 10
183664.8008051344
 20
103766.0358085405
 30
0.0
 10
183670.3708016156
 20
103729.3497015236
 30
0.0
 10
183670.3708016156
 20
103648.3666126407
 30
0.0
 10
183664.8008051344
 20
103611.6805056237
 30
0.0
 10
183651.9481600396
 20
103573.1225703393
 30
0.0
 10
183646.8551867665
 20
103563.0452044685
 30
0.0
 10
183637.0827940568
 20
103550.6362076806
 30
0.0
 10
183633.210373377
 20
103548.8581570821
 30
0.0
 10
183630.3708016156
 20
103548.8581570821
 30
0.0
  0
LINE
  5
B2F5
330
B3EC
100
AcDbEntity
  8
A822_別途：家具
  6
Continuous
 62
     7
370
     9
100
AcDbLine
 10
183630.370802
 20
103023.858157
 30
0.0
 11
183630.370802
 21
103303.858157
 31
0.0
  0
LINE
  5
B2F6
330
B3EC
100
AcDbEntity
  8
A822_別途：家具
  6
Continuous
 62
     7
370
    13
100
AcDbLine
 10
183630.370802
 20
103313.858157
 30
0.0
 11
183350.370802
 21
103313.858157
 31
0.0
  0
LINE
  5
B2F7
330
B3EC
100
AcDbEntity
  8
A822_別途：家具
  6
Continuous
 62
     7
370
    13
100
AcDbLine
 10
183630.370802
 20
103013.858157
 30
0.0
 11
183350.370802
 21
103013.858157
 31
0.0
  0
ELLIPSE
  5
B2F8
330
B3EC
100
AcDbEntity
  8
A822_別途：家具
  6
Continuous
 62
     7
370
    13
100
AcDbEllipse
 10
183630.370802
 20
103163.858157
 30
0.0
 11
0.0
 21
150.0000000000116
 31
0.0
210
0.0
220
0.0
230
-1.0
 40
0.3333333333333075
 41
0.0
 42
3.141592653589793
  0
LINE
  5
B2F9
330
B3EC
100
AcDbEntity
  8
A822_別途：家具
  6
Continuous
 62
     7
370
     9
100
AcDbLine
 10
183630.370802
 20
103023.858157
 30
0.0
 11
183350.370802
 21
103023.858157
 31
0.0
  0
LINE
  5
B2FA
330
B3EC
100
AcDbEntity
  8
A822_別途：家具
  6
Continuous
 62
     7
370
     9
100
AcDbLine
 10
183630.370802
 20
103303.858157
 30
0.0
 11
183350.370802
 21
103303.858157
 31
0.0
  0
SPLINE
  5
B2FB
330
B3EC
100
AcDbEntity
  8
A822_別途：家具
  6
Continuous
 62
     7
370
     9
100
AcDbSpline
210
0.0
220
0.0
230
1.0
 70
     8
 71
     3
 72
    18
 73
    14
 74
     0
 42
0.0000000001
 43
0.0000000001
 40
0.0
 40
0.0
 40
0.0
 40
0.0
 40
0.125
 40
0.125
 40
0.25
 40
0.25
 40
0.5
 40
0.5
 40
0.75
 40
0.75
 40
0.875
 40
0.875
 40
1.0
 40
1.0
 40
1.0
 40
1.0
 10
183630.3708016156
 20
103303.8581570821
 30
0.0
 10
183633.210373377
 20
103303.8581570821
 30
0.0
 10
183637.0827940568
 20
103302.0801064837
 30
0.0
 10
183646.8551867665
 20
103289.6711096956
 30
0.0
 10
183651.9481600396
 20
103279.593743825
 30
0.0
 10
183664.8008051344
 20
103241.0358085405
 30
0.0
 10
183670.3708016156
 20
103204.3497015236
 30
0.0
 10
183670.3708016156
 20
103123.3666126407
 30
0.0
 10
183664.8008051344
 20
103086.6805056237
 30
0.0
 10
183651.9481600396
 20
103048.1225703393
 30
0.0
 10
183646.8551867665
 20
103038.0452044686
 30
0.0
 10
183637.0827940568
 20
103025.6362076806
 30
0.0
 10
183633.210373377
 20
103023.8581570822
 30
0.0
 10
183630.3708016156
 20
103023.8581570821
 30
0.0
  0
LINE
  5
B2FE
330
B3EC
100
AcDbEntity
  8
A822_別途：家具
  6
Continuous
 62
     7
370
     9
100
AcDbLine
 10
183630.370802
 20
104073.858157
 30
0.0
 11
183630.370802
 21
104353.858157
 31
0.0
  0
LINE
  5
B2FF
330
B3EC
100
AcDbEntity
  8
A822_別途：家具
  6
Continuous
 62
     7
370
    13
100
AcDbLine
 10
183630.370802
 20
104363.858157
 30
0.0
 11
183350.370802
 21
104363.858157
 31
0.0
  0
LINE
  5
B300
330
B3EC
100
AcDbEntity
  8
A822_別途：家具
  6
Continuous
 62
     7
370
    13
100
AcDbLine
 10
183630.370802
 20
104063.858157
 30
0.0
 11
183350.370802
 21
104063.858157
 31
0.0
  0
ELLIPSE
  5
B301
330
B3EC
100
AcDbEntity
  8
A822_別途：家具
  6
Continuous
 62
     7
370
    13
100
AcDbEllipse
 10
183630.370802
 20
104213.858157
 30
0.0
 11
0.0
 21
150.0000000000116
 31
0.0
210
0.0
220
0.0
230
-1.0
 40
0.3333333333333075
 41
0.0
 42
3.141592653589793
  0
LINE
  5
B302
330
B3EC
100
AcDbEntity
  8
A822_別途：家具
  6
Continuous
 62
     7
370
     9
100
AcDbLine
 10
183630.370802
 20
104073.858157
 30
0.0
 11
183350.370802
 21
104073.858157
 31
0.0
  0
LINE
  5
B303
330
B3EC
100
AcDbEntity
  8
A822_別途：家具
  6
Continuous
 62
     7
370
     9
100
AcDbLine
 10
183630.370802
 20
104353.858157
 30
0.0
 11
183350.370802
 21
104353.858157
 31
0.0
  0
SPLINE
  5
B304
330
B3EC
100
AcDbEntity
  8
A822_別途：家具
  6
Continuous
 62
     7
370
     9
100
AcDbSpline
210
0.0
220
0.0
230
1.0
 70
     8
 71
     3
 72
    18
 73
    14
 74
     0
 42
0.0000000001
 43
0.0000000001
 40
0.0
 40
0.0
 40
0.0
 40
0.0
 40
0.125
 40
0.125
 40
0.25
 40
0.25
 40
0.5
 40
0.5
 40
0.75
 40
0.75
 40
0.875
 40
0.875
 40
1.0
 40
1.0
 40
1.0
 40
1.0
 10
183630.3708016156
 20
104353.8581570821
 30
0.0
 10
183633.210373377
 20
104353.8581570821
 30
0.0
 10
183637.0827940568
 20
104352.0801064837
 30
0.0
 10
183646.8551867665
 20
104339.6711096956
 30
0.0
 10
183651.9481600396
 20
104329.593743825
 30
0.0
 10
183664.8008051344
 20
104291.0358085405
 30
0.0
 10
183670.3708016156
 20
104254.3497015236
 30
0.0
 10
183670.3708016156
 20
104173.3666126408
 30
0.0
 10
183664.8008051344
 20
104136.6805056237
 30
0.0
 10
183651.9481600396
 20
104098.1225703393
 30
0.0
 10
183646.8551867665
 20
104088.0452044686
 30
0.0
 10
183637.0827940568
 20
104075.6362076806
 30
0.0
 10
183633.210373377
 20
104073.8581570822
 30
0.0
 10
183630.3708016156
 20
104073.8581570821
 30
0.0
  0
LINE
  5
B307
330
B3EC
100
AcDbEntity
  8
A822_別途：家具
  6
Continuous
 62
     7
370
     9
100
AcDbLine
 10
182170.370802
 20
103548.858157
 30
0.0
 11
182170.370802
 21
103828.858157
 31
0.0
  0
LINE
  5
B308
330
B3EC
100
AcDbEntity
  8
A822_別途：家具
  6
Continuous
 62
     7
370
    13
100
AcDbLine
 10
182170.370802
 20
103838.858157
 30
0.0
 11
182450.370802
 21
103838.858157
 31
0.0
  0
LINE
  5
B309
330
B3EC
100
AcDbEntity
  8
A822_別途：家具
  6
Continuous
 62
     7
370
    13
100
AcDbLine
 10
182170.370802
 20
103538.858157
 30
0.0
 11
182450.370802
 21
103538.858157
 31
0.0
  0
ELLIPSE
  5
B30A
330
B3EC
100
AcDbEntity
  8
A822_別途：家具
  6
Continuous
 62
     7
370
    13
100
AcDbEllipse
 10
182170.370802
 20
103688.858157
 30
0.0
 11
0.0
 21
150.0000000000116
 31
0.0
210
0.0
220
0.0
230
1.0
 40
0.3333333333333075
 41
0.0
 42
3.141592653589793
  0
LINE
  5
B30B
330
B3EC
100
AcDbEntity
  8
A822_別途：家具
  6
Continuous
 62
     7
370
     9
100
AcDbLine
 10
182170.370802
 20
103548.858157
 30
0.0
 11
182450.370802
 21
103548.858157
 31
0.0
  0
LINE
  5
B30C
330
B3EC
100
AcDbEntity
  8
A822_別途：家具
  6
Continuous
 62
     7
370
     9
100
AcDbLine
 10
182170.370802
 20
103828.858157
 30
0.0
 11
182450.370802
 21
103828.858157
 31
0.0
  0
SPLINE
  5
B30D
330
B3EC
100
AcDbEntity
  8
A822_別途：家具
  6
Continuous
 62
     7
370
     9
100
AcDbSpline
210
0.0
220
0.0
230
1.0
 70
     8
 71
     3
 72
    18
 73
    14
 74
     0
 42
0.0000000001
 43
0.0000000001
 40
0.0
 40
0.0
 40
0.0
 40
0.0
 40
0.125
 40
0.125
 40
0.25
 40
0.25
 40
0.5
 40
0.5
 40
0.75
 40
0.75
 40
0.875
 40
0.875
 40
1.0
 40
1.0
 40
1.0
 40
1.0
 10
182170.3708016156
 20
103828.8581570821
 30
0.0
 10
182167.5312298543
 20
103828.8581570821
 30
0.0
 10
182163.6588091744
 20
103827.0801064837
 30
0.0
 10
182153.8864164648
 20
103814.6711096956
 30
0.0
 10
182148.7934431917
 20
103804.593743825
 30
0.0
 10
182135.9407980969
 20
103766.0358085405
 30
0.0
 10
182130.3708016156
 20
103729.3497015236
 30
0.0
 10
182130.3708016156
 20
103648.3666126407
 30
0.0
 10
182135.9407980969
 20
103611.6805056237
 30
0.0
 10
182148.7934431917
 20
103573.1225703393
 30
0.0
 10
182153.8864164648
 20
103563.0452044685
 30
0.0
 10
182163.6588091744
 20
103550.6362076806
 30
0.0
 10
182167.5312298543
 20
103548.8581570821
 30
0.0
 10
182170.3708016156
 20
103548.8581570821
 30
0.0
  0
LINE
  5
B310
330
B3EC
100
AcDbEntity
  8
A822_別途：家具
  6
Continuous
 62
     7
370
     9
100
AcDbLine
 10
182170.370802
 20
103023.858157
 30
0.0
 11
182170.370802
 21
103303.858157
 31
0.0
  0
LINE
  5
B311
330
B3EC
100
AcDbEntity
  8
A822_別途：家具
  6
Continuous
 62
     7
370
    13
100
AcDbLine
 10
182170.370802
 20
103313.858157
 30
0.0
 11
182450.370802
 21
103313.858157
 31
0.0
  0
LINE
  5
B312
330
B3EC
100
AcDbEntity
  8
A822_別途：家具
  6
Continuous
 62
     7
370
    13
100
AcDbLine
 10
182170.370802
 20
103013.858157
 30
0.0
 11
182450.370802
 21
103013.858157
 31
0.0
  0
ELLIPSE
  5
B313
330
B3EC
100
AcDbEntity
  8
A822_別途：家具
  6
Continuous
 62
     7
370
    13
100
AcDbEllipse
 10
182170.370802
 20
103163.858157
 30
0.0
 11
0.0
 21
150.0000000000116
 31
0.0
210
0.0
220
0.0
230
1.0
 40
0.3333333333333075
 41
0.0
 42
3.141592653589793
  0
LINE
  5
B314
330
B3EC
100
AcDbEntity
  8
A822_別途：家具
  6
Continuous
 62
     7
370
     9
100
AcDbLine
 10
182170.370802
 20
103023.858157
 30
0.0
 11
182450.370802
 21
103023.858157
 31
0.0
  0
LINE
  5
B315
330
B3EC
100
AcDbEntity
  8
A822_別途：家具
  6
Continuous
 62
     7
370
     9
100
AcDbLine
 10
182170.370802
 20
103303.858157
 30
0.0
 11
182450.370802
 21
103303.858157
 31
0.0
  0
SPLINE
  5
B316
330
B3EC
100
AcDbEntity
  8
A822_別途：家具
  6
Continuous
 62
     7
370
     9
100
AcDbSpline
210
0.0
220
0.0
230
1.0
 70
     8
 71
     3
 72
    18
 73
    14
 74
     0
 42
0.0000000001
 43
0.0000000001
 40
0.0
 40
0.0
 40
0.0
 40
0.0
 40
0.125
 40
0.125
 40
0.25
 40
0.25
 40
0.5
 40
0.5
 40
0.75
 40
0.75
 40
0.875
 40
0.875
 40
1.0
 40
1.0
 40
1.0
 40
1.0
 10
182170.3708016156
 20
103303.8581570821
 30
0.0
 10
182167.5312298543
 20
103303.8581570821
 30
0.0
 10
182163.6588091744
 20
103302.0801064837
 30
0.0
 10
182153.8864164648
 20
103289.6711096956
 30
0.0
 10
182148.7934431917
 20
103279.593743825
 30
0.0
 10
182135.9407980969
 20
103241.0358085405
 30
0.0
 10
182130.3708016156
 20
103204.3497015236
 30
0.0
 10
182130.3708016156
 20
103123.3666126407
 30
0.0
 10
182135.9407980969
 20
103086.6805056237
 30
0.0
 10
182148.7934431917
 20
103048.1225703393
 30
0.0
 10
182153.8864164648
 20
103038.0452044686
 30
0.0
 10
182163.6588091744
 20
103025.6362076806
 30
0.0
 10
182167.5312298543
 20
103023.8581570822
 30
0.0
 10
182170.3708016156
 20
103023.8581570821
 30
0.0
  0
LINE
  5
B319
330
B3EC
100
AcDbEntity
  8
A822_別途：家具
  6
Continuous
 62
     7
370
     9
100
AcDbLine
 10
182170.370802
 20
104073.858157
 30
0.0
 11
182170.370802
 21
104353.858157
 31
0.0
  0
LINE
  5
B31A
330
B3EC
100
AcDbEntity
  8
A822_別途：家具
  6
Continuous
 62
     7
370
    13
100
AcDbLine
 10
182170.370802
 20
104363.858157
 30
0.0
 11
182450.370802
 21
104363.858157
 31
0.0
  0
LINE
  5
B31B
330
B3EC
100
AcDbEntity
  8
A822_別途：家具
  6
Continuous
 62
     7
370
    13
100
AcDbLine
 10
182170.370802
 20
104063.858157
 30
0.0
 11
182450.370802
 21
104063.858157
 31
0.0
  0
ELLIPSE
  5
B31C
330
B3EC
100
AcDbEntity
  8
A822_別途：家具
  6
Continuous
 62
     7
370
    13
100
AcDbEllipse
 10
182170.370802
 20
104213.858157
 30
0.0
 11
0.0
 21
150.0000000000116
 31
0.0
210
0.0
220
0.0
230
1.0
 40
0.3333333333333075
 41
0.0
 42
3.141592653589793
  0
LINE
  5
B31D
330
B3EC
100
AcDbEntity
  8
A822_別途：家具
  6
Continuous
 62
     7
370
     9
100
AcDbLine
 10
182170.370802
 20
104073.858157
 30
0.0
 11
182450.370802
 21
104073.858157
 31
0.0
  0
LINE
  5
B31E
330
B3EC
100
AcDbEntity
  8
A822_別途：家具
  6
Continuous
 62
     7
370
     9
100
AcDbLine
 10
182170.370802
 20
104353.858157
 30
0.0
 11
182450.370802
 21
104353.858157
 31
0.0
  0
SPLINE
  5
B31F
330
B3EC
100
AcDbEntity
  8
A822_別途：家具
  6
Continuous
 62
     7
370
     9
100
AcDbSpline
210
0.0
220
0.0
230
1.0
 70
     8
 71
     3
 72
    18
 73
    14
 74
     0
 42
0.0000000001
 43
0.0000000001
 40
0.0
 40
0.0
 40
0.0
 40
0.0
 40
0.125
 40
0.125
 40
0.25
 40
0.25
 40
0.5
 40
0.5
 40
0.75
 40
0.75
 40
0.875
 40
0.875
 40
1.0
 40
1.0
 40
1.0
 40
1.0
 10
182170.3708016156
 20
104353.8581570821
 30
0.0
 10
182167.5312298543
 20
104353.8581570821
 30
0.0
 10
182163.6588091744
 20
104352.0801064837
 30
0.0
 10
182153.8864164648
 20
104339.6711096956
 30
0.0
 10
182148.7934431917
 20
104329.593743825
 30
0.0
 10
182135.9407980969
 20
104291.0358085405
 30
0.0
 10
182130.3708016156
 20
104254.3497015236
 30
0.0
 10
182130.3708016156
 20
104173.3666126408
 30
0.0
 10
182135.9407980969
 20
104136.6805056237
 30
0.0
 10
182148.7934431917
 20
104098.1225703393
 30
0.0
 10
182153.8864164648
 20
104088.0452044686
 30
0.0
 10
182163.6588091744
 20
104075.6362076806
 30
0.0
 10
182167.5312298543
 20
104073.8581570822
 30
0.0
 10
182170.3708016156
 20
104073.8581570821
 30
0.0
  0
LINE
  5
B322
330
B3EC
100
AcDbEntity
  8
A822_別途：家具
  6
Continuous
 62
     7
370
     9
100
AcDbLine
 10
186330.370802
 20
103548.858157
 30
0.0
 11
186330.370802
 21
103828.858157
 31
0.0
  0
LINE
  5
B323
330
B3EC
100
AcDbEntity
  8
A822_別途：家具
  6
Continuous
 62
     7
370
    13
100
AcDbLine
 10
186330.370802
 20
103838.858157
 30
0.0
 11
186050.370802
 21
103838.858157
 31
0.0
  0
LINE
  5
B324
330
B3EC
100
AcDbEntity
  8
A822_別途：家具
  6
Continuous
 62
     7
370
    13
100
AcDbLine
 10
186330.370802
 20
103538.858157
 30
0.0
 11
186050.370802
 21
103538.858157
 31
0.0
  0
ELLIPSE
  5
B325
330
B3EC
100
AcDbEntity
  8
A822_別途：家具
  6
Continuous
 62
     7
370
    13
100
AcDbEllipse
 10
186330.370802
 20
103688.858157
 30
0.0
 11
0.0
 21
150.0000000000116
 31
0.0
210
0.0
220
0.0
230
-1.0
 40
0.3333333333333075
 41
0.0
 42
3.141592653589793
  0
LINE
  5
B326
330
B3EC
100
AcDbEntity
  8
A822_別途：家具
  6
Continuous
 62
     7
370
     9
100
AcDbLine
 10
186330.370802
 20
103548.858157
 30
0.0
 11
186050.370802
 21
103548.858157
 31
0.0
  0
LINE
  5
B327
330
B3EC
100
AcDbEntity
  8
A822_別途：家具
  6
Continuous
 62
     7
370
     9
100
AcDbLine
 10
186330.370802
 20
103828.858157
 30
0.0
 11
186050.370802
 21
103828.858157
 31
0.0
  0
SPLINE
  5
B328
330
B3EC
100
AcDbEntity
  8
A822_別途：家具
  6
Continuous
 62
     7
370
     9
100
AcDbSpline
210
0.0
220
0.0
230
1.0
 70
     8
 71
     3
 72
    18
 73
    14
 74
     0
 42
0.0000000001
 43
0.0000000001
 40
0.0
 40
0.0
 40
0.0
 40
0.0
 40
0.125
 40
0.125
 40
0.25
 40
0.25
 40
0.5
 40
0.5
 40
0.75
 40
0.75
 40
0.875
 40
0.875
 40
1.0
 40
1.0
 40
1.0
 40
1.0
 10
186330.3708016157
 20
103828.8581570821
 30
0.0
 10
186333.210373377
 20
103828.8581570821
 30
0.0
 10
186337.0827940569
 20
103827.0801064837
 30
0.0
 10
186346.8551867665
 20
103814.6711096956
 30
0.0
 10
186351.9481600396
 20
103804.593743825
 30
0.0
 10
186364.8008051344
 20
103766.0358085405
 30
0.0
 10
186370.3708016157
 20
103729.3497015236
 30
0.0
 10
186370.3708016157
 20
103648.3666126407
 30
0.0
 10
186364.8008051344
 20
103611.6805056237
 30
0.0
 10
186351.9481600396
 20
103573.1225703393
 30
0.0
 10
186346.8551867665
 20
103563.0452044685
 30
0.0
 10
186337.0827940569
 20
103550.6362076806
 30
0.0
 10
186333.210373377
 20
103548.8581570821
 30
0.0
 10
186330.3708016157
 20
103548.8581570821
 30
0.0
  0
LINE
  5
B32B
330
B3EC
100
AcDbEntity
  8
A822_別途：家具
  6
Continuous
 62
     7
370
     9
100
AcDbLine
 10
186330.370802
 20
103023.858157
 30
0.0
 11
186330.370802
 21
103303.858157
 31
0.0
  0
LINE
  5
B32C
330
B3EC
100
AcDbEntity
  8
A822_別途：家具
  6
Continuous
 62
     7
370
    13
100
AcDbLine
 10
186330.370802
 20
103313.858157
 30
0.0
 11
186050.370802
 21
103313.858157
 31
0.0
  0
LINE
  5
B32D
330
B3EC
100
AcDbEntity
  8
A822_別途：家具
  6
Continuous
 62
     7
370
    13
100
AcDbLine
 10
186330.370802
 20
103013.858157
 30
0.0
 11
186050.370802
 21
103013.858157
 31
0.0
  0
ELLIPSE
  5
B32E
330
B3EC
100
AcDbEntity
  8
A822_別途：家具
  6
Continuous
 62
     7
370
    13
100
AcDbEllipse
 10
186330.370802
 20
103163.858157
 30
0.0
 11
0.0
 21
150.0000000000116
 31
0.0
210
0.0
220
0.0
230
-1.0
 40
0.3333333333333075
 41
0.0
 42
3.141592653589793
  0
LINE
  5
B32F
330
B3EC
100
AcDbEntity
  8
A822_別途：家具
  6
Continuous
 62
     7
370
     9
100
AcDbLine
 10
186330.370802
 20
103023.858157
 30
0.0
 11
186050.370802
 21
103023.858157
 31
0.0
  0
LINE
  5
B330
330
B3EC
100
AcDbEntity
  8
A822_別途：家具
  6
Continuous
 62
     7
370
     9
100
AcDbLine
 10
186330.370802
 20
103303.858157
 30
0.0
 11
186050.370802
 21
103303.858157
 31
0.0
  0
SPLINE
  5
B331
330
B3EC
100
AcDbEntity
  8
A822_別途：家具
  6
Continuous
 62
     7
370
     9
100
AcDbSpline
210
0.0
220
0.0
230
1.0
 70
     8
 71
     3
 72
    18
 73
    14
 74
     0
 42
0.0000000001
 43
0.0000000001
 40
0.0
 40
0.0
 40
0.0
 40
0.0
 40
0.125
 40
0.125
 40
0.25
 40
0.25
 40
0.5
 40
0.5
 40
0.75
 40
0.75
 40
0.875
 40
0.875
 40
1.0
 40
1.0
 40
1.0
 40
1.0
 10
186330.3708016157
 20
103303.8581570821
 30
0.0
 10
186333.210373377
 20
103303.8581570821
 30
0.0
 10
186337.0827940569
 20
103302.0801064837
 30
0.0
 10
186346.8551867665
 20
103289.6711096956
 30
0.0
 10
186351.9481600396
 20
103279.593743825
 30
0.0
 10
186364.8008051344
 20
103241.0358085405
 30
0.0
 10
186370.3708016157
 20
103204.3497015236
 30
0.0
 10
186370.3708016157
 20
103123.3666126407
 30
0.0
 10
186364.8008051344
 20
103086.6805056237
 30
0.0
 10
186351.9481600396
 20
103048.1225703393
 30
0.0
 10
186346.8551867665
 20
103038.0452044686
 30
0.0
 10
186337.0827940569
 20
103025.6362076806
 30
0.0
 10
186333.210373377
 20
103023.8581570822
 30
0.0
 10
186330.3708016157
 20
103023.8581570821
 30
0.0
  0
LINE
  5
B334
330
B3EC
100
AcDbEntity
  8
A822_別途：家具
  6
Continuous
 62
     7
370
     9
100
AcDbLine
 10
186330.370802
 20
104073.858157
 30
0.0
 11
186330.370802
 21
104353.858157
 31
0.0
  0
LINE
  5
B335
330
B3EC
100
AcDbEntity
  8
A822_別途：家具
  6
Continuous
 62
     7
370
    13
100
AcDbLine
 10
186330.370802
 20
104363.858157
 30
0.0
 11
186050.370802
 21
104363.858157
 31
0.0
  0
LINE
  5
B336
330
B3EC
100
AcDbEntity
  8
A822_別途：家具
  6
Continuous
 62
     7
370
    13
100
AcDbLine
 10
186330.370802
 20
104063.858157
 30
0.0
 11
186050.370802
 21
104063.858157
 31
0.0
  0
ELLIPSE
  5
B337
330
B3EC
100
AcDbEntity
  8
A822_別途：家具
  6
Continuous
 62
     7
370
    13
100
AcDbEllipse
 10
186330.370802
 20
104213.858157
 30
0.0
 11
0.0
 21
150.0000000000116
 31
0.0
210
0.0
220
0.0
230
-1.0
 40
0.3333333333333075
 41
0.0
 42
3.141592653589793
  0
LINE
  5
B338
330
B3EC
100
AcDbEntity
  8
A822_別途：家具
  6
Continuous
 62
     7
370
     9
100
AcDbLine
 10
186330.370802
 20
104073.858157
 30
0.0
 11
186050.370802
 21
104073.858157
 31
0.0
  0
LINE
  5
B339
330
B3EC
100
AcDbEntity
  8
A822_別途：家具
  6
Continuous
 62
     7
370
     9
100
AcDbLine
 10
186330.370802
 20
104353.858157
 30
0.0
 11
186050.370802
 21
104353.858157
 31
0.0
  0
SPLINE
  5
B33A
330
B3EC
100
AcDbEntity
  8
A822_別途：家具
  6
Continuous
 62
     7
370
     9
100
AcDbSpline
210
0.0
220
0.0
230
1.0
 70
     8
 71
     3
 72
    18
 73
    14
 74
     0
 42
0.0000000001
 43
0.0000000001
 40
0.0
 40
0.0
 40
0.0
 40
0.0
 40
0.125
 40
0.125
 40
0.25
 40
0.25
 40
0.5
 40
0.5
 40
0.75
 40
0.75
 40
0.875
 40
0.875
 40
1.0
 40
1.0
 40
1.0
 40
1.0
 10
186330.3708016157
 20
104353.8581570821
 30
0.0
 10
186333.210373377
 20
104353.8581570821
 30
0.0
 10
186337.0827940569
 20
104352.0801064837
 30
0.0
 10
186346.8551867665
 20
104339.6711096956
 30
0.0
 10
186351.9481600396
 20
104329.593743825
 30
0.0
 10
186364.8008051344
 20
104291.0358085405
 30
0.0
 10
186370.3708016157
 20
104254.3497015236
 30
0.0
 10
186370.3708016157
 20
104173.3666126408
 30
0.0
 10
186364.8008051344
 20
104136.6805056237
 30
0.0
 10
186351.9481600396
 20
104098.1225703393
 30
0.0
 10
186346.8551867665
 20
104088.0452044686
 30
0.0
 10
186337.0827940569
 20
104075.6362076806
 30
0.0
 10
186333.210373377
 20
104073.8581570822
 30
0.0
 10
186330.3708016157
 20
104073.8581570821
 30
0.0
  0
LINE
  5
B33D
330
B3EC
100
AcDbEntity
  8
A822_別途：家具
  6
Continuous
 62
     7
370
     9
100
AcDbLine
 10
184870.370802
 20
103548.858157
 30
0.0
 11
184870.370802
 21
103828.858157
 31
0.0
  0
LINE
  5
B33E
330
B3EC
100
AcDbEntity
  8
A822_別途：家具
  6
Continuous
 62
     7
370
    13
100
AcDbLine
 10
184870.370802
 20
103838.858157
 30
0.0
 11
185150.370802
 21
103838.858157
 31
0.0
  0
LINE
  5
B33F
330
B3EC
100
AcDbEntity
  8
A822_別途：家具
  6
Continuous
 62
     7
370
    13
100
AcDbLine
 10
184870.370802
 20
103538.858157
 30
0.0
 11
185150.370802
 21
103538.858157
 31
0.0
  0
ELLIPSE
  5
B340
330
B3EC
100
AcDbEntity
  8
A822_別途：家具
  6
Continuous
 62
     7
370
    13
100
AcDbEllipse
 10
184870.370802
 20
103688.858157
 30
0.0
 11
0.0
 21
150.0000000000116
 31
0.0
210
0.0
220
0.0
230
1.0
 40
0.3333333333333075
 41
0.0
 42
3.141592653589793
  0
LINE
  5
B341
330
B3EC
100
AcDbEntity
  8
A822_別途：家具
  6
Continuous
 62
     7
370
     9
100
AcDbLine
 10
184870.370802
 20
103548.858157
 30
0.0
 11
185150.370802
 21
103548.858157
 31
0.0
  0
LINE
  5
B342
330
B3EC
100
AcDbEntity
  8
A822_別途：家具
  6
Continuous
 62
     7
370
     9
100
AcDbLine
 10
184870.370802
 20
103828.858157
 30
0.0
 11
185150.370802
 21
103828.858157
 31
0.0
  0
SPLINE
  5
B343
330
B3EC
100
AcDbEntity
  8
A822_別途：家具
  6
Continuous
 62
     7
370
     9
100
AcDbSpline
210
0.0
220
0.0
230
1.0
 70
     8
 71
     3
 72
    18
 73
    14
 74
     0
 42
0.0000000001
 43
0.0000000001
 40
0.0
 40
0.0
 40
0.0
 40
0.0
 40
0.125
 40
0.125
 40
0.25
 40
0.25
 40
0.5
 40
0.5
 40
0.75
 40
0.75
 40
0.875
 40
0.875
 40
1.0
 40
1.0
 40
1.0
 40
1.0
 10
184870.3708016157
 20
103828.8581570821
 30
0.0
 10
184867.5312298543
 20
103828.8581570821
 30
0.0
 10
184863.6588091745
 20
103827.0801064837
 30
0.0
 10
184853.8864164648
 20
103814.6711096956
 30
0.0
 10
184848.7934431918
 20
103804.593743825
 30
0.0
 10
184835.9407980969
 20
103766.0358085405
 30
0.0
 10
184830.3708016157
 20
103729.3497015236
 30
0.0
 10
184830.3708016157
 20
103648.3666126407
 30
0.0
 10
184835.9407980969
 20
103611.6805056237
 30
0.0
 10
184848.7934431918
 20
103573.1225703393
 30
0.0
 10
184853.8864164648
 20
103563.0452044685
 30
0.0
 10
184863.6588091745
 20
103550.6362076806
 30
0.0
 10
184867.5312298543
 20
103548.8581570821
 30
0.0
 10
184870.3708016157
 20
103548.8581570821
 30
0.0
  0
LINE
  5
B346
330
B3EC
100
AcDbEntity
  8
A822_別途：家具
  6
Continuous
 62
     7
370
     9
100
AcDbLine
 10
184870.370802
 20
103023.858157
 30
0.0
 11
184870.370802
 21
103303.858157
 31
0.0
  0
LINE
  5
B347
330
B3EC
100
AcDbEntity
  8
A822_別途：家具
  6
Continuous
 62
     7
370
    13
100
AcDbLine
 10
184870.370802
 20
103313.858157
 30
0.0
 11
185150.370802
 21
103313.858157
 31
0.0
  0
LINE
  5
B348
330
B3EC
100
AcDbEntity
  8
A822_別途：家具
  6
Continuous
 62
     7
370
    13
100
AcDbLine
 10
184870.370802
 20
103013.858157
 30
0.0
 11
185150.370802
 21
103013.858157
 31
0.0
  0
ELLIPSE
  5
B349
330
B3EC
100
AcDbEntity
  8
A822_別途：家具
  6
Continuous
 62
     7
370
    13
100
AcDbEllipse
 10
184870.370802
 20
103163.858157
 30
0.0
 11
0.0
 21
150.0000000000116
 31
0.0
210
0.0
220
0.0
230
1.0
 40
0.3333333333333075
 41
0.0
 42
3.141592653589793
  0
LINE
  5
B34A
330
B3EC
100
AcDbEntity
  8
A822_別途：家具
  6
Continuous
 62
     7
370
     9
100
AcDbLine
 10
184870.370802
 20
103023.858157
 30
0.0
 11
185150.370802
 21
103023.858157
 31
0.0
  0
LINE
  5
B34B
330
B3EC
100
AcDbEntity
  8
A822_別途：家具
  6
Continuous
 62
     7
370
     9
100
AcDbLine
 10
184870.370802
 20
103303.858157
 30
0.0
 11
185150.370802
 21
103303.858157
 31
0.0
  0
SPLINE
  5
B34C
330
B3EC
100
AcDbEntity
  8
A822_別途：家具
  6
Continuous
 62
     7
370
     9
100
AcDbSpline
210
0.0
220
0.0
230
1.0
 70
     8
 71
     3
 72
    18
 73
    14
 74
     0
 42
0.0000000001
 43
0.0000000001
 40
0.0
 40
0.0
 40
0.0
 40
0.0
 40
0.125
 40
0.125
 40
0.25
 40
0.25
 40
0.5
 40
0.5
 40
0.75
 40
0.75
 40
0.875
 40
0.875
 40
1.0
 40
1.0
 40
1.0
 40
1.0
 10
184870.3708016157
 20
103303.8581570821
 30
0.0
 10
184867.5312298543
 20
103303.8581570821
 30
0.0
 10
184863.6588091745
 20
103302.0801064837
 30
0.0
 10
184853.8864164648
 20
103289.6711096956
 30
0.0
 10
184848.7934431918
 20
103279.593743825
 30
0.0
 10
184835.9407980969
 20
103241.0358085405
 30
0.0
 10
184830.3708016157
 20
103204.3497015236
 30
0.0
 10
184830.3708016157
 20
103123.3666126407
 30
0.0
 10
184835.9407980969
 20
103086.6805056237
 30
0.0
 10
184848.7934431918
 20
103048.1225703393
 30
0.0
 10
184853.8864164648
 20
103038.0452044686
 30
0.0
 10
184863.6588091745
 20
103025.6362076806
 30
0.0
 10
184867.5312298543
 20
103023.8581570822
 30
0.0
 10
184870.3708016157
 20
103023.8581570821
 30
0.0
  0
LINE
  5
B34F
330
B3EC
100
AcDbEntity
  8
A822_別途：家具
  6
Continuous
 62
     7
370
     9
100
AcDbLine
 10
184870.370802
 20
104073.858157
 30
0.0
 11
184870.370802
 21
104353.858157
 31
0.0
  0
LINE
  5
B350
330
B3EC
100
AcDbEntity
  8
A822_別途：家具
  6
Continuous
 62
     7
370
    13
100
AcDbLine
 10
184870.370802
 20
104363.858157
 30
0.0
 11
185150.370802
 21
104363.858157
 31
0.0
  0
LINE
  5
B351
330
B3EC
100
AcDbEntity
  8
A822_別途：家具
  6
Continuous
 62
     7
370
    13
100
AcDbLine
 10
184870.370802
 20
104063.858157
 30
0.0
 11
185150.370802
 21
104063.858157
 31
0.0
  0
ELLIPSE
  5
B352
330
B3EC
100
AcDbEntity
  8
A822_別途：家具
  6
Continuous
 62
     7
370
    13
100
AcDbEllipse
 10
184870.370802
 20
104213.858157
 30
0.0
 11
0.0
 21
150.0000000000116
 31
0.0
210
0.0
220
0.0
230
1.0
 40
0.3333333333333075
 41
0.0
 42
3.141592653589793
  0
LINE
  5
B353
330
B3EC
100
AcDbEntity
  8
A822_別途：家具
  6
Continuous
 62
     7
370
     9
100
AcDbLine
 10
184870.370802
 20
104073.858157
 30
0.0
 11
185150.370802
 21
104073.858157
 31
0.0
  0
LINE
  5
B354
330
B3EC
100
AcDbEntity
  8
A822_別途：家具
  6
Continuous
 62
     7
370
     9
100
AcDbLine
 10
184870.370802
 20
104353.858157
 30
0.0
 11
185150.370802
 21
104353.858157
 31
0.0
  0
SPLINE
  5
B355
330
B3EC
100
AcDbEntity
  8
A822_別途：家具
  6
Continuous
 62
     7
370
     9
100
AcDbSpline
210
0.0
220
0.0
230
1.0
 70
     8
 71
     3
 72
    18
 73
    14
 74
     0
 42
0.0000000001
 43
0.0000000001
 40
0.0
 40
0.0
 40
0.0
 40
0.0
 40
0.125
 40
0.125
 40
0.25
 40
0.25
 40
0.5
 40
0.5
 40
0.75
 40
0.75
 40
0.875
 40
0.875
 40
1.0
 40
1.0
 40
1.0
 40
1.0
 10
184870.3708016157
 20
104353.8581570821
 30
0.0
 10
184867.5312298543
 20
104353.8581570821
 30
0.0
 10
184863.6588091745
 20
104352.0801064837
 30
0.0
 10
184853.8864164648
 20
104339.6711096956
 30
0.0
 10
184848.7934431918
 20
104329.593743825
 30
0.0
 10
184835.9407980969
 20
104291.0358085405
 30
0.0
 10
184830.3708016157
 20
104254.3497015236
 30
0.0
 10
184830.3708016157
 20
104173.3666126408
 30
0.0
 10
184835.9407980969
 20
104136.6805056237
 30
0.0
 10
184848.7934431918
 20
104098.1225703393
 30
0.0
 10
184853.8864164648
 20
104088.0452044686
 30
0.0
 10
184863.6588091745
 20
104075.6362076806
 30
0.0
 10
184867.5312298543
 20
104073.8581570822
 30
0.0
 10
184870.3708016157
 20
104073.8581570821
 30
0.0
  0
ENDSEC
  0
SECTION
  2
OBJECTS
  0
DICTIONARY
  5
B3F1
330
0
100
AcDbDictionary
281
     1
  3
ACAD_COLOR
350
B42D
  3
ACAD_GROUP
350
B41A
  3
ACAD_LAYOUT
350
B3FE
  3
ACAD_MATERIAL
350
B3F3
  3
ACAD_MLEADERSTYLE
350
B430
  3
ACAD_MLINESTYLE
350
B41B
  3
ACAD_PLOTSETTINGS
350
B41C
  3
ACAD_PLOTSTYLENAME
350
B3F0
  3
ACAD_SCALELIST
350
B42E
  3
ACAD_TABLESTYLE
350
B42F
  3
ACAD_VISUALSTYLE
350
B414
  3
ACDB_RECOMPOSE_DATA
350
B459
  3
AcDbVariableDictionary
350
B452
  3
MicroStation
350
B448
  0
DICTIONARY
  5
B407
330
B406
100
AcDbDictionary
280
     1
281
     1
  3
ACAD_LAYERSTATES
360
B408
  0
DICTIONARY
  5
B42D
102
{ACAD_REACTORS
330
B3F1
102
}
330
B3F1
100
AcDbDictionary
281
     1
  0
DICTIONARY
  5
B41A
102
{ACAD_REACTORS
330
B3F1
102
}
330
B3F1
100
AcDbDictionary
281
     1
  0
DICTIONARY
  5
B3FE
102
{ACAD_REACTORS
330
B3F1
102
}
330
B3F1
100
AcDbDictionary
281
     1
  3
Layout1
350
B403
  3
Model
350
B3FD
  0
DICTIONARY
  5
B3F3
102
{ACAD_REACTORS
330
B3F1
102
}
330
B3F1
100
AcDbDictionary
281
     1
  3
ByBlock
350
B425
  3
ByLayer
350
B41D
  3
Global
350
B3F2
  0
DICTIONARY
  5
B430
102
{ACAD_REACTORS
330
B3F1
102
}
330
B3F1
100
AcDbDictionary
281
     1
  0
DICTIONARY
  5
B41B
102
{ACAD_REACTORS
330
B3F1
102
}
330
B3F1
100
AcDbDictionary
281
     1
  3
Standard
350
B431
  0
DICTIONARY
  5
B41C
102
{ACAD_REACTORS
330
B3F1
102
}
330
B3F1
100
AcDbDictionary
281
     1
  0
ACDBDICTIONARYWDFLT
  5
B3F0
102
{ACAD_REACTORS
330
B3F1
102
}
330
B3F1
100
AcDbDictionary
281
     1
  3
Normal
350
B3EF
100
AcDbDictionaryWithDefault
340
B3EF
  0
DICTIONARY
  5
B42E
102
{ACAD_REACTORS
330
B3F1
102
}
330
B3F1
100
AcDbDictionary
281
     1
  3
A0
350
B435
  3
A1
350
B436
  3
A2
350
B437
  3
A3
350
B438
  3
A4
350
B439
  3
A5
350
B43A
  3
A6
350
B43B
  3
A7
350
B43C
  3
A8
350
B43D
  3
A9
350
B43E
  3
B0
350
B43F
  3
B1
350
B440
  3
B2
350
B441
  3
B3
350
B442
  3
B4
350
B443
  3
B5
350
B444
  3
B6
350
B445
  0
DICTIONARY
  5
B42F
102
{ACAD_REACTORS
330
B3F1
102
}
330
B3F1
100
AcDbDictionary
281
     1
  3
Standard
350
B432
  0
DICTIONARY
  5
B414
102
{ACAD_REACTORS
330
B3F1
102
}
330
B3F1
100
AcDbDictionary
281
     1
  3
2dWireframe
350
B413
  3
3dWireframe
350
B434
  3
Realistic
350
B433
  0
XRECORD
  5
B459
102
{ACAD_REACTORS
330
B3F1
102
}
330
B3F1
100
AcDbXrecord
280
     1
 90
        1
330
B432
  0
DICTIONARY
  5
B452
102
{ACAD_REACTORS
330
B3F1
102
}
330
B3F1
100
AcDbDictionary
281
     1
  3
CANNOSCALE
350
B455
  3
CMLEADERSTYLE
350
B454
  3
CTABLESTYLE
350
B453
  0
DICTIONARY
  5
B448
102
{ACAD_REACTORS
330
B3F1
102
}
330
B3F1
100
AcDbDictionary
281
     1
  3
Header
350
5B
  0
DICTIONARY
  5
B408
102
{ACAD_REACTORS
330
B407
102
}
330
B407
100
AcDbDictionary
281
     1
  0
LAYOUT
  5
B403
102
{ACAD_XDICTIONARY
360
B404
102
}
102
{ACAD_REACTORS
330
B3FE
102
}
330
B3FE
100
AcDbPlotSettings
  1

  2
none_device
  4
ISO_A4_(210.00_x_297.00_MM)
  6

 40
7.5
 41
20.0
 42
7.5
 43
20.0
 44
210.0
 45
297.0
 46
0.0
 47
0.0
 48
0.0
 49
0.0
140
0.0
141
0.0
142
1.0
143
1.0
 70
   688
 72
     1
 73
     1
 74
     5
  7

 75
    16
147
1.0
 76
     0
 77
     2
 78
   300
148
0.0
149
0.0
100
AcDbLayout
  1
Layout1
 70
     1
 71
     1
 10
-20.0
 20
-7.5
 11
277.0
 21
202.5
 12
0.0
 22
0.0
 32
0.0
 14
25.7
 24
19.5
 34
0.0
 15
231.3
 25
175.5
 35
0.0
146
0.0
 13
0.0
 23
0.0
 33
0.0
 16
1.0
 26
0.0
 36
0.0
 17
0.0
 27
1.0
 37
0.0
 76
     0
330
B400
1001
ACAD_PSEXT
1000
None
1000
None
1000
Not applicable
1000
The layout will not be plotted unless a new plotter configuration name is selected.
1070
     0
  0
LAYOUT
  5
B3FD
102
{ACAD_REACTORS
330
B3FE
102
}
330
B3FE
100
AcDbPlotSettings
  1

  2
none_device
  4
ISO_A4_(210.00_x_297.00_MM)
  6

 40
7.5
 41
20.0
 42
7.5
 43
20.0
 44
210.0
 45
297.0
 46
11.549999
 47
-13.65
 48
0.0
 49
0.0
140
0.0
141
0.0
142
1.0
143
8.704085
 70
 11952
 72
     1
 73
     0
 74
     0
  7

 75
     0
147
0.114889
 76
     0
 77
     2
 78
   300
148
0.0
149
0.0
100
AcDbLayout
  1
Model
 70
     1
 71
     0
 10
0.0
 20
0.0
 11
12.0
 21
9.0
 12
0.0
 22
0.0
 32
0.0
 14
0.0
 24
0.0
 34
0.0
 15
0.0
 25
0.0
 35
0.0
146
0.0
 13
0.0
 23
0.0
 33
0.0
 16
1.0
 26
0.0
 36
0.0
 17
0.0
 27
1.0
 37
0.0
 76
     0
330
B3EC
1001
ACAD_PSEXT
1000
None
1000
None
1000
Not applicable
1000
The layout will not be plotted unless a new plotter configuration name is selected.
1070
     0
  0
MATERIAL
  5
B425
102
{ACAD_XDICTIONARY
360
B426
102
}
102
{ACAD_REACTORS
330
B3F3
102
}
330
B3F3
100
AcDbMaterial
  1
ByBlock
 72
     0
 43
0.00082
 43
0.0
 43
0.0
 43
0.0
 43
0.0
 43
0.00082
 43
0.0
 43
0.0
 43
0.0
 43
0.0
 43
1.0
 43
0.0
 43
0.0
 43
0.0
 43
0.0
 43
1.0
 77
     0
 47
0.00082
 47
0.0
 47
0.0
 47
0.0
 47
0.0
 47
0.00082
 47
0.0
 47
0.0
 47
0.0
 47
0.0
 47
1.0
 47
0.0
 47
0.0
 47
0.0
 47
0.0
 47
1.0
171
     0
 49
0.00082
 49
0.0
 49
0.0
 49
0.0
 49
0.0
 49
0.00082
 49
0.0
 49
0.0
 49
0.0
 49
0.0
 49
1.0
 49
0.0
 49
0.0
 49
0.0
 49
0.0
 49
1.0
175
     0
142
0.00082
142
0.0
142
0.0
142
0.0
142
0.0
142
0.00082
142
0.0
142
0.0
142
0.0
142
0.0
142
1.0
142
0.0
142
0.0
142
0.0
142
0.0
142
1.0
179
     0
144
0.00082
144
0.0
144
0.0
144
0.0
144
0.0
144
0.00082
144
0.0
144
0.0
144
0.0
144
0.0
144
1.0
144
0.0
144
0.0
144
0.0
144
0.0
144
1.0
147
0.00082
147
0.0
147
0.0
147
0.0
147
0.0
147
0.00082
147
0.0
147
0.0
147
0.0
147
0.0
147
1.0
147
0.0
147
0.0
147
0.0
147
0.0
147
1.0
  0
MATERIAL
  5
B41D
102
{ACAD_XDICTIONARY
360
B41E
102
}
102
{ACAD_REACTORS
330
B3F3
102
}
330
B3F3
100
AcDbMaterial
  1
ByLayer
 72
     0
 43
0.00082
 43
0.0
 43
0.0
 43
0.0
 43
0.0
 43
0.00082
 43
0.0
 43
0.0
 43
0.0
 43
0.0
 43
1.0
 43
0.0
 43
0.0
 43
0.0
 43
0.0
 43
1.0
 77
     0
 47
0.00082
 47
0.0
 47
0.0
 47
0.0
 47
0.0
 47
0.00082
 47
0.0
 47
0.0
 47
0.0
 47
0.0
 47
1.0
 47
0.0
 47
0.0
 47
0.0
 47
0.0
 47
1.0
171
     0
 49
0.00082
 49
0.0
 49
0.0
 49
0.0
 49
0.0
 49
0.00082
 49
0.0
 49
0.0
 49
0.0
 49
0.0
 49
1.0
 49
0.0
 49
0.0
 49
0.0
 49
0.0
 49
1.0
175
     0
142
0.00082
142
0.0
142
0.0
142
0.0
142
0.0
142
0.00082
142
0.0
142
0.0
142
0.0
142
0.0
142
1.0
142
0.0
142
0.0
142
0.0
142
0.0
142
1.0
179
     0
144
0.00082
144
0.0
144
0.0
144
0.0
144
0.0
144
0.00082
144
0.0
144
0.0
144
0.0
144
0.0
144
1.0
144
0.0
144
0.0
144
0.0
144
0.0
144
1.0
147
0.00082
147
0.0
147
0.0
147
0.0
147
0.0
147
0.00082
147
0.0
147
0.0
147
0.0
147
0.0
147
1.0
147
0.0
147
0.0
147
0.0
147
0.0
147
1.0
  0
MATERIAL
  5
B3F2
102
{ACAD_XDICTIONARY
360
B3F4
102
}
102
{ACAD_REACTORS
330
B3F3
102
}
330
B3F3
100
AcDbMaterial
  1
Global
 72
     0
 43
0.00082
 43
0.0
 43
0.0
 43
0.0
 43
0.0
 43
0.00082
 43
0.0
 43
0.0
 43
0.0
 43
0.0
 43
1.0
 43
0.0
 43
0.0
 43
0.0
 43
0.0
 43
1.0
 77
     0
 47
0.00082
 47
0.0
 47
0.0
 47
0.0
 47
0.0
 47
0.00082
 47
0.0
 47
0.0
 47
0.0
 47
0.0
 47
1.0
 47
0.0
 47
0.0
 47
0.0
 47
0.0
 47
1.0
171
     0
 49
0.00082
 49
0.0
 49
0.0
 49
0.0
 49
0.0
 49
0.00082
 49
0.0
 49
0.0
 49
0.0
 49
0.0
 49
1.0
 49
0.0
 49
0.0
 49
0.0
 49
0.0
 49
1.0
175
     0
142
0.00082
142
0.0
142
0.0
142
0.0
142
0.0
142
0.00082
142
0.0
142
0.0
142
0.0
142
0.0
142
1.0
142
0.0
142
0.0
142
0.0
142
0.0
142
1.0
179
     0
144
0.00082
144
0.0
144
0.0
144
0.0
144
0.0
144
0.00082
144
0.0
144
0.0
144
0.0
144
0.0
144
1.0
144
0.0
144
0.0
144
0.0
144
0.0
144
1.0
147
0.00082
147
0.0
147
0.0
147
0.0
147
0.0
147
0.00082
147
0.0
147
0.0
147
0.0
147
0.0
147
1.0
147
0.0
147
0.0
147
0.0
147
0.0
147
1.0
  0
MLINESTYLE
  5
B431
102
{ACAD_REACTORS
330
B41B
102
}
330
B41B
100
AcDbMlineStyle
  2
STANDARD
 70
     0
  3

 62
   256
 51
90.0
 52
90.0
 71
     2
 49
0.5
 62
   256
  6
BYLAYER
 49
-0.5
 62
   256
  6
BYLAYER
  0
ACDBPLACEHOLDER
  5
B3EF
102
{ACAD_REACTORS
330
B3F0
102
}
330
B3F0
  0
SCALE
  5
B435
102
{ACAD_REACTORS
330
B42E
102
}
330
B42E
100
AcDbScale
 70
     0
300
1:1
140
1.0
141
1.0
290
     1
  0
SCALE
  5
B436
102
{ACAD_REACTORS
330
B42E
102
}
330
B42E
100
AcDbScale
 70
     0
300
1:2
140
1.0
141
2.0
290
     0
  0
SCALE
  5
B437
102
{ACAD_REACTORS
330
B42E
102
}
330
B42E
100
AcDbScale
 70
     0
300
1:4
140
1.0
141
4.0
290
     0
  0
SCALE
  5
B438
102
{ACAD_REACTORS
330
B42E
102
}
330
B42E
100
AcDbScale
 70
     0
300
1:5
140
1.0
141
5.0
290
     0
  0
SCALE
  5
B439
102
{ACAD_REACTORS
330
B42E
102
}
330
B42E
100
AcDbScale
 70
     0
300
1:8
140
1.0
141
8.0
290
     0
  0
SCALE
  5
B43A
102
{ACAD_REACTORS
330
B42E
102
}
330
B42E
100
AcDbScale
 70
     0
300
1:10
140
1.0
141
10.0
290
     0
  0
SCALE
  5
B43B
102
{ACAD_REACTORS
330
B42E
102
}
330
B42E
100
AcDbScale
 70
     0
300
1:16
140
1.0
141
16.0
290
     0
  0
SCALE
  5
B43C
102
{ACAD_REACTORS
330
B42E
102
}
330
B42E
100
AcDbScale
 70
     0
300
1:20
140
1.0
141
20.0
290
     0
  0
SCALE
  5
B43D
102
{ACAD_REACTORS
330
B42E
102
}
330
B42E
100
AcDbScale
 70
     0
300
1:30
140
1.0
141
30.0
290
     0
  0
SCALE
  5
B43E
102
{ACAD_REACTORS
330
B42E
102
}
330
B42E
100
AcDbScale
 70
     0
300
1:40
140
1.0
141
40.0
290
     0
  0
SCALE
  5
B43F
102
{ACAD_REACTORS
330
B42E
102
}
330
B42E
100
AcDbScale
 70
     0
300
1:50
140
1.0
141
50.0
290
     0
  0
SCALE
  5
B440
102
{ACAD_REACTORS
330
B42E
102
}
330
B42E
100
AcDbScale
 70
     0
300
1:100
140
1.0
141
100.0
290
     0
  0
SCALE
  5
B441
102
{ACAD_REACTORS
330
B42E
102
}
330
B42E
100
AcDbScale
 70
     0
300
2:1
140
2.0
141
1.0
290
     0
  0
SCALE
  5
B442
102
{ACAD_REACTORS
330
B42E
102
}
330
B42E
100
AcDbScale
 70
     0
300
4:1
140
4.0
141
1.0
290
     0
  0
SCALE
  5
B443
102
{ACAD_REACTORS
330
B42E
102
}
330
B42E
100
AcDbScale
 70
     0
300
8:1
140
8.0
141
1.0
290
     0
  0
SCALE
  5
B444
102
{ACAD_REACTORS
330
B42E
102
}
330
B42E
100
AcDbScale
 70
     0
300
10:1
140
10.0
141
1.0
290
     0
  0
SCALE
  5
B445
102
{ACAD_REACTORS
330
B42E
102
}
330
B42E
100
AcDbScale
 70
     0
300
100:1
140
100.0
141
1.0
290
     0
  0
TABLESTYLE
  5
B432
102
{ACAD_XDICTIONARY
360
B457
102
}
102
{ACAD_REACTORS
330
B42F
102
}
330
B42F
100
AcDbTableStyle
  3
Standard
 70
     0
 71
     0
 40
1.5
 41
1.5
280
     0
281
     0
  7
Standard
140
4.5
170
     2
 62
     0
 63
     7
283
     0
274
    -2
284
     1
 64
     0
275
    -2
285
     1
 65
     0
276
    -2
286
     1
 66
     0
277
    -2
287
     1
 67
     0
278
    -2
288
     1
 68
     0
279
    -2
289
     1
 69
     0
  7
Standard
140
6.0
170
     5
 62
     0
 63
     7
283
     0
274
    -2
284
     1
 64
     0
275
    -2
285
     1
 65
     0
276
    -2
286
     1
 66
     0
277
    -2
287
     1
 67
     0
278
    -2
288
     1
 68
     0
279
    -2
289
     1
 69
     0
  7
Standard
140
4.5
170
     5
 62
     0
 63
     7
283
     0
274
    -2
284
     1
 64
     0
275
    -2
285
     1
 65
     0
276
    -2
286
     1
 66
     0
277
    -2
287
     1
 67
     0
278
    -2
288
     1
 68
     0
279
    -2
289
     1
 69
     0
  0
VISUALSTYLE
  5
B413
102
{ACAD_XDICTIONARY
360
B45B
102
}
102
{ACAD_REACTORS
330
B414
102
}
330
B414
100
AcDbVisualStyle
  2
2dWireframe
 70
     4
 71
     0
 72
     2
 73
     0
 90
        0
 40
-0.6
 41
-30.0
 62
     5
 63
     7
421
 16777215
 74
     1
 91
        4
 64
     7
 65
   257
 75
     1
175
     1
 42
1.0
 92
        0
 66
   257
 43
1.0
 76
     1
 77
     6
 78
     2
 67
     7
 79
     5
170
     0
171
     0
290
     0
174
     0
 93
        1
 44
0.0
173
     0
291
     0
 45
0.0
1001
ACAD
1000
AcDbSavedByObjectVersion
1070
     0
  0
VISUALSTYLE
  5
B434
102
{ACAD_XDICTIONARY
360
B462
102
}
102
{ACAD_REACTORS
330
B414
102
}
330
B414
100
AcDbVisualStyle
  2
3dWireframe
 70
     5
 71
     0
 72
     2
 73
     0
 90
        0
 40
-0.6
 41
-30.0
 62
     5
 63
     7
421
 16777215
 74
     1
 91
        4
 64
     7
 65
   257
 75
     1
175
     1
 42
1.0
 92
        0
 66
   257
 43
1.0
 76
     1
 77
     6
 78
     2
 67
     7
 79
     5
170
     0
171
     0
290
     0
174
     0
 93
        1
 44
0.0
173
     0
291
     0
 45
0.0
1001
ACAD
1000
AcDbSavedByObjectVersion
1070
     0
  0
VISUALSTYLE
  5
B433
102
{ACAD_XDICTIONARY
360
B460
102
}
102
{ACAD_REACTORS
330
B414
102
}
330
B414
100
AcDbVisualStyle
  2
Realistic
 70
     8
 71
     2
 72
     2
 73
     0
 90
        0
 40
-0.6
 41
-30.0
 62
     5
 63
     7
421
 16777215
 74
     1
 91
        0
 64
     7
 65
   257
 75
     1
175
     1
 42
1.0
 92
        8
 66
     8
424
  7895160
 43
1.0
 76
     1
 77
     6
 78
     2
 67
     7
 79
     5
170
     0
171
     0
290
     0
174
     0
 93
       13
 44
0.0
173
     0
291
     0
 45
0.0
1001
ACAD
1000
AcDbSavedByObjectVersion
1070
     0
  0
DICTIONARYVAR
  5
B455
102
{ACAD_REACTORS
330
B452
102
}
330
B452
100
DictionaryVariables
280
     0
  1
1:1
  0
DICTIONARYVAR
  5
B454
102
{ACAD_REACTORS
330
B452
102
}
330
B452
100
DictionaryVariables
280
     0
  1
STANDARD
  0
DICTIONARYVAR
  5
B453
102
{ACAD_REACTORS
330
B452
102
}
330
B452
100
DictionaryVariables
280
     0
  1
STANDARD
  0
XRECORD
  5
5B
102
{ACAD_REACTORS
330
B448
102
}
330
B448
100
AcDbXrecord
280
     1
310
0800000000000000000000000600100200060030000000000000000000408F40E80300000A000000000000000000F03F000000000088C3400000000000805640000000000000F03F000000000000F03F000000000000F03F000000000000F03F000000000000F03F0000000000000000000000000000000000000000000000
310
000000000000000000000000000000000000000000CD065FC1000000807A914DC1000000000000000000000000E0A1094100000000A003EE4000000000000000006500000000000000010000002400000000000000000000000000000001000000000000000000000000000000000000000000000000004940000000000000
310
000000000000000000000000000000000000000000000000000000000000000000000000000000000000000000000000000000000000000000000004000000000000000000000094A140000000000094A140000000000000000000000000000000000000000000000000000000000000000000000000000000000000000000
310
00000000000000000000000000000000000000000000000000000000000000000000000000000000000000000000000000000000000000000000000000000000000000000000000000000000000000000000000000000000000000000000000000000000000000000000000000000000000000000000000000000000000000
310
00000000000000000000000000000000000000000000000000000000000000000000000000000000000000004A00000000000000000000000000090000000000020000400100000000000500070101000000000000000000000000000000000000000000000000000000000000000000000000000000000000000000000000
310
00000000000000000000000000000000000000000000000000000000000000000000000000000000000000000000000000000000000000000000000000000000000000000001000000000000000000000000000000000075006E006B0000000000000000000000000000000000000000000000000000000000000000000000
310
00000000000000000000000000000000000000000000000000000000000000000000000000000000000000000000000000000000000000000000000000000000000000000000000000000000000000000000000000000000000000000000000000000000000000000000000000000000000000000000000000000000000000
310
00000000000000000000000000000000000000000000000000000000000000000000000000000000000000000000000000000000000000000000000000000000000000000000000000000000000000000000000000000000000000000000000000000000000000000000000000000000000000000000000000000000000000
310
00000000000000000000000000000000000000000000000000000000000000000000000000000000000000000000000000000000000000000000000000000000000000000000000000000000000000000000000000000000000000000000000000000000000000000000000000000000000000000000000000000000000000
310
00000000000000000000000000000000000000000000000000000000000000000000000000000000000000000000000000000000000000000000000000000000000000000000000000000000000000000000000000000000000000000000000000000000000000000000000000000000000000000000000000000000000000
310
00000000000000000000000000000000000000000000000000000000000000000000000000000000000000000000000000000000000000000000000000000000000000000000000000000000000000000000000000000000000000000000000000000000000000000000000000000000000000000000000000000000000000
310
00000000000000000000000000000000000000000000000000000000000000000000000000000000000000000000000000000000000000000000000000000000000000000000000000000000000000000000000000000000000000000000000000000000000000000000000000000000000000000000000000000000000000
310
00000000000000000000000000000000000000000000000000000000000000000000000000000000000000000000000000000000000000000000000000000000000000000000000000000000000000000000000000000000000000000000000000000000000000000000000000000000000000000000000000000000000000
310
000000000000000000000000000000000000000000000000000000000000000000000000000000000000000000000000000000000000000000000000000000000000000000000000000000000000000000000000000000000000000000000075006E006B000000000000000000000000000000000000000000000000000000
310
00000000000000000000000000000000000000000000000000000000000000000000000000000000000000000000000000000000000000000000000000000000000000000000000000000000000000000000000000000000000000000000000000000000000000000000000000000000000000000000000000000000000000
310
00000000000000000000000000000000000000000000000000000000000000000000000000000000000000000000000000000000000000000000000000000000000000000000000000000000000000000000000000000000000000000000000000000000000000000000000000000000000000000000000000000000000000
310
00000000000000000000000000000000000000000000000000000000000000000000000000000000000000000000000000000000000000000000000000000000000000000000000000000000000000000000000000000000000000000000000000000000000000000000000000000000000000000000000000000000000000
310
00000000000000000000000000000000000000000000000000000000000000000000000000000000000000000000000000000000000000000000000000000000000000000000000000000000000000000000000000000000000000000000000000000000000000000000000000000000000000000000000000000000000000
310
00000000000000000000000000000000000000000000000000000000000000000000000000000000000000000000000000000000000000000000000000000000000000000000000000000000000000000000000000000000000000000000000000000000000000000000000000000000000000000000000000000000000000
310
00000000000000000000000000000000000000000000000000000000000000000000000000000000000000000000000000000000000000000000000000000000000000000000000000000000000000000000000000000000000000000000000000000000000000000000000000000000000000000000000000000000000000
310
00000000000000000000000000000000000000000000000000000000000000000000000000000000000000000000000000000000000000000000000000000000000000000000000000000000000000000000000000000000000000000000000000000000000000000000000000000000000000000000000000000000000000
310
0000000000000000000000000000000000000000000000000000000000000000000000000000000000000000000000000000000000000000000000000000000000000000000000000000000000000000000000000000000000000000000000000000000000000000000000F03F000075006E006B0000000000000000000000
310
00000000000000000000000000000000000000000000000000000000000000000000000000000000000000000000000000000000000000000000000000000000000000000000000000000000000000000000000000000000000000000000000000000000000000000000000000000000000000000000000000000000000000
310
00000000000000000000000000000000000000000000000000000000000000000000000000000000000000000000000000000000000000000000000000000000000000000000000000000000000000000000000000000000000000000000000000000000000000000000000000000000000000000000000000000000000000
310
00000000000000000000000000000000000000000000000000000000000000000000000000000000000000000000000000000000000000000000000000000000000000000000000000000000000000000000000000000000000000000000000000000000000000000000000000000000000000000000000000000000000000
310
00000000000000000000000000000000000000000000000000000000000000000000000000000000000000000000000000000000000000000000000000000000000000000000000000000000000000000000000000000000000000000000000000000000000000000000000000000000000000000000000000000000000000
310
00000000000000000000000000000000000000000000000000000000000000000000000000000000000000000000000000000000000000000000000000000000000000000000000000000000000000000000000000000000000000000000000000000000000000000000000000000000000000000000000000000000000000
310
00000000000000000000000000000000000000000000000000000000000000000000000000000000000000000000000000000000000000000000000000000000000000000000000000000000000000000000000000000000000000000000000000000000000000000000000000000000000000000000000000000000000000
310
00000000000000000000000000000000000000000000000000000000000000000000000000000000000000000000000000000000000000000000000000000000000000000000000000000000000000000000000000000000000000000000000000000000000000000000000000000000000000000000000000000000000000
310
000000000000000000000000000000000000000000000000000000000000000000000000000000000000000000000000000000000000000000000000000000000000000000000000000000000000000000000000000000000000000000000000000000000000000000000000000000000000000000000000000000F03F0000
310
00000080464000000000008046C0000000000088C340000000000088C3400000000000000000000000000000000075006E006B00000000000000000000000000000000000000000000000000000000000000000000000000000000000000000000000000000000000000000000000000000000000000000000000000000000
310
00000000000000000000000000000000000000000000000000000000000000000000000000000000000000000000000000000000000000000000000000000000000000000000000000000000000000000000000000000000000000000000000000000000000000000000000000000000000000000000000000000000000000
310
00000000000000000000000000000000000000000000000000000000000000000000000000000000000000000000000000000000000000000000000000000000000000000000000000000000000000000000000000000000000000000000000000000000000000000000000000000000000000000000000000000000000000
310
00000000000000000000000000000000000000000000000000000000000000000000000000000000000000000000000000000000000000000000000000000000000000000000000000000000000000000000000000000000000000000000000000000000000000000000000000000000000000000000000000000000000000
310
00000000000000000000000000000000000000000000000000000000000000000000000000000000000000000000000000000000000000000000000000000000000000000000000000000000000000000000000000000000000000000000000000000000000000000000000000000000000000000000000000000000000000
310
00000000000000000000000000000000000000000000000000000000000000000000000000000000000000000000000000000000000000000000000000000000000000000000000000000000000000000000000000000000000000000000000000000000000000000000000000000000000000000000000000000000000000
310
00000000000000000000000000000000000000000000000000000000000000000000000000000000000000000000000000000000000000000000000000000000000000000000000000000000000000000000000000000000000000000000000000000000000000000000000000000000000000000000000000000000000000
310
00000000000000000000000000000000000000000000000000000000000000000000000000000000000000000000000000000000000000000000000000000000000000000000000000000000000000000000000000000000000000000000000000000000000000000000000000000000000000000000000000000000000000
310
00000000000000000000000000000000000000000000000000000000000000000000000000000000000000000000000000000000000000000000000000000000000000000000000000000000000000000000000000000000000000000000000000000000000000000000000000000000000000000000000000000000000000
310
00000000000000000000000000000000000000000000000000000000000000000000000000000000000000000000000000000000000000000000000000000000000000000000000000000000408F400000000000409F4000000000000000000000000000000000000000000000000000000000000000000000000000000000
310
080000000700000000000000008046400000000000000000000000000088C340000000000088C3400000000000002440000000000088C340000000000088C3400000000000000000000000000088C340000000000088C34000000000000000000000000000003E40000000000088C340000000000088C340000000000088C3
310
40000000000088A3C000000000000000000000000000805640000000000088C34006000300040014000100000301010100000000000000000000000000000000000000000000000000000000000000F03F000000000000000000000000000000000000000000000000000000000000F03F0000000000000000000000000000
310
00000000000000000000000000000000F03F00000000000000000000000000000000000000000000000000000000000000000000000000000000000000000000000000000000000000000000000000000000000000000000000000000000000000000000000000000000000000000000000000000000000000000000000000
310
00000000000000000000000000000000000000152100000002000027003800B5FF0900010A0066D107000000000000000014C000000000000000000000000000000000000000000000000000000000000000000000000000000000000000000000F03F000000000000F03F000000000000F03F000000000000F03F00000000
310
0000F03F000000000000F03F000000000000F03F000000000000F03F333333333333D33F000000000000F03F000000000000F03F000000000000F03F333333333333D33F0000000000000000000000000000E83F0000000000000000000000000000F03F000000000000F03F000000000000F03F7B14AE47E17A943F000000
310
000000E03F00000700D0070000000000000000000000000000000000000000000000000000000000000000000000000000000000000000000000000000000000000000000000000000000000000000000000000000000000000000000000000000000000000000000000000000000000000000000000000000000000000000
310
0000000000000000000000000000000000000000000000000000000000000000000000000000000000000000000000000000000000000000000008000000003A5C756E6F5C563843454C4C5C574F4F442E43454C00000000000000000000000000000000000000000000000000000000000000000000000000000000000000
310
00000000000000000000000000000000000000000000000000000000000000000000000000000000000000000000000000000000000000000000000000000000000000000000000000000000000000000000000000000000000000000000000000000000000000000000000000000000000000000000000000000000000000
310
00000000000000000000000000000000000000000000000000000000000000000000000000000000000000000000000000000000000000000000000000000000000000000000000000000000000000000000000000000000000000000000000000000000000000000000000000000000000000000000000000000000000000
310
00000000000000000000000000000000000000000000000000000000000000000000000000000000000000000000000000000000000000000000000000000000000000000000000000000000000000000000000000000000000000000000000000000000000000000000000000000000000000000000000000000000000000
310
00000000000000000000000000000000000000000000000000000000000000000000000000000000000000000000000000000000000000000000000000000000000001000000000000000000000000000000000000000000000001000000000000000000000000000000000000000000000000000000140000000000000000
310
00000000000000000000000000000000000000000000000000000006000000000000004000000000000000000000000000F03F000000000000F03F000000000000F03F000000000000F03F000000000F00000000000000000000000000000006200000000000000000000000000000A00000000F0A00000000000000000000
310
00000000000000000088C34000000000000000000000000000000000000000000000000000000000000000000000000000000000000000000000000000000000000000000000000000000000000000000000000000000000000000000000000000000000000000000000000000000000000000000000000000000000000000
310
00000000000000000000000000000000000000000000000000000000000000000000000000000000000000000000000000000000000000000000000000000000000000000000000000000000000000000000000000000000000000000000000000000000000000000000000000000000000000000000000000000000000000
310
00000000000000000000000000000000000000000000000000000000000000000000000000000000000000000000000000000000000000000000000000000000000000000000000000000000000000000000000000000000000000000000000000000000000000000000000059400100000004000000000000000400000000
310
000000000000000000000001000000000000000000000000000000000000000000000000000000000000000000E83F000000000000D03F00000000000000000000000000000000000000000000000000000000000000000000000000000000000000000000000000000000000000000000000000000000FCA9F1D24D62503F
310
00000000000000000000000000002440000000000000000000000000008066400000000000000000000000000000000000840000000000000000000000000000000000000000000000000000000000000000000000000000000000000000000000000000000000000000000000000000000000000000000000000000000000
310
000000000000000000000000000000E03F0000000000000000000000000000000000000000000000000000000000000000000000000000000000000000000000000000000000000000000000000000000000000000000000000000000000000000000000000000000000000000000000000000000000000000000000000000
310
00000000000000000000100400000000000000000000000000000000000000000000000000000000000000000000000000000000000000000000000000000000000000000000000000000000000000000000000000000000000000000000000000000000000000000000000000000000000000000000000000000000000000
310
00000000000000000000000000000000000000000000000000000000000000000000000000000000000000000000000000000000000000000000000000000000000000000000000000000000000000000000000000000000000000000000000000000000000000000000000000000000000000000000000000F03F00000000
310
00000000000000000000F03F00000000000000000000000000000000000000000080564001020000040000000000000004000000000000000A000000040000000000000004000000000000000A0000000000000001000000000000000000000000000000000000000000000000000000000000000000000000000000000000
310
00000000000000000000000000000000000000000000000000000000000000000000000000000000000000000000000000000000000000000000000000000000000000000000000000000000000000000000000000000000000000000000000000000000000000000000000000000000000088C34000000000000000000000
310
00000088C3400000000000000000000000000088C3400000000000000000000000000088C340000000000000000000000000000000000000000000000000000000000000000000000000000000000000000000000000000000000000000041000000000000009A9999999999B93F9A9999999999B93F01000000000000009A
310
9999999999B93F9A9999999999B93F40010000000000000000000000000000000000000000000013030000000000000000000000000000000000000000000000000000000000000000000000000000000000000000000000000000000000000100000000000000000000000000000000000000000000000100000000000000
310
7B14AE47E17A843F0100000000000000000000000000E03F0100000000000000000000000000E03F000000000000000000000000000000000000000000000000000000000000000000000000000000000000000000000000000000000000000000000000000000000000000000000000000000000088C34000000000000000
310
00000000000088C3400000000000000000000000000088C34038000000000000000000000000000000000000000088C340FFFFFFFF00000000000000000088B34000000000000000000000000000000000000000000088C3400000000000000000000000000088C3400000000000000000000000000000000000000000006A
310
E840010000000000000000000000006AE840010000000000000000000000006AF840000000000000000000000000006AE840000000000000000028000000000000000000000000002440000000000000000000000000006AF84000000000000000000000000000000000000000000000000000000000000024400000000000
310
0000000100000000000000000000000000244040000800000000000000000000002440048000000000000000000000000024408800000014000000000000000000000000000000000000009A9999999999B93F9A9999999999B93F000000000088C34088808000140000001400000000000000000000000000000000000000
310
0000000000000000000000000000000000000000000000000000F03F9A9999999999B93F0000000000000000000000000A0000000A0000000000000000000000000000000000000000000000000000000000000000000000000000000000000000000000C00000000000000000000000000000009A9999999999B93F000000
310
0000000000000000000000000000000000000000000000000000000000000000000000000000000000000000000400000000000000000000000088C340000000000088C34000000000008036408DEDB5A0F7C6B03E000000004000000002000000010000000800000000000000000000000000F03F00000000000000000000
310
00000000F03F1000000000000000000000000000F03F9001000000000000000000000000F03F0000000000000000000000000000000000000000000000000000000000000000000000000000000000000000000000000100000000000000000000000000000000000000010000000000002000000000000000000000000000
310
00000000000000000100000000000000000000000000000000000000002440000000000000000000000000000000000000000000000000000000000000000000000000000000000000000000000000000000000000000000000000000000000000000000000000000000000000000000000000000000000000000000000000
310
00000000000000000000000000000000000000000000000000000000000000000000000000000000000000000000000000000000000000000000000000000000000000000000000000000000000000000000000000000000000000000000000000000000000000000000000000000000000000000000000000000000000000
310
00000000000000F03F000000000000F03F00000000000000000000000000000000000000000000F03F000000000000000000000000000000000000000000000000000000000000000000000000000000000000000000000000000000000000F03F000000000000F03F00000000008056400000000000000000000000000000
310
00000000000000002440000000000000444000000000000000000000000000000000000000000000000000000000000000000000000000000000000000000000000000000000000000000000000000000000000000000000000014000005010000000000000000000000000000000000000001000000000000000200000000
310
00000004000000E80300000010000000000000040000000000000000000000000000000000000000000000000000000000000000000000000000000000000000000000000000000000000000000000000000000000000000000000000000000000000000000000000000000000000000000000000000000000000000000000
310
00000000000000000000000000000000000000000000000000000000000000000000000000000000000000000000000000000000000000000000000000000000000000000000000000000000000000000000000000000000000000000000000000000000000000000000000000000000000000000000000000000000000000
310
00000000000000000000000000000000000000000000000000000000000000000000000000000000000000000000000000000000000000000000000000000000000000000000000000000000000000000000000000000000000000000000000000000000000000000000000000000000000000000000000000000000000000
310
00000000000000000000000000000000000000000000000000000000000000000000000000000000000000000000000000000000000000000000000000000000000000000000000000000000000000000000000000000000000000000000000000000000000000000000000000000000000000000000000000000000000000
310
00000000000000000000000000000000000000000000000000000000000000000000000000000000000000000000000000000000000000000000000000000000000000000000000000000000000000000000000000000000000000000000000000000000000000000000000000000000000000000000000000000000000000
310
00000000000000000000000000000000000000000000000000000000000000000000000000000000000000000000000000000000000000000000000000000000000000000000000000000000000000000000000000000000000000000000000000000000000000000000000000000000000000000000000000000000000000
310
00000000000000000000000000000000000000000000000000
  0
DICTIONARY
  5
B404
330
B403
100
AcDbDictionary
280
     1
281
     1
  3
ADSK_XREC_LAYOUTTHUMBNAIL
360
B405
  0
DICTIONARY
  5
B426
330
B425
100
AcDbDictionary
280
     1
281
     1
  3
ACAD_XREC_ROUNDTRIP
360
B45E
  3
BUMPTILE
360
B427
  3
DIFFUSETILE
360
B428
  3
OPACITYTILE
360
B429
  3
REFLECTIONTILE
360
B42A
  3
REFRACTIONTILE
360
B42B
  3
SPECULARTILE
360
B42C
  0
DICTIONARY
  5
B41E
330
B41D
100
AcDbDictionary
280
     1
281
     1
  3
ACAD_XREC_ROUNDTRIP
360
B45D
  3
BUMPTILE
360
B41F
  3
DIFFUSETILE
360
B420
  3
OPACITYTILE
360
B421
  3
REFLECTIONTILE
360
B422
  3
REFRACTIONTILE
360
B423
  3
SPECULARTILE
360
B424
  0
DICTIONARY
  5
B3F4
330
B3F2
100
AcDbDictionary
280
     1
281
     1
  3
ACAD_XREC_ROUNDTRIP
360
B45A
  3
BUMPTILE
360
B3F5
  3
DIFFUSETILE
360
B3F6
  3
OPACITYTILE
360
B3F7
  3
REFLECTIONTILE
360
B3F8
  3
REFRACTIONTILE
360
B3F9
  3
SPECULARTILE
360
B3FA
  0
DICTIONARY
  5
B457
330
B432
100
AcDbDictionary
280
     1
281
     1
  3
ACAD_ROUNDTRIP_2008_TABLESTYLE_CELLSTYLEMAP
360
B458
  3
ACAD_XREC_ROUNDTRIP
360
B45F
  0
DICTIONARY
  5
B45B
330
B413
100
AcDbDictionary
280
     1
281
     1
  3
ACAD_XREC_ROUNDTRIP
360
B45C
  0
DICTIONARY
  5
B462
330
B434
100
AcDbDictionary
280
     1
281
     1
  3
ACAD_XREC_ROUNDTRIP
360
B463
  0
DICTIONARY
  5
B460
330
B433
100
AcDbDictionary
280
     1
281
     1
  3
ACAD_XREC_ROUNDTRIP
360
B461
  0
XRECORD
  5
B405
102
{ACAD_REACTORS
330
B404
102
}
330
B404
100
AcDbXrecord
280
     1
310
28000000B40000007F00000001000800000000004C59000000000000000000000001000000000000FFFFFF0000000000FFFFFF000000000000000000000000000000000000000000000000000000000000000000330000006600000099000000CC000000FF00000000330000333300006633000099330000CC330000FF3300
310
0000660000336600006666000099660000CC660000FF66000000990000339900006699000099990000CC990000FF99000000CC000033CC000066CC000099CC0000CCCC0000FFCC000000FF000033FF000066FF000099FF0000CCFF0000FFFF000000003300330033006600330099003300CC003300FF003300003333003333
310
33006633330099333300CC333300FF33330000663300336633006666330099663300CC663300FF66330000993300339933006699330099993300CC993300FF99330000CC330033CC330066CC330099CC3300CCCC3300FFCC330000FF330033FF330066FF330099FF3300CCFF3300FFFF330000006600330066006600660099
310
006600CC006600FF00660000336600333366006633660099336600CC336600FF33660000666600336666006666660099666600CC666600FF66660000996600339966006699660099996600CC996600FF99660000CC660033CC660066CC660099CC6600CCCC6600FFCC660000FF660033FF660066FF660099FF6600CCFF6600
310
FFFF660000009900330099006600990099009900CC009900FF00990000339900333399006633990099339900CC339900FF33990000669900336699006666990099669900CC669900FF66990000999900339999006699990099999900CC999900FF99990000CC990033CC990066CC990099CC9900CCCC9900FFCC990000FF99
310
0033FF990066FF990099FF9900CCFF9900FFFF99000000CC003300CC006600CC009900CC00CC00CC00FF00CC000033CC003333CC006633CC009933CC00CC33CC00FF33CC000066CC003366CC006666CC009966CC00CC66CC00FF66CC000099CC003399CC006699CC009999CC00CC99CC00FF99CC0000CCCC0033CCCC0066CC
310
CC0099CCCC00CCCCCC00FFCCCC0000FFCC0033FFCC0066FFCC0099FFCC00CCFFCC00FFFFCC000000FF003300FF006600FF009900FF00CC00FF00FF00FF000033FF003333FF006633FF009933FF00CC33FF00FF33FF000066FF003366FF006666FF009966FF00CC66FF00FF66FF000099FF003399FF006699FF009999FF00CC
310
99FF00FF99FF0000CCFF0033CCFF0066CCFF0099CCFF00CCCCFF00FFCCFF0000FFFF0033FFFF0066FFFF0099FFFF00CCFFFF00FFFFFF00000000000D0D0D001A1A1A00282828003535350043434300505050005D5D5D006B6B6B00787878008686860093939300A1A1A100AEAEAE00BBBBBB00C9C9C900D6D6D600E4E4E400
310
F1F1F100FFFFFF0000000000000000000000000000000000000000000000000000000000000000000000000000000000E2E2E2E2E2E2E2E2E2E2E2E2E2E2E2E2E2E2E2E2E2E2E2E2E2E2E2E2E2E2E2E2E2E2E2E2E2E2E2E2E2E2E2E2E2E2E2E2E2E2E2E2E2E2E2E2E2E2E2E2E2E2E2E2E2E2E2E2E2E2E2E2E2E2E2E2E2E2E2
310
E2E2E2E2E2E2E2E2E2E2E2E2E2E2E2E2E2E2E2E2E2E2E2E2E2E2E2E2E2E2E2E2E2E2E2E2E2E2E2E2E2E2E2E2E2E2E2E2E2E2E2E2E2E2E2E2E2E2E2E2E2E2E2E2E2E2E2E2E2E2E2E2E2E2E2E2E2E2E2E2E2E2E2E2E2E2E2E2E2E2E2E2E2E2E2E2E2E2E2E2E2E2F5F5F5F5F5F5F5F5F5F5F5F5F5F5F5F5F5F5F5F5F5F5F5F5F5
310
F5F5F5F5F5F5F5F5F5F5F5F5F5F5F5F5F5F5F5F5F5F5F5F5F5F5F5F5F5F5F5F5F5F5F5F5F5F5F5F5F5F5F5F5F5F5F5F5F5F5F5F5F5F5F5F5F5F5F5F5F5F5F5F5F5F5F5F5F5F5F5F5F5F5F5F5F5F5F5F5F5F5F5F5F5F5F5F5F5F5F5F5F5F5F5F5F5F5F5F5F5F5F5F5F5F5F5F5F5F5F5F5F5F5F5F5F5F5F5F5F5F5F5F5F5F5F5
310
F5F5F5F5F5F5F5F5F5F5F5F5F5F5F5F5F5F5F5F5F5F5F5F5F5E2E2E2F5F5F5F5F5F5F5F5F5F5F5F5F5F5F5F5F5F5F5F5F5F5F5F5F5F5F5F5F5F5F5F5F5F5F5F5F5F5F5F5F5F5F5F5F5F5F5F5F5F5F5F5F5F5F5F5F5F5F5F5F5F5F5F5F5F5F5F5F5F5F5F5F5F5F5F5F5F5F5F5F5F5F5F5F5F5F5F5F5F5F5F5F5F5F5F5F5F5F5
310
F5F5F5F5F5F5F5F5F5F5F5F5F5F5F5F5F5F5F5F5F5F5F5F5F5F5F5F5F5F5F5F5F5F5F5F5F5F5F5F5F5F5F5F5F5F5F5F5F5F5F5F5F5F5F5F5F5F5F5F5F5F5F5F5F5F5F5F5F5F5F5F5F5F5F5F5F5F5E2E2E2F5F5F5F5F5F5F5F5F5F5F5F5F5F5F5F5F5F5F5F5F5F5F5F5F5F5F5F5F5F5F5F5F5F5F5F5F5F5F5F5F5F5F5F5F5F5
310
F5F5F5F5F5F5F5F5F5F5F5F5F5F5F5F5F5F5F5F5F5F5F5F5F5F5F5F5F5F5F5F5F5F5F5F5F5F5F5F5F5F5F5F5F5F5F5F5F5F5F5F5F5F5F5F5F5F5F5F5F5F5F5F5F5F5F5F5F5F5F5F5F5F5F5F5F5F5F5F5F5F5F5F5F5F5F5F5F5F5F5F5F5F5F5F5F5F5F5F5F5F5F5F5F5F5F5F5F5F5F5F5F5F5F5F5F5F5F5F5F5F5F5F5F5F5F5
310
F5F5F5F5E2E2E2F5F5F5F5F5F5F5F5F5F5F5F5F5F5F5F5F5F5F5F5F5F5F5F5F5F5F5F5F5F5F5F5F5F5F5F5F5F5F5F5F5F5F5F5F5F5F5F5F5F5F5F5F5F5F5F5F5F5F5F5F5F5F5F5F5F5F5F5F5F5F5F5F5F5F5F5F5F5F5F5F5F5F5F5F5F5F5F5F5F5F5F5F5F5F5F5F5F5F5F5F5F5F5F5F5F5F5F5F5F5F5F5F5F5F5F5F5F5F5F5
310
F5F5F5F5F5F5F5F5F5F5F5F5F5F5F5F5F5F5F5F5F5F5F5F5F5F5F5F5F5F5F5F5F5F5F5F5F5F5F5F5F5F5F5F5F5F5F5F5F5F5F5F5F5F5F5F5F5E2E2E2F5F5F5F5F5F5F5F5F5F5F5E2E2E2E2E2E2E2E2E2F5F5F5F5F5F5F5F5F5E2E2E2E2E2E2E2E2E2E2E2E2E2E2E2E2F5F5F5F5F5F5F5F5F5F5E2E2E2E2E2E2E2E2E2E2E2E2
310
E2E2E2E2F5F5F5F5F5F5F5F5F5E2E2E2E2E2E2E2E2E2E2E2E2E2E2E2E2E2F5F5F5F5F5F5F5F5F5E2E2E2E2E2E2E2E2E2E2E2E2E2E2E2E2F5F5F5F5F5F5F5F5F5F5E2E2E2E2E2E2E2E2E2E2E2E2E2E2E2E2F5F5F5F5F5F5F5F5F5E2E2E2E2E2E2E2E2E2F5F5F5F5F5F5F5F5F5F5F5E2E2E2F5F5F5F5F5F5F5F5F5F5F5E2F5F5
310
F5F5F5F5F5F5F5F5F5F5F5F5F5F5F5F5F5F5F5F5F5F5F5F5F5F5F5F5F5F5F5F5F5F5F5F5F5F5F5F5F5F5F5F5F5F5F5F5F5F5F5F5F5F5F5F5F5F5F5F5F5F5F5F5F5F5F5F5F5F5F5F5F5F5F5F5F5F5F5F5F5F5F5F5F5F5F5F5F5F5F5F5F5F5F5F5F5F5F5F5F5F5F5F5F5F5F5F5F5F5F5F5F5F5F5F5F5F5F5F5F5F5F5F5F5F5F5
310
F5F5F5F5F5F5F5F5F5F5F5F5F5F5F5F5F5F5F5F5F5F5F5F5E2F5F5F5F5F5F5F5F5F5F5F5E2E2E2F5F5F5F5F5F5F5F5F5F5F5E2F5F5F5F5F5F5F5F5F5F5F5F5F5F5F5F5F5F5F5F5F5F5F5F5F5F5F5F5F5F5F5F5F5F5F5F5F5F5F5F5F5F5F5F5F5F5F5F5F5F5F5F5F5F5F5F5F5F5F5F5F5F5F5F5F5F5F5F5F5F5F5F5F5F5F5F5
310
F5F5F5F5F5F5F5F5F5F5F5F5F5F5F5F5F5F5F5F5F5F5F5F5F5F5F5F5F5F5F5F5F5F5F5F5F5F5F5F5F5F5F5F5F5F5F5F5F5F5F5F5F5F5F5F5F5F5F5F5F5F5F5F5F5F5F5F5F5F5F5F5F5F5F5F5F5E2F5F5F5F5F5F5F5F5F5F5F5E2E2E2F5F5F5F5F5F5F5F5F5F5F5E2F5F5F5F5F5F5F5F5F5F5F5F5F5F5F5F5F5F5F5F5F5F5F5
310
F5F5F5F5F5F5F5F5F5F5F5F5F5F5F5F5F5F5F5F5F5F5F5F5F5F5F5F5F5F5F5F5F5F5F5F5F5F5F5F5F5F5F5F5F5F5F5F5F5F5F5F5F5F5F5F5F5F5F5F5F5F5F5F5F5F5F5F5F5F5F5F5F5F5F5F5F5F5F5F5F5F5F5F5F5F5F5F5F5F5F5F5F5F5F5F5F5F5F5F5F5F5F5F5F5F5F5F5F5F5F5F5F5F5F5F5F5F5F5F5F5F5F5F5F5F5F5
310
F5F5F5E2F5F5F5F5F5F5F5F5F5F5F5E2E2E2F5F5F5F5F5F5F5F5F5F5F5E2F5F5F5F5F5F5F5F5F5F5F5F5F5F5F5F5F5F5F5F5F5F5F5F5F5F5F5F5F5F5F5F5F5F5F5F5F5F5F5F5F5F5F5F5F5F5F5F5F5F5F5F5F5F5F5F5F5F5F5F5F5F5F5F5F5F5F5F5F5F5F5F5F5F5F5F5F5F5F5F5F5F5F5F5F5F5F5F5F5F5F5F5F5F5F5F5F5
310
F5F5F5F5F5F5F5F5F5F5F5F5F5F5F5F5F5F5F5F5F5F5F5F5F5F5F5F5F5F5F5F5F5F5F5F5F5F5F5F5F5F5F5F5F5F5F5F5F5F5F5F5F5F5F5F5E2F5F5F5F5F5F5F5F5F5F5F5E2E2E2F5F5F5F5F5F5F5F5F5F5F5E2F5F5F5F5F5F5F5F5F5F5F5F5F5F5F5F5F5F5F5F5F5F5F5F5F5F5F5F5F5F5F5F5F5F5F5F5F5F5F5F5F5F5F5F5
310
F5F5F5F5F5F5F5F5F5F5F5F5F5F5F5F5F5F5F5F5F5F5F5F5F5F5F5F5F5F5F5F5F5F5F5F5F5F5F5F5F5F5F5F5F5F5F5F5F5F5F5F5F5F5F5F5F5F5F5F5F5F5F5F5F5F5F5F5F5F5F5F5F5F5F5F5F5F5F5F5F5F5F5F5F5F5F5F5F5F5F5F5F5F5F5F5F5F5F5F5F5F5F5F5F5F5F5F5F5E2F5F5F5F5F5F5F5F5F5F5F5E2E2E2F5F5F5
310
F5F5F5F5F5F5F5F5E2F5F5F5F5F5F5F5F5F5F5F5F5F5F5F5F5F5F5F5F5F5F5F5F5F5F5F5F5F5F5F5F5F5F5F5F5F5F5F5F5F5F5F5F5F5F5F5F5F5F5F5F5F5F5F5F5F5F5F5F5F5F5F5F5F5F5F5F5F5F5F5F5F5F5F5F5F5F5F5F5F5F5F5F5F5F5F5F5F5F5F5F5F5F5F5F5F5F5F5F5F5F5F5F5F5F5F5F5F5F5F5F5F5F5F5F5F5F5
310
F5F5F5F5F5F5F5F5F5F5F5F5F5F5F5F5F5F5F5F5F5F5F5F5F5F5F5F5F5F5F5F5F5F5F5E2F5F5F5F5F5F5F5F5F5F5F5E2E2E2F5F5F5F5F5F5F5F5F5F5F5E2F5F5F5F5F5F5F5F5F5F5F5F5F5F5F5F5F5F5F5F5F5F5F5F5F5F5F5F5F5F5F5F5F5F5F5F5F5F5F5F5F5F5F5F5F5F5F5F5F5F5F5F5F5F5F5F5F5F5F5F5F5F5F5F5F5
310
F5F5F5F5F5F5F5F5F5F5F5F5F5F5F5F5F5F5F5F5F5F5F5F5F5F5F5F5F5F5F5F5F5F5F5F5F5F5F5F5F5F5F5F5F5F5F5F5F5F5F5F5F5F5F5F5F5F5F5F5F5F5F5F5F5F5F5F5F5F5F5F5F5F5F5F5F5F5F5F5F5F5F5F5F5F5F5F5E2F5F5F5F5F5F5F5F5F5F5F5E2E2E2F5F5F5F5F5F5F5F5F5F5F5F5F5F5F5F5F5F5F5F5F5F5F5F5
310
F5F5F5F5F5F5F5F5F5F5F5F5F5F5F5F5F5F5F5F5F5F5F5F5F5F5F5F5F5F5F5F5F5F5F5F5F5F5F5F5F5F5F5F5F5F5F5F5F5F5F5F5F5F5F5F5F5F5F5F5F5F5F5F5F5F5F5F5F5F5F5F5F5F5F5F5F5F5F5F5F5F5F5F5F5F5F5F5F5F5F5F5F5F5F5F5F5F5F5F5F5F5F5F5F5F5F5F5F5F5F5F5F5F5F5F5F5F5F5F5F5F5F5F5F5F5F5
310
F5F5F5F5F5F5F5F5F5F5F5F5F5F5F5F5F5F5F5F5F5F5F5F5F5F5E2E2E2F5F5F5F5F5F5F5F5F5F5F5F5F5F5F5F5F5F5F5F5F5F5F5F5F5F5F5F5F5F5F5F5F5F5F5F5F5F5F5F5F5F5F5F5F5F5F5F5F5F5F5F5F5F5F5F5F5F5F5F5F5F5F5F5F5F5F5F5F5F5F5F5F5F5F5F5F5F5F5F5F5F5F5F5F5F5F5F5F5F5F5F5F5F5F5F5F5F5
310
F5F5F5F5F5F5F5F5F5F5F5F5F5F5F5F5F5F5F5F5F5F5F5F5F5F5F5F5F5F5F5F5F5F5F5F5F5F5F5F5F5F5F5F5F5F5F5F5F5F5F5F5F5F5F5F5F5F5F5F5F5F5F5F5F5F5F5F5F5F5F5F5F5F5F5F5F5F5F5E2E2E2F5F5F5F5F5F5F5F5F5F5F5F5F5F5F5F5F5F5F5F5F5F5F5F5F5F5F5F5F5F5F5F5F5F5F5F5F5F5F5F5F5F5F5F5F5
310
F5F5F5F5F5F5F5F5F5F5F5F5F5F5F5F5F5F5F5F5F5F5F5F5F5F5F5F5F5F5F5F5F5F5F5F5F5F5F5F5F5F5F5F5F5F5F5F5F5F5F5F5F5F5F5F5F5F5F5F5F5F5F5F5F5F5F5F5F5F5F5F5F5F5F5F5F5F5F5F5F5F5F5F5F5F5F5F5F5F5F5F5F5F5F5F5F5F5F5F5F5F5F5F5F5F5F5F5F5F5F5F5F5F5F5F5F5F5F5F5F5F5F5F5F5F5F5
310
F5F5F5F5F5E2E2E2F5F5F5F5F5F5F5F5F5F5F5F5F5F5F5F5F5F5F5F5F5F5F5F5F5F5E2E2E2E2E2E2E2E2E2E2E2E2E2E2E2E2E2E2E2E2E2E2E2E2E2E2E2E2E2E2E2E2E2E2E2E2E2E2E2E2E2E2E2E2E2E2E2E2E2E2E2E2E2E2E2E2E2E2E2E2E2E2E2E2E2E2E2E2E2E2E2E2E2E2E2E2E2E2E2E2E2E2E2E2E2E2E2E2E2E2E2E2E2
310
E2E2E2E2E2E2E2E2E2E2E2E2E2E2E2E2E2E2E2E2E2E2E2E2E2E2E2E2E2E2E2E2F5F5F5F5F5F5F5F5F5F5F5F5F5F5F5F5F5F5F5F5F5F5F5F5F5F5E2E2E2F5F5F5F5F5F5F5F5F5F5F5F5F5F5F5F5F5F5F5F5F5F5F5F5F5F5E2F5F5F5F5F5F5F5F5F5F5F5F5F5F5F5F5F5F5F5F5F5F5F5F5F5F5F5F5F5F5F5F5F5F5F5F5F5F5F5
310
F5F5F5F5F5F5F5F5F5F5F5F5F5F5F5F5F5F5F5F5F5F5F5F5F5F5F5F5F5F5F5F5F5F5F5F5F5F5F5F5F5F5F5F5F5F5F5F5F5F5F5F5F5F5F5F5F5F5F5F5F5F5F5F5F5F5F5F5F5F5F5F5F5F5F5F5F5F5F5F5F5F5F5F5E2F5F5F5F5F5F5F5F5F5F5F5F5F5F5F5F5F5F5F5F5F5F5F5F5F5F5E2E2E2F5F5F5F5F5F5F5F5F5F5F5F5F5
310
F5F5F5F5F5F5F5F5F5F5F5F5F5E2F5F5F5F5F5F5F5F5F5F5F5F5F5F5F5F5F5F5F5F5F5F5F5F5F5F5F5F5F5F5F5F5F5F5F5F5F5F5F5F5F5F5F5F5F5F5F5F5F5F5F5F5F5F5F5F5F5F5F5F5F5F5F5F5F5F5F5F5F5F5F5F5F5F5F5F5F5F5F5F5F5F5F5F5F5F5F5F5F5F5F5F5F5F5F5F5F5F5F5F5F5F5F5F5F5F5F5F5F5F5F5F5F5
310
F5F5F5F5F5F5F5F5F5F5E2F5F5F5F5F5F5F5F5F5F5F5F5F5F5F5F5F5F5F5F5F5F5F5F5F5F5E2E2E2F5F5F5F5F5F5F5F5F5F5F5F5F5F5F5F5F5F5F5F5F5F5F5F5F5F5E2F5F5F5F5F5F5F5F5F5F5F5F5F5F5F5F5F5F5F5F5F5F5F5F5F5F5F5F5F5F5F5F5F5F5F5F5F5F5F5F5F5F5F5F5F5F5F5F5F5F5F5F5F5F5F5F5F5F5F5F5
310
F5F5F5F5F5F5F5F5F5F5F5F5F5F5F5F5F5F5F5F5F5F5F5F5F5F5F5F5F5F5F5F5F5F5F5F5F5F5F5F5F5F5F5F5F5F5F5F5F5F5F5F5F5F5F5F5F5F5F5F5F5F5F5E2F5F5F5F5F5F5F5F5F5F5F5F5F5F5F5F5F5F5F5F5F5F5F5F5F5F5E2E2E2F5F5F5F5F5F5F5F5F5F5F5F5F5F5F5F5F5F5F5F5F5F5F5F5F5F5E2F5F5F5F5F5F5F5
310
F5F5F5F5F5F5F5F5F5F5F5F5F5F5F5F5F5F5F5F5F5F5F5F5F5F5F5F5F5F5F5F5F5F5F5F5F5F5F5F5F5F5F5F5F5F5F5F5F5F5F5F5F5F5F5F5F5F5F5F5F5F5F5F5F5F5F5F5F5F5F5F5F5F5F5F5F5F5F5F5F5F5F5F5F5F5F5F5F5F5F5F5F5F5F5F5F5F5F5F5F5F5F5F5F5F5F5F5F5F5F5F5F5F5F5F5E2F5F5F5F5F5F5F5F5F5F5
310
F5F5F5F5F5F5F5F5F5F5F5F5F5F5F5F5E2E2E2F5F5F5F5F5F5F5F5F5F5F5E2F5F5F5F5F5F5F5F5F5F5F5F5F5F5E2F5F5F5F5F5F5F5F5F5F5F5F5F5F5F5F5F5F5F5F5F5F5F5F5F5F5F5F5F5F5F5F5F5F5F5F5F5F5F5F5F5F5F5F5F5F5F5F5F5F5F5F5F5F5F5F5F5F5F5F5F5F5F5F5F5F5F5F5F5F5F5F5F5F5F5F5F5F5F5F5F5
310
F5F5F5F5F5F5F5F5F5F5F5F5F5F5F5F5F5F5F5F5F5F5F5F5F5F5F5F5F5F5F5F5F5F5F5F5F5F5F5F5F5F5E2F5F5F5F5F5F5F5F5F5F5F5F5F5F5E2F5F5F5F5F5F5F5F5F5F5F5E2E2E2F5F5F5F5F5F5F5F5F5F5F5E2F5F5F5F5F5F5F5F5F5F5F5F5F5F5E2F5F5F5F5F5F5F5F5F5F5F5F5F5F5F5F5F5F5F5F5F5F5F5F5F5F5F5F5
310
F5F5F5F5F5F5F5F5F5F5F5F5F5F5F5F5F5F5F5F5F5F5F5F5F5F5F5F5F5F5F5F5F5F5F5F5F5F5F5F5F5F5F5F5F5F5F5F5F5F5F5F5F5F5F5F5F5F5F5F5F5F5F5F5F5F5F5F5F5F5F5F5F5F5F5F5F5F5F5F5F5F5F5F5F5F5F5F5F5F5F5F5F5F5F5E2F5F5F5F5F5F5F5F5F5F5F5F5F5F5E2F5F5F5F5F5F5F5F5F5F5F5E2E2E2F5F5
310
F5F5F5F5F5F5F5F5F5E2F5F5F5F5F5F5F5F5F5F5F5F5F5F5E2F5F5F5F5F5F5F5F5F5F5F5F5F5F5F5F5F5F5F5F5F5F5F5F5F5F5F5F5F5F5F5F5F5F5F5F5F5F5F5F5F5F5F5F5F5F5F5F5F5F5F5F5F5F5F5F5F5F5F5F5F5F5F5F5F5F5F5F5F5F5F5F5F5F5F5F5F5F5F5F5F5F5F5F5F5F5F5F5F5F5F5F5F5F5F5F5F5F5F5F5F5F5
310
F5F5F5F5F5F5F5F5F5F5F5F5F5F5F5F5F5F5F5F5F5E2F5F5F5F5F5F5F5F5F5F5F5F5F5F5E2F5F5F5F5F5F5F5F5F5F5F5E2E2E2F5F5F5F5F5F5F5F5F5F5F5E2F5F5F5F5F5F5F5F5F5F5F5F5F5F5E2F5F5F5F5F5F5F5F5F5F5F5F5F5F5F5F5F5F5F5F5F5F5F5F5F5F5F5F5F5F5F5F5F5F5F5F5F5F5F5F5F5F5F5F5F5F5F5F5F5
310
F5F5F5F5F5F5F5F5F5F5F5F5F5F5F5F5F5F5F5F5F5F5F5F5F5F5F5F5F5F5F5F5F5F5F5F5F5F5F5F5F5F5F5F5F5F5F5F5F5F5F5F5F5F5F5F5F5F5F5F5F5F5F5F5F5F5F5F5F5F5F5F5F5F5E2F5F5F5F5F5F5F5F5F5F5F5F5F5F5E2F5F5F5F5F5F5F5F5F5F5F5E2E2E2F5F5F5F5F5F5F5F5F5F5F5E2F5F5F5F5F5F5F5F5F5F5F5
310
F5F5F5E2F5F5F5F5F5F5F5F5F5F5F5F5F5F5F5F5F5F5F5F5F5F5F5F5F5F5F5F5F5F5F5F5F5F5F5F5F5F5F5F5F5F5F5F5F5F5F5F5F5F5F5F5F5F5F5F5F5F5F5F5F5F5F5F5F5F5F5F5F5F5F5F5F5F5F5F5F5F5F5F5F5F5F5F5F5F5F5F5F5F5F5F5F5F5F5F5F5F5F5F5F5F5F5F5F5F5F5F5F5F5F5F5F5F5F5F5F5F5F5F5F5F5F5
310
E2F5F5F5F5F5F5F5F5F5F5F5F5F5F5E2F5F5F5F5F5F5F5F5F5F5F5E2E2E2F5F5F5F5F5F5F5F5F5F5F5E2F5F5F5F5F5F5F5F5F5F5F5F5F5F5E2F5F5F5F5F5F5F5F5F5F5F5F5F5F5F5F5F5F5F5F5F5F5F5F5F5F5F5F5F5F5F5F5F5F5F5F5F5F5F5F5F5F5F5F5F5F5F5F5F5F5F5F5F5F5F5F5F5F5F5F5F5F5F5F5F5F5F5F5F5F5
310
F5F5F5F5F5F5F5F5F5F5F5F5F5F5F5F5F5F5F5F5F5F5F5F5F5F5F5F5F5F5F5F5F5F5F5F5F5F5F5F5F5F5F5F5F5F5F5F5F5F5F5F5F5E2F5F5F5F5F5F5F5F5F5F5F5F5F5F5E2F5F5F5F5F5F5F5F5F5F5F5E2E2E2F5F5F5F5F5F5F5F5F5F5F5E2F5F5F5F5F5F5F5F5F5F5F5F5F5F5E2F5F5F5F5F5F5F5F5F5F5F5F5F5F5F5F5F5
310
F5F5F5F5F5F5F5F5F5F5F5F5F5F5F5F5F5F5F5F5F5F5F5F5F5F5F5F5F5F5F5F5F5F5F5F5F5F5F5F5F5F5F5F5F5F5F5F5F5F5F5F5F5F5F5F5F5F5F5F5F5F5F5F5F5F5F5F5F5F5F5F5F5F5F5F5F5F5F5F5F5F5F5F5F5F5F5F5F5F5F5F5F5F5F5F5F5F5F5F5F5F5F5F5F5F5E2F5F5F5F5F5F5F5F5F5F5F5F5F5F5E2F5F5F5F5F5
310
F5F5F5F5F5F5E2E2E2F5F5F5F5F5F5F5F5F5F5F5E2F5F5F5F5F5F5F5F5F5F5F5F5F5F5E2F5F5F5F5F5F5F5F5F5F5F5F5F5F5F5F5F5F5F5F5F5F5F5F5F5F5F5F5F5F5F5F5F5F5F5F5F5F5F5F5F5F5F5F5F5F5F5F5F5F5F5F5F5F5F5F5F5F5F5F5F5F5F5F5F5F5F5F5F5F5F5F5F5F5F5F5F5F5F5F5F5F5F5F5F5F5F5F5F5F5F5
310
F5F5F5F5F5F5F5F5F5F5F5F5F5F5F5F5F5F5F5F5F5F5F5F5F5F5F5F5F5F5F5F5E2F5F5F5F5F5F5F5F5F5F5F5F5F5F5E2F5F5F5F5F5F5F5F5F5F5F5E2E2E2F5F5F5F5F5F5F5F5F5F5F5E2F5F5F5F5F5F5F5F5F5F5F5F5F5F5E2F5F5F5F5F5F5F5F5F5F5F5F5F5F5F5F5F5F5F5F5F5F5F5F5F5F5F5F5F5F5F5F5F5F5F5F5F5F5
310
F5F5F5F5F5F5F5F5F5F5F5F5F5F5F5F5F5F5F5F5F5F5F5F5F5F5F5F5F5F5F5F5F5F5F5F5F5F5F5F5F5F5F5F5F5F5F5F5F5F5F5F5F5F5F5F5F5F5F5F5F5F5F5F5F5F5F5F5F5F5F5F5F5F5F5F5F5F5F5F5F5F5F5F5F5E2F5F5F5F5F5F5F5F5F5F5F5F5F5F5E2F5F5F5F5F5F5F5F5F5F5F5E2E2E2F5F5F5F5F5F5F5F5F5F5F5E2
310
F5F5F5F5F5F5F5F5F5F5F5F5F5F5E2F5F5F5F5F5F5F5F5F5F5F5F5F5F5F5F5F5F5F5F5F5F5F5F5F5F5F5F5F5F5F5F5F5F5F5F5F5F5F5F5F5F5F5F5F5F5F5F5F5F5F5F5F5F5F5F5F5F5F5F5F5F5F5F5F5F5F5F5F5F5F5F5F5F5F5F5F5F5F5F5F5F5F5F5F5F5F5F5F5F5F5F5F5F5F5F5F5F5F5F5F5F5F5F5F5F5F5F5F5F5F5F5
310
F5F5F5F5F5F5F5F5F5F5F5E2F5F5F5F5F5F5F5F5F5F5F5F5F5F5E2F5F5F5F5F5F5F5F5F5F5F5E2E2E2F5F5F5F5F5F5F5F5F5F5F5E2F5F5F5F5F5F5F5F5F5F5F5F5F5F5E2F5F5F5F5F5F5F5F5F5F5F5F5F5F5F5F5F5F5F5F5F5F5F5F5F5F5F5F5F5F5F5F5F5F5F5F5F5F5F5F5F5F5F5F5F5F5F5F5F5F5F5F5F5F5F5F5F5F5F5
310
F5F5F5F5F5F5F5F5F5F5F5F5F5F5F5F5F5F5F5F5F5F5F5F5F5F5F5F5F5F5F5F5F5F5F5F5F5F5F5F5F5F5F5F5F5F5F5F5F5F5F5F5F5F5F5F5F5F5F5F5F5F5F5F5E2F5F5F5F5F5F5F5F5F5F5F5F5F5F5E2F5F5F5F5F5F5F5F5F5F5F5E2E2E2F5F5F5F5F5F5F5F5F5F5F5E2F5F5F5F5F5F5F5F5F5F5F5F5F5F5E2F5F5F5F5F5F5
310
F5F5F5F5F5F5F5F5F5F5F5F5F5F5F5F5F5F5F5F5F5F5F5F5F5F5F5F5F5F5F5F5F5F5F5F5F5F5F5F5F5F5F5F5F5F5F5F5F5F5F5F5F5F5F5F5F5F5F5F5F5F5F5F5F5F5F5F5F5F5F5F5F5F5F5F5F5F5F5F5F5F5F5F5F5F5F5F5F5F5F5F5F5F5F5F5F5F5F5F5F5F5F5F5F5F5F5F5F5F5F5F5F5F5F5F5F5E2F5F5F5F5F5F5F5F5F5
310
F5F5F5F5F5E2F5F5F5F5F5F5F5F5F5F5F5E2E2E2F5F5F5F5F5F5F5F5F5F5F5E2F5F5F5F5F5F5F5F5F5F5F5F5F5F5E2F5F5F5F5F5F5F5F5F5F5F5F5F5F5F5F5F5F5F5F5F5F5F5F5F5F5F5F5F5F5F5F5F5F5F5F5F5F5F5F5F5F5F5F5F5F5F5F5F5F5F5F5F5F5F5F5F5F5F5F5F5F5F5F5F5F5F5F5F5F5F5F5F5F5F5F5F5F5F5F5
310
F5F5F5F5F5F5F5F5F5F5F5F5F5F5F5F5F5F5F5F5F5F5F5F5F5F5F5F5F5F5F5F5F5F5F5F5F5F5F5F5F5F5F5E2F5F5F5F5F5F5F5F5F5F5F5F5F5F5E2F5F5F5F5F5F5F5F5F5F5F5E2E2E2F5F5F5F5F5F5F5F5F5F5F5E2F5F5F5F5F5F5F5F5F5F5F5F5F5F5E2F5F5F5F5F5F5F5F5F5F5F5F5F5F5F5F5F5F5F5F5F5F5F5F5F5F5F5
310
F5F5F5F5F5F5F5F5F5F5F5F5F5F5F5F5F5F5F5F5F5F5F5F5F5F5F5F5F5F5F5F5F5F5F5F5F5F5F5F5F5F5F5F5F5F5F5F5F5F5F5F5F5F5F5F5F5F5F5F5F5F5F5F5F5F5F5F5F5F5F5F5F5F5F5F5F5F5F5F5F5F5F5F5F5F5F5F5F5F5F5F5F5F5F5F5E2F5F5F5F5F5F5F5F5F5F5F5F5F5F5E2F5F5F5F5F5F5F5F5F5F5F5E2E2E2F5
310
F5F5F5F5F5F5F5F5F5F5E2F5F5F5F5F5F5F5F5F5F5F5F5F5F5E2F5F5F5F5F5F5F5F5F5F5F5F5F5F5F5F5F5F5F5F5F5F5F5F5F5F5F5F5F5F5F5F5F5F5F5F5F5F5F5F5F5F5F5F5F5F5F5F5F5F5F5F5F5F5F5F5F5F5F5F5F5F5F5F5F5F5F5F5F5F5F5F5F5F5F5F5F5F5F5F5F5F5F5F5F5F5F5F5F5F5F5F5F5F5F5F5F5F5F5F5F5
310
F5F5F5F5F5F5F5F5F5F5F5F5F5F5F5F5F5F5F5F5F5F5E2F5F5F5F5F5F5F5F5F5F5F5F5F5F5E2F5F5F5F5F5F5F5F5F5F5F5E2E2E2F5F5F5F5F5F5F5F5F5F5F5F5F5F5F5F5F5F5F5F5F5F5F5F5F5F5E2F5F5F5F5F5F5F5F5F5F5F5F5F5F5F5F5F5F5F5F5F5F5F5F5F5F5F5F5F5F5F5F5F5F5F5F5F5F5F5F5F5F5F5F5F5F5F5F5
310
F5F5F5F5F5F5F5F5F5F5F5F5F5F5F5F5F5F5F5F5F5F5F5F5F5F5F5F5F5F5F5F5F5F5F5F5F5F5F5F5F5F5F5F5F5F5F5F5F5F5F5F5F5F5F5F5F5F5F5F5F5F5F5F5F5F5F5F5F5F5F5F5F5F5F5E2F5F5F5F5F5F5F5F5F5F5F5F5F5F5F5F5F5F5F5F5F5F5F5F5F5F5E2E2E2F5F5F5F5F5F5F5F5F5F5F5F5F5F5F5F5F5F5F5F5F5F5
310
F5F5F5F5E2F5F5F5F5F5F5F5F5F5F5F5F5F5F5F5F5F5F5F5F5F5F5F5F5F5F5F5F5F5F5F5F5F5F5F5F5F5F5F5F5F5F5F5F5F5F5F5F5F5F5F5F5F5F5F5F5F5F5F5F5F5F5F5F5F5F5F5F5F5F5F5F5F5F5F5F5F5F5F5F5F5F5F5F5F5F5F5F5F5F5F5F5F5F5F5F5F5F5F5F5F5F5F5F5F5F5F5F5F5F5F5F5F5F5F5F5F5F5F5F5F5F5
310
F5E2F5F5F5F5F5F5F5F5F5F5F5F5F5F5F5F5F5F5F5F5F5F5F5F5F5F5E2E2E2F5F5F5F5F5F5F5F5F5F5F5F5F5F5F5F5F5F5F5F5F5F5F5F5F5F5E2F5F5F5F5F5F5F5F5F5F5F5F5F5F5F5F5F5F5F5F5F5F5F5F5F5F5F5F5F5F5F5F5F5F5F5F5F5F5F5F5F5F5F5F5F5F5F5F5F5F5F5F5F5F5F5F5F5F5F5F5F5F5F5F5F5F5F5F5F5
310
F5F5F5F5F5F5F5F5F5F5F5F5F5F5F5F5F5F5F5F5F5F5F5F5F5F5F5F5F5F5F5F5F5F5F5F5F5F5F5F5F5F5F5F5F5F5F5F5F5F5F5F5F5F5E2F5F5F5F5F5F5F5F5F5F5F5F5F5F5F5F5F5F5F5F5F5F5F5F5F5F5E2E2E2F5F5F5F5F5F5F5F5F5F5F5F5F5F5F5F5F5F5F5F5F5F5F5F5F5F5E2F5F5F5F5F5F5F5F5F5F5F5F5F5F5F5F5
310
F5F5F5F5F5F5F5F5F5F5F5F5F5F5F5F5F5F5F5F5F5F5F5F5F5F5F5F5F5F5F5F5F5F5F5F5F5F5F5F5F5F5F5F5F5F5F5F5F5F5F5F5F5F5F5F5F5F5F5F5F5F5F5F5F5F5F5F5F5F5F5F5F5F5F5F5F5F5F5F5F5F5F5F5F5F5F5F5F5F5F5F5F5F5F5F5F5F5F5F5F5F5F5F5F5F5F5E2F5F5F5F5F5F5F5F5F5F5F5F5F5F5F5F5F5F5F5
310
F5F5F5F5F5F5F5E2E2E2F5F5F5F5F5F5F5F5F5F5F5F5F5F5F5F5F5F5F5F5F5F5F5F5F5F5E2F5F5F5F5F5F5F5F5F5F5F5F5F5F5F5F5F5F5F5F5F5F5F5F5F5F5F5F5F5F5F5F5F5F5F5F5F5F5F5F5F5F5F5F5F5F5F5F5F5F5F5F5F5F5F5F5F5F5F5F5F5F5F5F5F5F5F5F5F5F5F5F5F5F5F5F5F5F5F5F5F5F5F5F5F5F5F5F5F5F5
310
F5F5F5F5F5F5F5F5F5F5F5F5F5F5F5F5F5F5F5F5F5F5F5F5F5F5F5F5F5F5F5F5F5E2F5F5F5F5F5F5F5F5F5F5F5F5F5F5F5F5F5F5F5F5F5F5F5F5F5F5E2E2E2F5F5F5F5F5F5F5F5F5F5F5F5F5F5F5F5F5F5F5F5F5F5F5F5F5F5E2F5F5F5F5F5F5F5F5F5F5F5F5F5F5F5F5F5F5F5F5F5F5F5F5F5F5F5F5F5F5F5F5F5F5F5F5F5
310
F5F5F5F5F5F5F5F5F5F5F5F5F5F5F5F5F5F5F5F5F5F5F5F5F5F5F5F5F5F5F5F5F5F5F5F5F5F5F5F5F5F5F5F5F5F5F5F5F5F5F5F5F5F5F5F5F5F5F5F5F5F5F5F5F5F5F5F5F5F5F5F5F5F5F5F5F5F5F5F5F5F5F5F5F5F5E2F5F5F5F5F5F5F5F5F5F5F5F5F5F5F5F5F5F5F5F5F5F5F5F5F5F5E2E2E2F5F5F5F5F5F5F5F5F5F5F5
310
F5F5F5F5F5F5F5F5F5F5F5F5F5F5F5E2F5F5F5F5F5F5F5F5F5F5F5F5F5F5F5F5F5F5F5F5F5F5F5F5F5F5F5F5F5F5F5F5F5F5F5F5F5F5F5F5F5F5F5F5F5F5F5F5F5F5F5F5F5F5F5F5F5F5F5F5F5F5F5F5F5F5F5F5F5F5F5F5F5F5F5F5F5F5F5F5F5F5F5F5F5F5F5F5F5F5F5F5F5F5F5F5F5F5F5F5F5F5F5F5F5F5F5F5F5F5F5
310
F5F5F5F5F5F5F5F5F5F5F5F5E2F5F5F5F5F5F5F5F5F5F5F5F5F5F5F5F5F5F5F5F5F5F5F5F5F5F5E2E2E2F5F5F5F5F5F5F5F5F5F5F5F5F5F5F5F5F5F5F5F5F5F5F5F5F5F5E2F5F5F5F5F5F5F5F5F5F5F5F5F5F5F5F5F5F5F5F5F5F5F5F5F5F5F5F5F5F5F5F5F5F5F5F5F5F5F5F5F5F5F5F5F5F5F5F5F5F5F5F5F5F5F5F5F5F5
310
F5F5F5F5F5F5F5F5F5F5F5F5F5F5F5F5F5F5F5F5F5F5F5F5F5F5F5F5F5F5F5F5F5F5F5F5F5F5F5F5F5F5F5F5F5F5F5F5F5F5F5F5F5F5F5F5F5F5F5F5F5F5F5F5F5E2F5F5F5F5F5F5F5F5F5F5F5F5F5F5F5F5F5F5F5F5F5F5F5F5F5F5E2E2E2F5F5F5F5F5F5F5F5F5F5F5E2F5F5F5F5F5F5F5F5F5F5F5F5F5F5E2F5F5F5F5F5
310
F5F5F5F5F5F5F5F5F5F5F5F5F5F5F5F5F5F5F5F5F5F5F5F5F5F5F5F5F5F5F5F5F5F5F5F5F5F5F5F5F5F5F5F5F5F5F5F5F5F5F5F5F5F5F5F5F5F5F5F5F5F5F5F5F5F5F5F5F5F5F5F5F5F5F5F5F5F5F5F5F5F5F5F5F5F5F5F5F5F5F5F5F5F5F5F5F5F5F5F5F5F5F5F5F5F5F5F5F5F5F5F5F5F5F5F5F5F5E2F5F5F5F5F5F5F5F5
310
F5F5F5F5F5F5E2F5F5F5F5F5F5F5F5F5F5F5E2E2E2F5F5F5F5F5F5F5F5F5F5F5E2F5F5F5F5F5F5F5F5F5F5F5F5F5F5E2F5F5F5F5F5F5F5F5F5F5F5F5F5F5F5F5F5F5F5F5F5F5F5F5F5F5F5F5F5F5F5F5F5F5F5F5F5F5F5F5F5F5F5F5F5F5F5F5F5F5F5F5F5F5F5F5F5F5F5F5F5F5F5F5F5F5F5F5F5F5F5F5F5F5F5F5F5F5F5
310
F5F5F5F5F5F5F5F5F5F5F5F5F5F5F5F5F5F5F5F5F5F5F5F5F5F5F5F5F5F5F5F5F5F5F5F5F5F5F5F5F5F5F5F5E2F5F5F5F5F5F5F5F5F5F5F5F5F5F5E2F5F5F5F5F5F5F5F5F5F5F5E2E2E2F5F5F5F5F5F5F5F5F5F5F5E2F5F5F5F5F5F5F5F5F5F5F5F5F5F5E2F5F5F5F5F5F5F5F5F5F5F5F5F5F5F5F5F5F5F5F5F5F5F5F5F5F5
310
F5F5F5F5F5F5F5F5F5F5F5F5F5F5F5F5F5F5F5F5F5F5F5F5F5F5F5F5F5F5F5F5F5F5F5F5F5F5F5F5F5F5F5F5F5F5F5F5F5F5F5F5F5F5F5F5F5F5F5F5F5F5F5F5F5F5F5F5F5F5F5F5F5F5F5F5F5F5F5F5F5F5F5F5F5F5F5F5F5F5F5F5F5F5F5F5F5E2F5F5F5F5F5F5F5F5F5F5F5F5F5F5E2F5F5F5F5F5F5F5F5F5F5F5E2E2E2
310
F5F5F5F5F5F5F5F5F5F5F5E2F5F5F5F5F5F5F5F5F5F5F5F5F5F5E2F5F5F5F5F5F5F5F5F5F5F5F5F5F5F5F5F5F5F5F5F5F5F5F5F5F5F5F5F5F5F5F5F5F5F5F5F5F5F5F5F5F5F5F5F5F5F5F5F5F5F5F5F5F5F5F5F5F5F5F5F5F5F5F5F5F5F5F5F5F5F5F5F5F5F5F5F5F5F5F5F5F5F5F5F5F5F5F5F5F5F5F5F5F5F5F5F5F5F5F5
310
F5F5F5F5F5F5F5F5F5F5F5F5F5F5F5F5F5F5F5F5F5F5F5E2F5F5F5F5F5F5F5F5F5F5F5F5F5F5E2F5F5F5F5F5F5F5F5F5F5F5E2E2E2F5F5F5F5F5F5F5F5F5F5F5E2F5F5F5F5F5F5F5F5F5F5F5F5F5F5E2F5F5F5F5F5F5F5F5F5F5F5F5F5F5F5F5F5F5F5F5F5F5F5F5F5F5F5F5F5F5F5F5F5F5F5F5F5F5F5F5F5F5F5F5F5F5F5
310
F5F5F5F5F5F5F5F5F5F5F5F5F5F5F5F5F5F5F5F5F5F5F5F5F5F5F5F5F5F5F5F5F5F5F5F5F5F5F5F5F5F5F5F5F5F5F5F5F5F5F5F5F5F5F5F5F5F5F5F5F5F5F5F5F5F5F5F5F5F5F5F5F5F5F5F5E2F5F5F5F5F5F5F5F5F5F5F5F5F5F5E2F5F5F5F5F5F5F5F5F5F5F5E2E2E2F5F5F5F5F5F5F5F5F5F5F5E2F5F5F5F5F5F5F5F5F5
310
F5F5F5F5F5E2F5F5F5F5F5F5F5F5F5F5F5F5F5F5F5F5F5F5F5F5F5F5F5F5F5F5F5F5F5F5F5F5F5F5F5F5F5F5F5F5F5F5F5F5F5F5F5F5F5F5F5F5F5F5F5F5F5F5F5F5F5F5F5F5F5F5F5F5F5F5F5F5F5F5F5F5F5F5F5F5F5F5F5F5F5F5F5F5F5F5F5F5F5F5F5F5F5F5F5F5F5F5F5F5F5F5F5F5F5F5F5F5F5F5F5F5F5F5F5F5F5
310
F5F5E2F5F5F5F5F5F5F5F5F5F5F5F5F5F5E2F5F5F5F5F5F5F5F5F5F5F5E2E2E2F5F5F5F5F5F5F5F5F5F5F5E2F5F5F5F5F5F5F5F5F5F5F5F5F5F5E2F5F5F5F5F5F5F5F5F5F5F5F5F5F5F5F5F5F5F5F5F5F5F5F5F5F5F5F5F5F5F5F5F5F5F5F5F5F5F5F5F5F5F5F5F5F5F5F5F5F5F5F5F5F5F5F5F5F5F5F5F5F5F5F5F5F5F5F5
310
F5F5F5F5F5F5F5F5F5F5F5F5F5F5F5F5F5F5F5F5F5F5F5F5F5F5F5F5F5F5F5F5F5F5F5F5F5F5F5F5F5F5F5F5F5F5F5F5F5F5F5F5F5F5F5E2F5F5F5F5F5F5F5F5F5F5F5F5F5F5E2F5F5F5F5F5F5F5F5F5F5F5E2E2E2F5F5F5F5F5F5F5F5F5F5F5E2F5F5F5F5F5F5F5F5F5F5F5F5F5F5E2F5F5F5F5F5F5F5F5F5F5F5F5F5F5F5
310
F5F5F5F5F5F5F5F5F5F5F5F5F5F5F5F5F5F5F5F5F5F5F5F5F5F5F5F5F5F5F5F5F5F5F5F5F5F5F5F5F5F5F5F5F5F5F5F5F5F5F5F5F5F5F5F5F5F5F5F5F5F5F5F5F5F5F5F5F5F5F5F5F5F5F5F5F5F5F5F5F5F5F5F5F5F5F5F5F5F5F5F5F5F5F5F5F5F5F5F5F5F5F5F5F5F5F5F5E2F5F5F5F5F5F5F5F5F5F5F5F5F5F5E2F5F5F5
310
F5F5F5F5F5F5F5F5E2E2E2F5F5F5F5F5F5F5F5F5F5F5E2F5F5F5F5F5F5F5F5F5F5F5F5F5F5E2F5F5F5F5F5F5F5F5F5F5F5F5F5F5F5F5F5F5F5F5F5F5F5F5F5F5F5F5F5F5F5F5F5F5F5F5F5F5F5F5F5F5F5F5F5F5F5F5F5F5F5F5F5F5F5F5F5F5F5F5F5F5F5F5F5F5F5F5F5F5F5F5F5F5F5F5F5F5F5F5F5F5F5F5F5F5F5F5F5
310
F5F5F5F5F5F5F5F5F5F5F5F5F5F5F5F5F5F5F5F5F5F5F5F5F5F5F5F5F5F5F5F5F5F5E2F5F5F5F5F5F5F5F5F5F5F5F5F5F5E2F5F5F5F5F5F5F5F5F5F5F5E2E2E2F5F5F5F5F5F5F5F5F5F5F5E2F5F5F5F5F5F5F5F5F5F5F5F5F5F5E2F5F5F5F5F5F5F5F5F5F5F5F5F5F5F5F5F5F5F5F5F5F5F5F5F5F5F5F5F5F5F5F5F5F5F5F5
310
F5F5F5F5F5F5F5F5F5F5F5F5F5F5F5F5F5F5F5F5F5F5F5F5F5F5F5F5F5F5F5F5F5F5F5F5F5F5F5F5F5F5F5F5F5F5F5F5F5F5F5F5F5F5F5F5F5F5F5F5F5F5F5F5F5F5F5F5F5F5F5F5F5F5F5F5F5F5F5F5F5F5F5F5F5F5F5E2F5F5F5F5F5F5F5F5F5F5F5F5F5F5E2F5F5F5F5F5F5F5F5F5F5F5E2E2E2F5F5F5F5F5F5F5F5F5F5
310
F5E2F5F5F5F5F5F5F5F5F5F5F5F5F5F5E2F5F5F5F5F5F5F5F5F5F5F5F5F5F5F5F5F5F5F5F5F5F5F5F5F5F5F5F5F5F5F5F5F5F5F5F5F5F5F5F5F5F5F5F5F5F5F5F5F5F5F5F5F5F5F5F5F5F5F5F5F5F5F5F5F5F5F5F5F5F5F5F5F5F5F5F5F5F5F5F5F5F5F5F5F5F5F5F5F5F5F5F5F5F5F5F5F5F5F5F5F5F5F5F5F5F5F5F5F5F5
310
F5F5F5F5F5F5F5F5F5F5F5F5F5E2F5F5F5F5F5F5F5F5F5F5F5F5F5F5E2F5F5F5F5F5F5F5F5F5F5F5E2E2E2F5F5F5F5F5F5F5F5F5F5F5E2F5F5F5F5F5F5F5F5F5F5F5F5F5F5E2F5F5F5F5F5F5F5F5F5F5F5F5F5F5F5F5F5F5F5F5F5F5F5F5F5F5F5F5F5F5F5F5F5F5F5F5F5F5F5F5F5F5F5F5F5F5F5F5F5F5F5F5F5F5F5F5F5
310
F5F5F5F5F5F5F5F5F5F5F5F5F5F5F5F5F5F5F5F5F5F5F5F5F5F5F5F5F5F5F5F5F5F5F5F5F5F5F5F5F5F5F5F5F5F5F5F5F5F5F5F5F5F5F5F5F5F5F5F5F5F5F5F5F5F5E2F5F5F5F5F5F5F5F5F5F5F5F5F5F5E2F5F5F5F5F5F5F5F5F5F5F5E2E2E2F5F5F5F5F5F5F5F5F5F5F5E2F5F5F5F5F5F5F5F5F5F5F5F5F5F5E2F5F5F5F5
310
F5F5F5F5F5F5F5F5F5F5F5F5F5F5F5F5F5F5F5F5F5F5F5F5F5F5F5F5F5F5F5F5F5F5F5F5F5F5F5F5F5F5F5F5F5F5F5F5F5F5F5F5F5F5F5F5F5F5F5F5F5F5F5F5F5F5F5F5F5F5F5F5F5F5F5F5F5F5F5F5F5F5F5F5F5F5F5F5F5F5F5F5F5F5F5F5F5F5F5F5F5F5F5F5F5F5F5F5F5F5F5F5F5F5F5F5F5F5F5E2F5F5F5F5F5F5F5
310
F5F5F5F5F5F5F5E2F5F5F5F5F5F5F5F5F5F5F5E2E2E2F5F5F5F5F5F5F5F5F5F5F5E2F5F5F5F5F5F5F5F5F5F5F5F5F5F5E2F5F5F5F5F5F5F5F5F5F5F5F5F5F5F5F5F5F5F5F5F5F5F5F5F5F5F5F5F5F5F5F5F5F5F5F5F5F5F5F5F5F5F5F5F5F5F5F5F5F5F5F5F5F5F5F5F5F5F5F5F5F5F5F5F5F5F5F5F5F5F5F5F5F5F5F5F5F5
310
F5F5F5F5F5F5F5F5F5F5F5F5F5F5F5F5F5F5F5F5F5F5F5F5F5F5F5F5F5F5F5F5F5F5F5F5F5F5F5F5F5F5F5F5F5E2F5F5F5F5F5F5F5F5F5F5F5F5F5F5E2F5F5F5F5F5F5F5F5F5F5F5E2E2E2F5F5F5F5F5F5F5F5F5F5F5E2F5F5F5F5F5F5F5F5F5F5F5F5F5F5E2F5F5F5F5F5F5F5F5F5F5F5F5F5F5F5F5F5F5F5F5F5F5F5F5F5
310
F5F5F5F5F5F5F5F5F5F5F5F5F5F5F5F5F5F5F5F5F5F5F5F5F5F5F5F5F5F5F5F5F5F5F5F5F5F5F5F5F5F5F5F5F5F5F5F5F5F5F5F5F5F5F5F5F5F5F5F5F5F5F5F5F5F5F5F5F5F5F5F5F5F5F5F5F5F5F5F5F5F5F5F5F5F5F5F5F5F5F5F5F5F5F5F5F5F5E2F5F5F5F5F5F5F5F5F5F5F5F5F5F5E2F5F5F5F5F5F5F5F5F5F5F5E2E2
310
E2F5F5F5F5F5F5F5F5F5F5F5F5F5F5F5F5F5F5F5F5F5F5F5F5F5F5E2F5F5F5F5F5F5F5F5F5F5F5F5F5F5F5F5F5F5F5F5F5F5F5F5F5F5F5F5F5F5F5F5F5F5F5F5F5F5F5F5F5F5F5F5F5F5F5F5F5F5F5F5F5F5F5F5F5F5F5F5F5F5F5F5F5F5F5F5F5F5F5F5F5F5F5F5F5F5F5F5F5F5F5F5F5F5F5F5F5F5F5F5F5F5F5F5F5F5F5
310
F5F5F5F5F5F5F5F5F5F5F5F5F5F5F5F5F5F5F5F5F5F5F5F5E2F5F5F5F5F5F5F5F5F5F5F5F5F5F5F5F5F5F5F5F5F5F5F5F5F5F5E2E2E2F5F5F5F5F5F5F5F5F5F5F5F5F5F5F5F5F5F5F5F5F5F5F5F5F5F5E2F5F5F5F5F5F5F5F5F5F5F5F5F5F5F5F5F5F5F5F5F5F5F5F5F5F5F5F5F5F5F5F5F5F5F5F5F5F5F5F5F5F5F5F5F5F5
310
F5F5F5F5F5F5F5F5F5F5F5F5F5F5F5F5F5F5F5F5F5F5F5F5F5F5F5F5F5F5F5F5F5F5F5F5F5F5F5F5F5F5F5F5F5F5F5F5F5F5F5F5F5F5F5F5F5F5F5F5F5F5F5F5F5F5F5F5F5F5F5F5F5F5F5F5F5E2F5F5F5F5F5F5F5F5F5F5F5F5F5F5F5F5F5F5F5F5F5F5F5F5F5F5E2E2E2F5F5F5F5F5F5F5F5F5F5F5F5F5F5F5F5F5F5F5F5
310
F5F5F5F5F5F5E2F5F5F5F5F5F5F5F5F5F5F5F5F5F5F5F5F5F5F5F5F5F5F5F5F5F5F5F5F5F5F5F5F5F5F5F5F5F5F5F5F5F5F5F5F5F5F5F5F5F5F5F5F5F5F5F5F5F5F5F5F5F5F5F5F5F5F5F5F5F5F5F5F5F5F5F5F5F5F5F5F5F5F5F5F5F5F5F5F5F5F5F5F5F5F5F5F5F5F5F5F5F5F5F5F5F5F5F5F5F5F5F5F5F5F5F5F5F5F5F5
310
F5F5F5E2F5F5F5F5F5F5F5F5F5F5F5F5F5F5F5F5F5F5F5F5F5F5F5F5F5F5E2E2E2F5F5F5F5F5F5F5F5F5F5F5F5F5F5F5F5F5F5F5F5F5F5F5F5F5F5E2F5F5F5F5F5F5F5F5F5F5F5F5F5F5F5F5F5F5F5F5F5F5F5F5F5F5F5F5F5F5F5F5F5F5F5F5F5F5F5F5F5F5F5F5F5F5F5F5F5F5F5F5F5F5F5F5F5F5F5F5F5F5F5F5F5F5F5
310
F5F5F5F5F5F5F5F5F5F5F5F5F5F5F5F5F5F5F5F5F5F5F5F5F5F5F5F5F5F5F5F5F5F5F5F5F5F5F5F5F5F5F5F5F5F5F5F5F5F5F5F5F5F5F5F5E2F5F5F5F5F5F5F5F5F5F5F5F5F5F5F5F5F5F5F5F5F5F5F5F5F5F5E2E2E2F5F5F5F5F5F5F5F5F5F5F5F5F5F5F5F5F5F5F5F5F5F5F5F5F5F5E2F5F5F5F5F5F5F5F5F5F5F5F5F5F5
310
F5F5F5F5F5F5F5F5F5F5F5F5F5F5F5F5F5F5F5F5F5F5F5F5F5F5F5F5F5F5F5F5F5F5F5F5F5F5F5F5F5F5F5F5F5F5F5F5F5F5F5F5F5F5F5F5F5F5F5F5F5F5F5F5F5F5F5F5F5F5F5F5F5F5F5F5F5F5F5F5F5F5F5F5F5F5F5F5F5F5F5F5F5F5F5F5F5F5F5F5F5F5F5F5F5F5F5F5F5E2F5F5F5F5F5F5F5F5F5F5F5F5F5F5F5F5F5
310
F5F5F5F5F5F5F5F5F5E2E2E2F5F5F5F5F5F5F5F5F5F5F5F5F5F5F5F5F5F5F5F5F5F5F5F5F5F5E2F5F5F5F5F5F5F5F5F5F5F5F5F5F5F5F5F5F5F5F5F5F5F5F5F5F5F5F5F5F5F5F5F5F5F5F5F5F5F5F5F5F5F5F5F5F5F5F5F5F5F5F5F5F5F5F5F5F5F5F5F5F5F5F5F5F5F5F5F5F5F5F5F5F5F5F5F5F5F5F5F5F5F5F5F5F5F5F5
310
F5F5F5F5F5F5F5F5F5F5F5F5F5F5F5F5F5F5F5F5F5F5F5F5F5F5F5F5F5F5F5F5F5F5F5E2F5F5F5F5F5F5F5F5F5F5F5F5F5F5F5F5F5F5F5F5F5F5F5F5F5F5E2E2E2F5F5F5F5F5F5F5F5F5F5F5F5F5F5F5F5F5F5F5F5F5F5F5F5F5F5E2F5F5F5F5F5F5F5F5F5F5F5F5F5F5F5F5F5F5F5F5F5F5F5F5F5F5F5F5F5F5F5F5F5F5F5
310
F5F5F5F5F5F5F5F5F5F5F5F5F5F5F5F5F5F5F5F5F5F5F5F5F5F5F5F5F5F5F5F5F5F5F5F5F5F5F5F5F5F5F5F5F5F5F5F5F5F5F5F5F5F5F5F5F5F5F5F5F5F5F5F5F5F5F5F5F5F5F5F5F5F5F5F5F5F5F5F5F5F5F5F5F5F5F5F5E2F5F5F5F5F5F5F5F5F5F5F5F5F5F5F5F5F5F5F5F5F5F5F5F5F5F5E2E2E2F5F5F5F5F5F5F5F5F5
310
F5F5F5F5F5F5F5F5F5F5F5F5F5F5F5F5F5E2F5F5F5F5F5F5F5F5F5F5F5F5F5F5F5F5F5F5F5F5F5F5F5F5F5F5F5F5F5F5F5F5F5F5F5F5F5F5F5F5F5F5F5F5F5F5F5F5F5F5F5F5F5F5F5F5F5F5F5F5F5F5F5F5F5F5F5F5F5F5F5F5F5F5F5F5F5F5F5F5F5F5F5F5F5F5F5F5F5F5F5F5F5F5F5F5F5F5F5F5F5F5F5F5F5F5F5F5F5
310
F5F5F5F5F5F5F5F5F5F5F5F5F5F5E2F5F5F5F5F5F5F5F5F5F5F5F5F5F5F5F5F5F5F5F5F5F5F5F5F5F5E2E2E2F5F5F5F5F5F5F5F5F5F5F5F5F5F5F5F5F5F5F5F5F5F5F5F5F5F5E2F5F5F5F5F5F5F5F5F5F5F5F5F5F5F5F5F5F5F5F5F5F5F5F5F5F5F5F5F5F5F5F5F5F5F5F5F5F5F5F5F5F5F5F5F5F5F5F5F5F5F5F5F5F5F5F5
310
F5F5F5F5F5F5F5F5F5F5F5F5F5F5F5F5F5F5F5F5F5F5F5F5F5F5F5F5F5F5F5F5F5F5F5F5F5F5F5F5F5F5F5F5F5F5F5F5F5F5F5F5F5F5F5F5F5F5F5F5F5F5F5F5F5F5F5E2F5F5F5F5F5F5F5F5F5F5F5F5F5F5F5F5F5F5F5F5F5F5F5F5F5F5E2E2E2F5F5F5F5F5F5F5F5F5F5F5E2F5F5F5F5F5F5F5F5F5F5F5F5F5F5E2F5F5F5
310
F5F5F5F5F5F5F5F5F5F5F5F5F5F5F5F5F5F5F5F5F5F5F5F5F5F5F5F5F5F5F5F5F5F5F5F5F5F5F5F5F5F5F5F5F5F5F5F5F5F5F5F5F5F5F5F5F5F5F5F5F5F5F5F5F5F5F5F5F5F5F5F5F5F5F5F5F5F5F5F5F5F5F5F5F5F5F5F5F5F5F5F5F5F5F5F5F5F5F5F5F5F5F5F5F5F5F5F5F5F5F5F5F5F5F5F5F5F5F5F5E2F5F5F5F5F5F5
310
F5F5F5F5F5F5F5F5E2F5F5F5F5F5F5F5F5F5F5F5E2E2E2F5F5F5F5F5F5F5F5F5F5F5E2F5F5F5F5F5F5F5F5F5F5F5F5F5F5E2F5F5F5F5F5F5F5F5F5F5F5F5F5F5F5F5F5F5F5F5F5F5F5F5F5F5F5F5F5F5F5F5F5F5F5F5F5F5F5F5F5F5F5F5F5F5F5F5F5F5F5F5F5F5F5F5F5F5F5F5F5F5F5F5F5F5F5F5F5F5F5F5F5F5F5F5F5
310
F5F5F5F5F5F5F5F5F5F5F5F5F5F5F5F5F5F5F5F5F5F5F5F5F5F5F5F5F5F5F5F5F5F5F5F5F5F5F5F5F5F5F5F5F5F5E2F5F5F5F5F5F5F5F5F5F5F5F5F5F5E2F5F5F5F5F5F5F5F5F5F5F5E2E2E2F5F5F5F5F5F5F5F5F5F5F5E2F5F5F5F5F5F5F5F5F5F5F5F5F5F5E2F5F5F5F5F5F5F5F5F5F5F5F5F5F5F5F5F5F5F5F5F5F5F5F5
310
F5F5F5F5F5F5F5F5F5F5F5F5F5F5F5F5F5F5F5F5F5F5F5F5F5F5F5F5F5F5F5F5F5F5F5F5F5F5F5F5F5F5F5F5F5F5F5F5F5F5F5F5F5F5F5F5F5F5F5F5F5F5F5F5F5F5F5F5F5F5F5F5F5F5F5F5F5F5F5F5F5F5F5F5F5F5F5F5F5F5F5F5F5F5F5F5F5F5F5E2F5F5F5F5F5F5F5F5F5F5F5F5F5F5E2F5F5F5F5F5F5F5F5F5F5F5E2
310
E2E2F5F5F5F5F5F5F5F5F5F5F5E2F5F5F5F5F5F5F5F5F5F5F5F5F5F5E2F5F5F5F5F5F5F5F5F5F5F5F5F5F5F5F5F5F5F5F5F5F5F5F5F5F5F5F5F5F5F5F5F5F5F5F5F5F5F5F5F5F5F5F5F5F5F5F5F5F5F5F5F5F5F5F5F5F5F5F5F5F5F5F5F5F5F5F5F5F5F5F5F5F5F5F5F5F5F5F5F5F5F5F5F5F5F5F5F5F5F5F5F5F5F5F5F5F5
310
F5F5F5F5F5F5F5F5F5F5F5F5F5F5F5F5F5F5F5F5F5F5F5F5F5E2F5F5F5F5F5F5F5F5F5F5F5F5F5F5E2F5F5F5F5F5F5F5F5F5F5F5E2E2E2F5F5F5F5F5F5F5F5F5F5F5E2F5F5F5F5F5F5F5F5F5F5F5F5F5F5E2F5F5F5F5F5F5F5F5F5F5F5F5F5F5F5F5F5F5F5F5F5F5F5F5F5F5F5F5F5F5F5F5F5F5F5F5F5F5F5F5F5F5F5F5F5
310
F5F5F5F5F5F5F5F5F5F5F5F5F5F5F5F5F5F5F5F5F5F5F5F5F5F5F5F5F5F5F5F5F5F5F5F5F5F5F5F5F5F5F5F5F5F5F5F5F5F5F5F5F5F5F5F5F5F5F5F5F5F5F5F5F5F5F5F5F5F5F5F5F5F5F5F5F5F5E2F5F5F5F5F5F5F5F5F5F5F5F5F5F5E2F5F5F5F5F5F5F5F5F5F5F5E2E2E2F5F5F5F5F5F5F5F5F5F5F5E2F5F5F5F5F5F5F5
310
F5F5F5F5F5F5F5E2F5F5F5F5F5F5F5F5F5F5F5F5F5F5F5F5F5F5F5F5F5F5F5F5F5F5F5F5F5F5F5F5F5F5F5F5F5F5F5F5F5F5F5F5F5F5F5F5F5F5F5F5F5F5F5F5F5F5F5F5F5F5F5F5F5F5F5F5F5F5F5F5F5F5F5F5F5F5F5F5F5F5F5F5F5F5F5F5F5F5F5F5F5F5F5F5F5F5F5F5F5F5F5F5F5F5F5F5F5F5F5F5F5F5F5F5F5F5F5
310
F5F5F5F5E2F5F5F5F5F5F5F5F5F5F5F5F5F5F5E2F5F5F5F5F5F5F5F5F5F5F5E2E2E2F5F5F5F5F5F5F5F5F5F5F5E2F5F5F5F5F5F5F5F5F5F5F5F5F5F5E2F5F5F5F5F5F5F5F5F5F5F5F5F5F5F5F5F5F5F5F5F5F5F5F5F5F5F5F5F5F5F5F5F5F5F5F5F5F5F5F5F5F5F5F5F5F5F5F5F5F5F5F5F5F5F5F5F5F5F5F5F5F5F5F5F5F5
310
F5F5F5F5F5F5F5F5F5F5F5F5F5F5F5F5F5F5F5F5F5F5F5F5F5F5F5F5F5F5F5F5F5F5F5F5F5F5F5F5F5F5F5F5F5F5F5F5F5F5F5F5F5F5F5F5F5E2F5F5F5F5F5F5F5F5F5F5F5F5F5F5E2F5F5F5F5F5F5F5F5F5F5F5E2E2E2F5F5F5F5F5F5F5F5F5F5F5E2F5F5F5F5F5F5F5F5F5F5F5F5F5F5E2F5F5F5F5F5F5F5F5F5F5F5F5F5
310
F5F5F5F5F5F5F5F5F5F5F5F5F5F5F5F5F5F5F5F5F5F5F5F5F5F5F5F5F5F5F5F5F5F5F5F5F5F5F5F5F5F5F5F5F5F5F5F5F5F5F5F5F5F5F5F5F5F5F5F5F5F5F5F5F5F5F5F5F5F5F5F5F5F5F5F5F5F5F5F5F5F5F5F5F5F5F5F5F5F5F5F5F5F5F5F5F5F5F5F5F5F5F5F5F5F5F5F5F5F5E2F5F5F5F5F5F5F5F5F5F5F5F5F5F5E2F5
310
F5F5F5F5F5F5F5F5F5F5E2E2E2F5F5F5F5F5F5F5F5F5F5F5E2F5F5F5F5F5F5F5F5F5F5F5F5F5F5E2F5F5F5F5F5F5F5F5F5F5F5F5F5F5F5F5F5F5F5F5F5F5F5F5F5F5F5F5F5F5F5F5F5F5F5F5F5F5F5F5F5F5F5F5F5F5F5F5F5F5F5F5F5F5F5F5F5F5F5F5F5F5F5F5F5F5F5F5F5F5F5F5F5F5F5F5F5F5F5F5F5F5F5F5F5F5F5
310
F5F5F5F5F5F5F5F5F5F5F5F5F5F5F5F5F5F5F5F5F5F5F5F5F5F5F5F5F5F5F5F5F5F5F5F5E2F5F5F5F5F5F5F5F5F5F5F5F5F5F5E2F5F5F5F5F5F5F5F5F5F5F5E2E2E2F5F5F5F5F5F5F5F5F5F5F5E2F5F5F5F5F5F5F5F5F5F5F5F5F5F5E2F5F5F5F5F5F5F5F5F5F5F5F5F5F5F5F5F5F5F5F5F5F5F5F5F5F5F5F5F5F5F5F5F5F5
310
F5F5F5F5F5F5F5F5F5F5F5F5F5F5F5F5F5F5F5F5F5F5F5F5F5F5F5F5F5F5F5F5F5F5F5F5F5F5F5F5F5F5F5F5F5F5F5F5F5F5F5F5F5F5F5F5F5F5F5F5F5F5F5F5F5F5F5F5F5F5F5F5F5F5F5F5F5F5F5F5F5F5F5F5F5F5F5F5F5E2F5F5F5F5F5F5F5F5F5F5F5F5F5F5E2F5F5F5F5F5F5F5F5F5F5F5E2E2E2F5F5F5F5F5F5F5F5
310
F5F5F5E2F5F5F5F5F5F5F5F5F5F5F5F5F5F5E2F5F5F5F5F5F5F5F5F5F5F5F5F5F5F5F5F5F5F5F5F5F5F5F5F5F5F5F5F5F5F5F5F5F5F5F5F5F5F5F5F5F5F5F5F5F5F5F5F5F5F5F5F5F5F5F5F5F5F5F5F5F5F5F5F5F5F5F5F5F5F5F5F5F5F5F5F5F5F5F5F5F5F5F5F5F5F5F5F5F5F5F5F5F5F5F5F5F5F5F5F5F5F5F5F5F5F5F5
310
F5F5F5F5F5F5F5F5F5F5F5F5F5F5F5E2F5F5F5F5F5F5F5F5F5F5F5F5F5F5E2F5F5F5F5F5F5F5F5F5F5F5E2E2E2F5F5F5F5F5F5F5F5F5F5F5E2F5F5F5F5F5F5F5F5F5F5F5F5F5F5E2F5F5F5F5F5F5F5F5F5F5F5F5F5F5F5F5F5F5F5F5F5F5F5F5F5F5F5F5F5F5F5F5F5F5F5F5F5F5F5F5F5F5F5F5F5F5F5F5F5F5F5F5F5F5F5
310
F5F5F5F5F5F5F5F5F5F5F5F5F5F5F5F5F5F5F5F5F5F5F5F5F5F5F5F5F5F5F5F5F5F5F5F5F5F5F5F5F5F5F5F5F5F5F5F5F5F5F5F5F5F5F5F5F5F5F5F5F5F5F5F5F5F5F5F5E2F5F5F5F5F5F5F5F5F5F5F5F5F5F5E2F5F5F5F5F5F5F5F5F5F5F5E2E2E2F5F5F5F5F5F5F5F5F5F5F5E2F5F5F5F5F5F5F5F5F5F5F5F5F5F5E2F5F5
310
F5F5F5F5F5F5F5F5F5F5F5F5F5F5F5F5F5F5F5F5F5F5F5F5F5F5F5F5F5F5F5F5F5F5F5F5F5F5F5F5F5F5F5F5F5F5F5F5F5F5F5F5F5F5F5F5F5F5F5F5F5F5F5F5F5F5F5F5F5F5F5F5F5F5F5F5F5F5F5F5F5F5F5F5F5F5F5F5F5F5F5F5F5F5F5F5F5F5F5F5F5F5F5F5F5F5F5F5F5F5F5F5F5F5F5F5F5F5F5F5F5E2F5F5F5F5F5
310
F5F5F5F5F5F5F5F5F5E2F5F5F5F5F5F5F5F5F5F5F5E2E2E2F5F5F5F5F5F5F5F5F5F5F5E2F5F5F5F5F5F5F5F5F5F5F5F5F5F5E2F5F5F5F5F5F5F5F5F5F5F5F5F5F5F5F5F5F5F5F5F5F5F5F5F5F5F5F5F5F5F5F5F5F5F5F5F5F5F5F5F5F5F5F5F5F5F5F5F5F5F5F5F5F5F5F5F5F5F5F5F5F5F5F5F5F5F5F5F5F5F5F5F5F5F5F5
310
F5F5F5F5F5F5F5F5F5F5F5F5F5F5F5F5F5F5F5F5F5F5F5F5F5F5F5F5F5F5F5F5F5F5F5F5F5F5F5F5F5F5F5F5F5F5F5E2F5F5F5F5F5F5F5F5F5F5F5F5F5F5E2F5F5F5F5F5F5F5F5F5F5F5E2E2E2F5F5F5F5F5F5F5F5F5F5F5E2F5F5F5F5F5F5F5F5F5F5F5F5F5F5E2F5F5F5F5F5F5F5F5F5F5F5F5F5F5F5F5F5F5F5F5F5F5F5
310
F5F5F5F5F5F5F5F5F5F5F5F5F5F5F5F5F5F5F5F5F5F5F5F5F5F5F5F5F5F5F5F5F5F5F5F5F5F5F5F5F5F5F5F5F5F5F5F5F5F5F5F5F5F5F5F5F5F5F5F5F5F5F5F5F5F5F5F5F5F5F5F5F5F5F5F5F5F5F5F5F5F5F5F5F5F5F5F5F5F5F5F5F5F5F5F5F5F5F5F5E2F5F5F5F5F5F5F5F5F5F5F5F5F5F5E2F5F5F5F5F5F5F5F5F5F5F5
310
E2E2E2F5F5F5F5F5F5F5F5F5F5F5F5F5F5F5F5F5F5F5F5F5F5F5F5F5F5E2F5F5F5F5F5F5F5F5F5F5F5F5F5F5F5F5F5F5F5F5F5F5F5F5F5F5F5F5F5F5F5F5F5F5F5F5F5F5F5F5F5F5F5F5F5F5F5F5F5F5F5F5F5F5F5F5F5F5F5F5F5F5F5F5F5F5F5F5F5F5F5F5F5F5F5F5F5F5F5F5F5F5F5F5F5F5F5F5F5F5F5F5F5F5F5F5F5
310
F5F5F5F5F5F5F5F5F5F5F5F5F5F5F5F5F5F5F5F5F5F5F5F5F5F5E2F5F5F5F5F5F5F5F5F5F5F5F5F5F5F5F5F5F5F5F5F5F5F5F5F5F5E2E2E2F5F5F5F5F5F5F5F5F5F5F5F5F5F5F5F5F5F5F5F5F5F5F5F5F5F5E2F5F5F5F5F5F5F5F5F5F5F5F5F5F5F5F5F5F5F5F5F5F5F5F5F5F5F5F5F5F5F5F5F5F5F5F5F5F5F5F5F5F5F5F5
310
F5F5F5F5F5F5F5F5F5F5F5F5F5F5F5F5F5F5F5F5F5F5F5F5F5F5F5F5F5F5F5F5F5F5F5F5F5F5F5F5F5F5F5F5F5F5F5F5F5F5F5F5F5F5F5F5F5F5F5F5F5F5F5F5F5F5F5F5F5F5F5F5F5F5F5F5F5F5F5E2F5F5F5F5F5F5F5F5F5F5F5F5F5F5F5F5F5F5F5F5F5F5F5F5F5F5E2E2E2F5F5F5F5F5F5F5F5F5F5F5F5F5F5F5F5F5F5
310
F5F5F5F5F5F5F5F5E2F5F5F5F5F5F5F5F5F5F5F5F5F5F5F5F5F5F5F5F5F5F5F5F5F5F5F5F5F5F5F5F5F5F5F5F5F5F5F5F5F5F5F5F5F5F5F5F5F5F5F5F5F5F5F5F5F5F5F5F5F5F5F5F5F5F5F5F5F5F5F5F5F5F5F5F5F5F5F5F5F5F5F5F5F5F5F5F5F5F5F5F5F5F5F5F5F5F5F5F5F5F5F5F5F5F5F5F5F5F5F5F5F5F5F5F5F5F5
310
F5F5F5F5F5E2F5F5F5F5F5F5F5F5F5F5F5F5F5F5F5F5F5F5F5F5F5F5F5F5F5F5E2E2E2F5F5F5F5F5F5F5F5F5F5F5F5F5F5F5F5F5F5F5F5F5F5F5F5F5F5E2F5F5F5F5F5F5F5F5F5F5F5F5F5F5F5F5F5F5F5F5F5F5F5F5F5F5F5F5F5F5F5F5F5F5F5F5F5F5F5F5F5F5F5F5F5F5F5F5F5F5F5F5F5F5F5F5F5F5F5F5F5F5F5F5F5
310
F5F5F5F5F5F5F5F5F5F5F5F5F5F5F5F5F5F5F5F5F5F5F5F5F5F5F5F5F5F5F5F5F5F5F5F5F5F5F5F5F5F5F5F5F5F5F5F5F5F5F5F5F5F5F5F5F5F5E2F5F5F5F5F5F5F5F5F5F5F5F5F5F5F5F5F5F5F5F5F5F5F5F5F5F5E2E2E2F5F5F5F5F5F5F5F5F5F5F5F5F5F5F5F5F5F5F5F5F5F5F5F5F5F5E2F5F5F5F5F5F5F5F5F5F5F5F5
310
F5F5F5F5F5F5F5F5F5F5F5F5F5F5F5F5F5F5F5F5F5F5F5F5F5F5F5F5F5F5F5F5F5F5F5F5F5F5F5F5F5F5F5F5F5F5F5F5F5F5F5F5F5F5F5F5F5F5F5F5F5F5F5F5F5F5F5F5F5F5F5F5F5F5F5F5F5F5F5F5F5F5F5F5F5F5F5F5F5F5F5F5F5F5F5F5F5F5F5F5F5F5F5F5F5F5F5F5F5F5F5E2F5F5F5F5F5F5F5F5F5F5F5F5F5F5F5
310
F5F5F5F5F5F5F5F5F5F5F5E2E2E2F5F5F5F5F5F5F5F5F5F5F5F5F5F5F5F5F5F5F5F5F5F5F5F5F5F5E2F5F5F5F5F5F5F5F5F5F5F5F5F5F5F5F5F5F5F5F5F5F5F5F5F5F5F5F5F5F5F5F5F5F5F5F5F5F5F5F5F5F5F5F5F5F5F5F5F5F5F5F5F5F5F5F5F5F5F5F5F5F5F5F5F5F5F5F5F5F5F5F5F5F5F5F5F5F5F5F5F5F5F5F5F5F5
310
F5F5F5F5F5F5F5F5F5F5F5F5F5F5F5F5F5F5F5F5F5F5F5F5F5F5F5F5F5F5F5F5F5F5F5F5F5E2F5F5F5F5F5F5F5F5F5F5F5F5F5F5F5F5F5F5F5F5F5F5F5F5F5F5E2E2E2F5F5F5F5F5F5F5F5F5F5F5F5F5F5F5F5F5F5F5F5F5F5F5F5F5F5E2F5F5F5F5F5F5F5F5F5F5F5F5F5F5F5F5F5F5F5F5F5F5F5F5F5F5F5F5F5F5F5F5F5
310
F5F5F5F5F5F5F5F5F5F5F5F5F5F5F5F5F5F5F5F5F5F5F5F5F5F5F5F5F5F5F5F5F5F5F5F5F5F5F5F5F5F5F5F5F5F5F5F5F5F5F5F5F5F5F5F5F5F5F5F5F5F5F5F5F5F5F5F5F5F5F5F5F5F5F5F5F5F5F5F5F5F5F5F5F5F5F5F5F5F5E2F5F5F5F5F5F5F5F5F5F5F5F5F5F5F5F5F5F5F5F5F5F5F5F5F5F5E2E2E2F5F5F5F5F5F5F5
310
F5F5F5F5F5F5F5F5F5F5F5F5F5F5F5F5F5F5F5E2F5F5F5F5F5F5F5F5F5F5F5F5F5F5F5F5F5F5F5F5F5F5F5F5F5F5F5F5F5F5F5F5F5F5F5F5F5F5F5F5F5F5F5F5F5F5F5F5F5F5F5F5F5F5F5F5F5F5F5F5F5F5F5F5F5F5F5F5F5F5F5F5F5F5F5F5F5F5F5F5F5F5F5F5F5F5F5F5F5F5F5F5F5F5F5F5F5F5F5F5F5F5F5F5F5F5F5
310
F5F5F5F5F5F5F5F5F5F5F5F5F5F5F5F5E2F5F5F5F5F5F5F5F5F5F5F5F5F5F5F5F5F5F5F5F5F5F5F5F5F5F5E2E2E2F5F5F5F5F5F5F5F5F5F5F5E2F5F5F5F5F5F5F5F5F5F5F5F5F5F5E2F5F5F5F5F5F5F5F5F5F5F5F5F5F5F5F5F5F5F5F5F5F5F5F5F5F5F5F5F5F5F5F5F5F5F5F5F5F5F5F5F5F5F5F5F5F5F5F5F5F5F5F5F5F5
310
F5F5F5F5F5F5F5F5F5F5F5F5F5F5F5F5F5F5F5F5F5F5F5F5F5F5F5F5F5F5F5F5F5F5F5F5F5F5F5F5F5F5F5F5F5F5F5F5F5F5F5F5F5F5F5F5F5F5F5F5F5F5F5F5F5F5F5F5F5E2F5F5F5F5F5F5F5F5F5F5F5F5F5F5E2F5F5F5F5F5F5F5F5F5F5F5E2E2E2F5F5F5F5F5F5F5F5F5F5F5E2F5F5F5F5F5F5F5F5F5F5F5F5F5F5E2F5
310
F5F5F5F5F5F5F5F5F5F5F5F5F5F5F5F5F5F5F5F5F5F5F5F5F5F5F5F5F5F5F5F5F5F5F5F5F5F5F5F5F5F5F5F5F5F5F5F5F5F5F5F5F5F5F5F5F5F5F5F5F5F5F5F5F5F5F5F5F5F5F5F5F5F5F5F5F5F5F5F5F5F5F5F5F5F5F5F5F5F5F5F5F5F5F5F5F5F5F5F5F5F5F5F5F5F5F5F5F5F5F5F5F5F5F5F5F5F5F5F5F5F5E2F5F5F5F5
310
F5F5F5F5F5F5F5F5F5F5E2F5F5F5F5F5F5F5F5F5F5F5E2E2E2F5F5F5F5F5F5F5F5F5F5F5E2F5F5F5F5F5F5F5F5F5F5F5F5F5F5E2F5F5F5F5F5F5F5F5F5F5F5F5F5F5F5F5F5F5F5F5F5F5F5F5F5F5F5F5F5F5F5F5F5F5F5F5F5F5F5F5F5F5F5F5F5F5F5F5F5F5F5F5F5F5F5F5F5F5F5F5F5F5F5F5F5F5F5F5F5F5F5F5F5F5F5
310
F5F5F5F5F5F5F5F5F5F5F5F5F5F5F5F5F5F5F5F5F5F5F5F5F5F5F5F5F5F5F5F5F5F5F5F5F5F5F5F5F5F5F5F5F5F5F5F5E2F5F5F5F5F5F5F5F5F5F5F5F5F5F5E2F5F5F5F5F5F5F5F5F5F5F5E2E2E2F5F5F5F5F5F5F5F5F5F5F5E2F5F5F5F5F5F5F5F5F5F5F5F5F5F5E2F5F5F5F5F5F5F5F5F5F5F5F5F5F5F5F5F5F5F5F5F5F5
310
F5F5F5F5F5F5F5F5F5F5F5F5F5F5F5F5F5F5F5F5F5F5F5F5F5F5F5F5F5F5F5F5F5F5F5F5F5F5F5F5F5F5F5F5F5F5F5F5F5F5F5F5F5F5F5F5F5F5F5F5F5F5F5F5F5F5F5F5F5F5F5F5F5F5F5F5F5F5F5F5F5F5F5F5F5F5F5F5F5F5F5F5F5F5F5F5F5F5F5F5F5E2F5F5F5F5F5F5F5F5F5F5F5F5F5F5E2F5F5F5F5F5F5F5F5F5F5
310
F5E2E2E2F5F5F5F5F5F5F5F5F5F5F5E2F5F5F5F5F5F5F5F5F5F5F5F5F5F5E2F5F5F5F5F5F5F5F5F5F5F5F5F5F5F5F5F5F5F5F5F5F5F5F5F5F5F5F5F5F5F5F5F5F5F5F5F5F5F5F5F5F5F5F5F5F5F5F5F5F5F5F5F5F5F5F5F5F5F5F5F5F5F5F5F5F5F5F5F5F5F5F5F5F5F5F5F5F5F5F5F5F5F5F5F5F5F5F5F5F5F5F5F5F5F5F5
310
F5F5F5F5F5F5F5F5F5F5F5F5F5F5F5F5F5F5F5F5F5F5F5F5F5F5F5E2F5F5F5F5F5F5F5F5F5F5F5F5F5F5E2F5F5F5F5F5F5F5F5F5F5F5E2E2E2F5F5F5F5F5F5F5F5F5F5F5E2F5F5F5F5F5F5F5F5F5F5F5F5F5F5E2F5F5F5F5F5F5F5F5F5F5F5F5F5F5F5F5F5F5F5F5F5F5F5F5F5F5F5F5F5F5F5F5F5F5F5F5F5F5F5F5F5F5F5
310
F5F5F5F5F5F5F5F5F5F5F5F5F5F5F5F5F5F5F5F5F5F5F5F5F5F5F5F5F5F5F5F5F5F5F5F5F5F5F5F5F5F5F5F5F5F5F5F5F5F5F5F5F5F5F5F5F5F5F5F5F5F5F5F5F5F5F5F5F5F5F5F5F5F5F5F5F5F5F5F5E2F5F5F5F5F5F5F5F5F5F5F5F5F5F5E2F5F5F5F5F5F5F5F5F5F5F5E2E2E2F5F5F5F5F5F5F5F5F5F5F5E2F5F5F5F5F5
310
F5F5F5F5F5F5F5F5F5E2F5F5F5F5F5F5F5F5F5F5F5F5F5F5F5F5F5F5F5F5F5F5F5F5F5F5F5F5F5F5F5F5F5F5F5F5F5F5F5F5F5F5F5F5F5F5F5F5F5F5F5F5F5F5F5F5F5F5F5F5F5F5F5F5F5F5F5F5F5F5F5F5F5F5F5F5F5F5F5F5F5F5F5F5F5F5F5F5F5F5F5F5F5F5F5F5F5F5F5F5F5F5F5F5F5F5F5F5F5F5F5F5F5F5F5F5F5
310
F5F5F5F5F5F5E2F5F5F5F5F5F5F5F5F5F5F5F5F5F5E2F5F5F5F5F5F5F5F5F5F5F5E2E2E2F5F5F5F5F5F5F5F5F5F5F5E2F5F5F5F5F5F5F5F5F5F5F5F5F5F5E2F5F5F5F5F5F5F5F5F5F5F5F5F5F5F5F5F5F5F5F5F5F5F5F5F5F5F5F5F5F5F5F5F5F5F5F5F5F5F5F5F5F5F5F5F5F5F5F5F5F5F5F5F5F5F5F5F5F5F5F5F5F5F5F5
310
F5F5F5F5F5F5F5F5F5F5F5F5F5F5F5F5F5F5F5F5F5F5F5F5F5F5F5F5F5F5F5F5F5F5F5F5F5F5F5F5F5F5F5F5F5F5F5F5F5F5F5F5F5F5F5F5F5F5F5E2F5F5F5F5F5F5F5F5F5F5F5F5F5F5E2F5F5F5F5F5F5F5F5F5F5F5E2E2E2F5F5F5F5F5F5F5F5F5F5F5E2F5F5F5F5F5F5F5F5F5F5F5F5F5F5E2F5F5F5F5F5F5F5F5F5F5F5
310
F5F5F5F5F5F5F5F5F5F5F5F5F5F5F5F5F5F5F5F5F5F5F5F5F5F5F5F5F5F5F5F5F5F5F5F5F5F5F5F5F5F5F5F5F5F5F5F5F5F5F5F5F5F5F5F5F5F5F5F5F5F5F5F5F5F5F5F5F5F5F5F5F5F5F5F5F5F5F5F5F5F5F5F5F5F5F5F5F5F5F5F5F5F5F5F5F5F5F5F5F5F5F5F5F5F5F5F5F5F5F5F5E2F5F5F5F5F5F5F5F5F5F5F5F5F5F5
310
E2F5F5F5F5F5F5F5F5F5F5F5E2E2E2F5F5F5F5F5F5F5F5F5F5F5E2F5F5F5F5F5F5F5F5F5F5F5F5F5F5E2F5F5F5F5F5F5F5F5F5F5F5F5F5F5F5F5F5F5F5F5F5F5F5F5F5F5F5F5F5F5F5F5F5F5F5F5F5F5F5F5F5F5F5F5F5F5F5F5F5F5F5F5F5F5F5F5F5F5F5F5F5F5F5F5F5F5F5F5F5F5F5F5F5F5F5F5F5F5F5F5F5F5F5F5F5
310
F5F5F5F5F5F5F5F5F5F5F5F5F5F5F5F5F5F5F5F5F5F5F5F5F5F5F5F5F5F5F5F5F5F5F5F5F5F5E2F5F5F5F5F5F5F5F5F5F5F5F5F5F5E2F5F5F5F5F5F5F5F5F5F5F5E2E2E2F5F5F5F5F5F5F5F5F5F5F5E2F5F5F5F5F5F5F5F5F5F5F5F5F5F5E2F5F5F5F5F5F5F5F5F5F5F5F5F5F5F5F5F5F5F5F5F5F5F5F5F5F5F5F5F5F5F5F5
310
F5F5F5F5F5F5F5F5F5F5F5F5F5F5F5F5F5F5F5F5F5F5F5F5F5F5F5F5F5F5F5F5F5F5F5F5F5F5F5F5F5F5F5F5F5F5F5F5F5F5F5F5F5F5F5F5F5F5F5F5F5F5F5F5F5F5F5F5F5F5F5F5F5F5F5F5F5F5F5F5F5F5F5F5F5F5F5F5F5F5F5E2F5F5F5F5F5F5F5F5F5F5F5F5F5F5E2F5F5F5F5F5F5F5F5F5F5F5E2E2E2F5F5F5F5F5F5
310
F5F5F5F5F5E2F5F5F5F5F5F5F5F5F5F5F5F5F5F5E2F5F5F5F5F5F5F5F5F5F5F5F5F5F5F5F5F5F5F5F5F5F5F5F5F5F5F5F5F5F5F5F5F5F5F5F5F5F5F5F5F5F5F5F5F5F5F5F5F5F5F5F5F5F5F5F5F5F5F5F5F5F5F5F5F5F5F5F5F5F5F5F5F5F5F5F5F5F5F5F5F5F5F5F5F5F5F5F5F5F5F5F5F5F5F5F5F5F5F5F5F5F5F5F5F5F5
310
F5F5F5F5F5F5F5F5F5F5F5F5F5F5F5F5F5E2F5F5F5F5F5F5F5F5F5F5F5F5F5F5E2F5F5F5F5F5F5F5F5F5F5F5E2E2E2F5F5F5F5F5F5F5F5F5F5F5E2F5F5F5F5F5F5F5F5F5F5F5F5F5F5E2F5F5F5F5F5F5F5F5F5F5F5F5F5F5F5F5F5F5F5F5F5F5F5F5F5F5F5F5F5F5F5F5F5F5F5F5F5F5F5F5F5F5F5F5F5F5F5F5F5F5F5F5F5
310
F5F5F5F5F5F5F5F5F5F5F5F5F5F5F5F5F5F5F5F5F5F5F5F5F5F5F5F5F5F5F5F5F5F5F5F5F5F5F5F5F5F5F5F5F5F5F5F5F5F5F5F5F5F5F5F5F5F5F5F5F5F5F5F5F5F5F5F5F5F5E2F5F5F5F5F5F5F5F5F5F5F5F5F5F5E2F5F5F5F5F5F5F5F5F5F5F5E2E2E2F5F5F5F5F5F5F5F5F5F5F5E2F5F5F5F5F5F5F5F5F5F5F5F5F5F5E2
310
F5F5F5F5F5F5F5F5F5F5F5F5F5F5F5F5F5F5F5F5F5F5F5F5F5F5F5F5F5F5F5F5F5F5F5F5F5F5F5F5F5F5F5F5F5F5F5F5F5F5F5F5F5F5F5F5F5F5F5F5F5F5F5F5F5F5F5F5F5F5F5F5F5F5F5F5F5F5F5F5F5F5F5F5F5F5F5F5F5F5F5F5F5F5F5F5F5F5F5F5F5F5F5F5F5F5F5F5F5F5F5F5F5F5F5F5F5F5F5F5F5F5F5E2F5F5F5
310
F5F5F5F5F5F5F5F5F5F5F5E2F5F5F5F5F5F5F5F5F5F5F5E2E2E2F5F5F5F5F5F5F5F5F5F5F5E2F5F5F5F5F5F5F5F5F5F5F5F5F5F5E2F5F5F5F5F5F5F5F5F5F5F5F5F5F5F5F5F5F5F5F5F5F5F5F5F5F5F5F5F5F5F5F5F5F5F5F5F5F5F5F5F5F5F5F5F5F5F5F5F5F5F5F5F5F5F5F5F5F5F5F5F5F5F5F5F5F5F5F5F5F5F5F5F5F5
310
F5F5F5F5F5F5F5F5F5F5F5F5F5F5F5F5F5F5F5F5F5F5F5F5F5F5F5F5F5F5F5F5F5F5F5F5F5F5F5F5F5F5F5F5F5F5F5F5F5E2F5F5F5F5F5F5F5F5F5F5F5F5F5F5E2F5F5F5F5F5F5F5F5F5F5F5E2E2E2F5F5F5F5F5F5F5F5F5F5F5F5F5F5F5F5F5F5F5F5F5F5F5F5F5F5E2F5F5F5F5F5F5F5F5F5F5F5F5F5F5F5F5F5F5F5F5F5
310
F5F5F5F5F5F5F5F5F5F5F5F5F5F5F5F5F5F5F5F5F5F5F5F5F5F5F5F5F5F5F5F5F5F5F5F5F5F5F5F5F5F5F5F5F5F5F5F5F5F5F5F5F5F5F5F5F5F5F5F5F5F5F5F5F5F5F5F5F5F5F5F5F5F5F5F5F5F5F5F5F5F5F5F5F5F5F5F5F5F5F5F5F5F5F5F5F5F5F5F5F5F5E2F5F5F5F5F5F5F5F5F5F5F5F5F5F5F5F5F5F5F5F5F5F5F5F5
310
F5F5E2E2E2F5F5F5F5F5F5F5F5F5F5F5F5F5F5F5F5F5F5F5F5F5F5F5F5F5F5E2F5F5F5F5F5F5F5F5F5F5F5F5F5F5F5F5F5F5F5F5F5F5F5F5F5F5F5F5F5F5F5F5F5F5F5F5F5F5F5F5F5F5F5F5F5F5F5F5F5F5F5F5F5F5F5F5F5F5F5F5F5F5F5F5F5F5F5F5F5F5F5F5F5F5F5F5F5F5F5F5F5F5F5F5F5F5F5F5F5F5F5F5F5F5F5
310
F5F5F5F5F5F5F5F5F5F5F5F5F5F5F5F5F5F5F5F5F5F5F5F5F5F5F5F5E2F5F5F5F5F5F5F5F5F5F5F5F5F5F5F5F5F5F5F5F5F5F5F5F5F5F5E2E2E2F5F5F5F5F5F5F5F5F5F5F5F5F5F5F5F5F5F5F5F5F5F5F5F5F5F5E2F5F5F5F5F5F5F5F5F5F5F5F5F5F5F5F5F5F5F5F5F5F5F5F5F5F5F5F5F5F5F5F5F5F5F5F5F5F5F5F5F5F5
310
F5F5F5F5F5F5F5F5F5F5F5F5F5F5F5F5F5F5F5F5F5F5F5F5F5F5F5F5F5F5F5F5F5F5F5F5F5F5F5F5F5F5F5F5F5F5F5F5F5F5F5F5F5F5F5F5F5F5F5F5F5F5F5F5F5F5F5F5F5F5F5F5F5F5F5F5F5F5F5F5F5E2F5F5F5F5F5F5F5F5F5F5F5F5F5F5F5F5F5F5F5F5F5F5F5F5F5F5E2E2E2F5F5F5F5F5F5F5F5F5F5F5F5F5F5F5F5
310
F5F5F5F5F5F5F5F5F5F5E2F5F5F5F5F5F5F5F5F5F5F5F5F5F5F5F5F5F5F5F5F5F5F5F5F5F5F5F5F5F5F5F5F5F5F5F5F5F5F5F5F5F5F5F5F5F5F5F5F5F5F5F5F5F5F5F5F5F5F5F5F5F5F5F5F5F5F5F5F5F5F5F5F5F5F5F5F5F5F5F5F5F5F5F5F5F5F5F5F5F5F5F5F5F5F5F5F5F5F5F5F5F5F5F5F5F5F5F5F5F5F5F5F5F5F5F5
310
F5F5F5F5F5F5F5E2F5F5F5F5F5F5F5F5F5F5F5F5F5F5F5F5F5F5F5F5F5F5F5F5F5F5E2E2E2F5F5F5F5F5F5F5F5F5F5F5F5F5F5F5F5F5F5F5F5F5F5F5F5F5F5E2E2E2E2E2E2E2E2E2E2E2E2E2E2E2E2E2E2E2E2E2E2E2E2E2E2E2E2E2E2E2E2E2E2E2E2E2E2E2E2E2E2E2E2E2E2E2E2E2E2E2E2E2E2E2E2E2E2E2E2E2E2E2E2
310
E2E2E2E2E2E2E2E2E2E2E2E2E2E2E2E2E2E2E2E2E2E2E2E2E2E2E2E2E2E2E2E2E2E2E2E2E2E2E2E2E2E2E2E2E2E2E2E2E2E2E2E2E2E2E2E2E2E2E2E2E2F5F5F5F5F5F5F5F5F5F5F5F5F5F5F5F5F5F5F5F5F5F5F5F5F5F5E2E2E2F5F5F5F5F5F5F5F5F5F5F5F5F5F5F5F5F5F5F5F5F5F5F5F5F5F5F5F5F5F5F5F5F5F5F5F5F5
310
F5F5F5F5F5F5F5F5F5F5F5F5F5F5F5F5F5F5F5F5F5F5F5F5F5F5F5F5F5F5F5F5F5F5F5F5F5F5F5F5F5F5F5F5F5F5F5F5F5F5F5F5F5F5F5F5F5F5F5F5F5F5F5F5F5F5F5F5F5F5F5F5F5F5F5F5F5F5F5F5F5F5F5F5F5F5F5F5F5F5F5F5F5F5F5F5F5F5F5F5F5F5F5F5F5F5F5F5F5F5F5F5F5F5F5F5F5F5F5F5F5F5F5F5F5F5F5
310
F5F5F5F5F5F5F5F5F5F5F5F5F5E2E2E2F5F5F5F5F5F5F5F5F5F5F5F5F5F5F5F5F5F5F5F5F5F5F5F5F5F5F5F5F5F5F5F5F5F5F5F5F5F5F5F5F5F5F5F5F5F5F5F5F5F5F5F5F5F5F5F5F5F5F5F5F5F5F5F5F5F5F5F5F5F5F5F5F5F5F5F5F5F5F5F5F5F5F5F5F5F5F5F5F5F5F5F5F5F5F5F5F5F5F5F5F5F5F5F5F5F5F5F5F5F5F5
310
F5F5F5F5F5F5F5F5F5F5F5F5F5F5F5F5F5F5F5F5F5F5F5F5F5F5F5F5F5F5F5F5F5F5F5F5F5F5F5F5F5F5F5F5F5F5F5F5F5F5F5F5F5F5F5F5F5F5F5F5F5F5F5F5F5F5E2E2E2F5F5F5F5F5F5F5F5F5F5F5F5F5F5F5F5F5F5F5F5F5F5F5F5F5F5F5F5F5F5F5F5F5F5F5F5F5F5F5F5F5F5F5F5F5F5F5F5F5F5F5F5F5F5F5F5F5F5
310
F5F5F5F5F5F5F5F5F5F5F5F5F5F5F5F5F5F5F5F5F5F5F5F5F5F5F5F5F5F5F5F5F5F5F5F5F5F5F5F5F5F5F5F5F5F5F5F5F5F5F5F5F5F5F5F5F5F5F5F5F5F5F5F5F5F5F5F5F5F5F5F5F5F5F5F5F5F5F5F5F5F5F5F5F5F5F5F5F5F5F5F5F5F5F5F5F5F5F5F5F5F5F5F5F5F5F5F5F5F5F5F5F5F5F5F5F5F5F5E2E2E2F5F5F5F5F5
310
F5F5F5F5F5F5E2F5F5F5F5F5F5F5F5F5F5F5F5F5F5F5F5F5F5F5F5F5F5F5F5F5F5F5F5F5F5F5F5F5F5F5F5F5F5F5F5F5F5F5F5F5F5F5F5F5F5F5F5F5F5F5F5F5F5F5F5F5F5F5F5F5F5F5F5F5F5F5F5F5F5F5F5F5F5F5F5F5F5F5F5F5F5F5F5F5F5F5F5F5F5F5F5F5F5F5F5F5F5F5F5F5F5F5F5F5F5F5F5F5F5F5F5F5F5F5F5
310
F5F5F5F5F5F5F5F5F5F5F5F5F5F5F5F5F5F5F5F5F5F5F5F5F5F5F5F5F5F5F5F5F5E2F5F5F5F5F5F5F5F5F5F5F5E2E2E2F5F5F5F5F5F5F5F5F5F5F5E2F5F5F5F5F5F5F5F5F5F5F5F5F5F5F5F5F5F5F5F5F5F5F5F5F5F5F5F5F5F5F5F5F5F5F5F5F5F5F5F5F5F5F5F5F5F5F5F5F5F5F5F5F5F5F5F5F5F5F5F5F5F5F5F5F5F5F5
310
F5F5F5F5F5F5F5F5F5F5F5F5F5F5F5F5F5F5F5F5F5F5F5F5F5F5F5F5F5F5F5F5F5F5F5F5F5F5F5F5F5F5F5F5F5F5F5F5F5F5F5F5F5F5F5F5F5F5F5F5F5F5F5F5F5F5F5F5F5F5F5F5F5F5F5F5F5F5F5F5F5F5F5F5F5F5E2F5F5F5F5F5F5F5F5F5F5F5E2E2E2F5F5F5F5F5F5F5F5F5F5F5E2F5F5F5F5F5F5F5F5F5F5F5F5F5F5
310
F5F5F5F5F5F5F5F5F5F5F5F5F5F5F5F5F5F5F5F5F5F5F5F5F5F5F5F5F5F5F5F5F5F5F5F5F5F5F5F5F5F5F5F5F5F5F5F5F5F5F5F5F5F5F5F5F5F5F5F5F5F5F5F5F5F5F5F5F5F5F5F5F5F5F5F5F5F5F5F5F5F5F5F5F5F5F5F5F5F5F5F5F5F5F5F5F5F5F5F5F5F5F5F5F5F5F5F5F5F5F5F5F5F5F5F5F5F5F5F5F5F5F5F5F5F5F5
310
F5F5F5F5F5F5F5F5F5F5F5F5E2F5F5F5F5F5F5F5F5F5F5F5E2E2E2F5F5F5F5F5F5F5F5F5F5F5E2F5F5F5F5F5F5F5F5F5F5F5F5F5F5F5F5F5F5F5F5F5F5F5F5F5F5F5F5F5F5F5F5F5F5F5F5F5F5F5F5F5F5F5F5F5F5F5F5F5F5F5F5F5F5F5F5F5F5F5F5F5F5F5F5F5F5F5F5F5F5F5F5F5F5F5F5F5F5F5F5F5F5F5F5F5F5F5F5
310
F5F5F5F5F5F5F5F5F5F5F5F5F5F5F5F5F5F5F5F5F5F5F5F5F5F5F5F5F5F5F5F5F5F5F5F5F5F5F5F5F5F5F5F5F5F5F5F5F5F5F5F5F5F5F5F5F5F5F5F5F5F5F5F5F5E2F5F5F5F5F5F5F5F5F5F5F5E2E2E2F5F5F5F5F5F5F5F5F5F5F5E2F5F5F5F5F5F5F5F5F5F5F5F5F5F5F5F5F5F5F5F5F5F5F5F5F5F5F5F5F5F5F5F5F5F5F5
310
F5F5F5F5F5F5F5F5F5F5F5F5F5F5F5F5F5F5F5F5F5F5F5F5F5F5F5F5F5F5F5F5F5F5F5F5F5F5F5F5F5F5F5F5F5F5F5F5F5F5F5F5F5F5F5F5F5F5F5F5F5F5F5F5F5F5F5F5F5F5F5F5F5F5F5F5F5F5F5F5F5F5F5F5F5F5F5F5F5F5F5F5F5F5F5F5F5F5F5F5F5F5F5F5F5F5F5F5F5F5F5F5F5F5F5F5F5F5E2F5F5F5F5F5F5F5F5
310
F5F5F5E2E2E2F5F5F5F5F5F5F5F5F5F5F5E2F5F5F5F5F5F5F5F5F5F5F5F5F5F5F5F5F5F5F5F5F5F5F5F5F5F5F5F5F5F5F5F5F5F5F5F5F5F5F5F5F5F5F5F5F5F5F5F5F5F5F5F5F5F5F5F5F5F5F5F5F5F5F5F5F5F5F5F5F5F5F5F5F5F5F5F5F5F5F5F5F5F5F5F5F5F5F5F5F5F5F5F5F5F5F5F5F5F5F5F5F5F5F5F5F5F5F5F5F5
310
F5F5F5F5F5F5F5F5F5F5F5F5F5F5F5F5F5F5F5F5F5F5F5F5F5F5F5F5F5F5F5F5F5F5F5F5F5F5F5F5F5F5F5F5E2F5F5F5F5F5F5F5F5F5F5F5E2E2E2F5F5F5F5F5F5F5F5F5F5F5E2F5F5F5F5F5F5F5F5F5F5F5F5F5F5F5F5F5F5F5F5F5F5F5F5F5F5F5F5F5F5F5F5F5F5F5F5F5F5F5F5F5F5F5F5F5F5F5F5F5F5F5F5F5F5F5F5
310
F5F5F5F5F5F5F5F5F5F5F5F5F5F5F5F5F5F5F5F5F5F5F5F5F5F5F5F5F5F5F5F5F5F5F5F5F5F5F5F5F5F5F5F5F5F5F5F5F5F5F5F5F5F5F5F5F5F5F5F5F5F5F5F5F5F5F5F5F5F5F5F5F5F5F5F5F5F5F5F5F5F5F5F5F5F5F5F5F5F5F5F5F5F5F5F5F5E2F5F5F5F5F5F5F5F5F5F5F5E2E2E2F5F5F5F5F5F5F5F5F5F5F5E2E2E2E2
310
E2E2E2E2E2F5F5F5F5F5F5F5F5F5E2E2E2E2E2E2E2E2E2E2E2E2E2E2E2E2F5F5F5F5F5F5F5F5F5F5E2E2E2E2E2E2E2E2E2E2E2E2E2E2E2E2F5F5F5F5F5F5F5F5F5E2E2E2E2E2E2E2E2E2E2E2E2E2E2E2E2E2F5F5F5F5F5F5F5F5F5E2E2E2E2E2E2E2E2E2E2E2E2E2E2E2E2F5F5F5F5F5F5F5F5F5F5E2E2E2E2E2E2E2E2E2E2
310
E2E2E2E2E2E2F5F5F5F5F5F5F5F5F5E2E2E2E2E2E2E2E2E2F5F5F5F5F5F5F5F5F5F5F5E2E2E2F5F5F5F5F5F5F5F5F5F5F5F5F5F5F5F5F5F5F5F5F5F5F5F5F5F5F5F5F5F5F5F5F5F5F5F5F5F5F5F5F5F5F5F5F5F5F5F5F5F5F5F5F5F5F5F5F5F5F5F5F5F5F5F5F5F5F5F5F5F5F5F5F5F5F5F5F5F5F5F5F5F5F5F5F5F5F5F5F5
310
F5F5F5F5F5F5F5F5F5F5F5F5F5F5F5F5F5F5F5F5F5F5F5F5F5F5F5F5F5F5F5F5F5F5F5F5F5F5F5F5F5F5F5F5F5F5F5F5F5F5F5F5F5F5F5F5F5F5F5F5F5F5F5F5F5F5F5F5F5F5F5F5F5F5F5F5F5F5F5F5F5F5F5F5F5F5F5F5E2E2E2F5F5F5F5F5F5F5F5F5F5F5F5F5F5F5F5F5F5F5F5F5F5F5F5F5F5F5F5F5F5F5F5F5F5F5F5
310
F5F5F5F5F5F5F5F5F5F5F5F5F5F5F5F5F5F5F5F5F5F5F5F5F5F5F5F5F5F5F5F5F5F5F5F5F5F5F5F5F5F5F5F5F5F5F5F5F5F5F5F5F5F5F5F5F5F5F5F5F5F5F5F5F5F5F5F5F5F5F5F5F5F5F5F5F5F5F5F5F5F5F5F5F5F5F5F5F5F5F5F5F5F5F5F5F5F5F5F5F5F5F5F5F5F5F5F5F5F5F5F5F5F5F5F5F5F5F5F5F5F5F5F5F5F5F5
310
F5F5F5F5F5F5F5F5F5F5F5F5F5F5E2E2E2F5F5F5F5F5F5F5F5F5F5F5F5F5F5F5F5F5F5F5F5F5F5F5F5F5F5F5F5F5F5F5F5F5F5F5F5F5F5F5F5F5F5F5F5F5F5F5F5F5F5F5F5F5F5F5F5F5F5F5F5F5F5F5F5F5F5F5F5F5F5F5F5F5F5F5F5F5F5F5F5F5F5F5F5F5F5F5F5F5F5F5F5F5F5F5F5F5F5F5F5F5F5F5F5F5F5F5F5F5F5
310
F5F5F5F5F5F5F5F5F5F5F5F5F5F5F5F5F5F5F5F5F5F5F5F5F5F5F5F5F5F5F5F5F5F5F5F5F5F5F5F5F5F5F5F5F5F5F5F5F5F5F5F5F5F5F5F5F5F5F5F5F5F5F5F5F5F5F5E2E2E2F5F5F5F5F5F5F5F5F5F5F5F5F5F5F5F5F5F5F5F5F5F5F5F5F5F5F5F5F5F5F5F5F5F5F5F5F5F5F5F5F5F5F5F5F5F5F5F5F5F5F5F5F5F5F5F5F5
310
F5F5F5F5F5F5F5F5F5F5F5F5F5F5F5F5F5F5F5F5F5F5F5F5F5F5F5F5F5F5F5F5F5F5F5F5F5F5F5F5F5F5F5F5F5F5F5F5F5F5F5F5F5F5F5F5F5F5F5F5F5F5F5F5F5F5F5F5F5F5F5F5F5F5F5F5F5F5F5F5F5F5F5F5F5F5F5F5F5F5F5F5F5F5F5F5F5F5F5F5F5F5F5F5F5F5F5F5F5F5F5F5F5F5F5F5F5F5F5F5E2EFE2E2E2E2E2
310
E2E2E2E2E2E2E2E2E2E2E2E2E2E2E2E2E2E2E2E2E2E2E2E2E2E2E2E2E2E2E2E2E2E2E2E2E2E2E2E2E2E2E2E2E2E2E2E2E2E2E2E2E2E2E2E2E2E2E2E2E2E2E2E2E2E2E2E2E2E2E2E2E2E2E2E2E2E2E2E2E2E2E2E2E2E2E2E2E2E2E2E2E2E2E2E2E2E2E2E2E2E2E2E2E2E2E2E2E2E2E2E2E2E2E2E2E2E2E2E2E2E2E2E2E2E2E2
310
E2E2E2E2E2E2E2E2E2E2E2E2E2E2E2E2E2E2E2E2E2E2E2E2E2E2E2E2E2E2E2E2E2E2E2E2E2E2E2E2E2E2E2E2E2E2E2EF
  0
XRECORD
  5
B45E
102
{ACAD_REACTORS
330
B426
102
}
330
B426
100
AcDbXrecord
280
     1
102
MATERIAL
148
0.0
149
0.0
149
0.0
 93
        0
 94
      127
282
     0
 72
     0
 77
     0
171
     0
175
     0
179
     0
273
     0
  0
XRECORD
  5
B427
102
{ACAD_REACTORS
330
B426
102
}
330
B426
100
AcDbXrecord
280
     1
270
     1
271
     1
  0
XRECORD
  5
B428
102
{ACAD_REACTORS
330
B426
102
}
330
B426
100
AcDbXrecord
280
     1
270
     1
271
     1
  0
XRECORD
  5
B429
102
{ACAD_REACTORS
330
B426
102
}
330
B426
100
AcDbXrecord
280
     1
270
     1
271
     1
  0
XRECORD
  5
B42A
102
{ACAD_REACTORS
330
B426
102
}
330
B426
100
AcDbXrecord
280
     1
270
     1
271
     1
  0
XRECORD
  5
B42B
102
{ACAD_REACTORS
330
B426
102
}
330
B426
100
AcDbXrecord
280
     1
270
     1
271
     1
  0
XRECORD
  5
B42C
102
{ACAD_REACTORS
330
B426
102
}
330
B426
100
AcDbXrecord
280
     1
270
     1
271
     1
  0
XRECORD
  5
B45D
102
{ACAD_REACTORS
330
B41E
102
}
330
B41E
100
AcDbXrecord
280
     1
102
MATERIAL
148
0.0
149
0.0
149
0.0
 93
        0
 94
      127
282
     0
 72
     0
 77
     0
171
     0
175
     0
179
     0
273
     0
  0
XRECORD
  5
B41F
102
{ACAD_REACTORS
330
B41E
102
}
330
B41E
100
AcDbXrecord
280
     1
270
     1
271
     1
  0
XRECORD
  5
B420
102
{ACAD_REACTORS
330
B41E
102
}
330
B41E
100
AcDbXrecord
280
     1
270
     1
271
     1
  0
XRECORD
  5
B421
102
{ACAD_REACTORS
330
B41E
102
}
330
B41E
100
AcDbXrecord
280
     1
270
     1
271
     1
  0
XRECORD
  5
B422
102
{ACAD_REACTORS
330
B41E
102
}
330
B41E
100
AcDbXrecord
280
     1
270
     1
271
     1
  0
XRECORD
  5
B423
102
{ACAD_REACTORS
330
B41E
102
}
330
B41E
100
AcDbXrecord
280
     1
270
     1
271
     1
  0
XRECORD
  5
B424
102
{ACAD_REACTORS
330
B41E
102
}
330
B41E
100
AcDbXrecord
280
     1
270
     1
271
     1
  0
XRECORD
  5
B45A
102
{ACAD_REACTORS
330
B3F4
102
}
330
B3F4
100
AcDbXrecord
280
     1
102
MATERIAL
148
0.0
149
0.0
149
0.0
 93
        0
 94
      127
282
     0
 72
     0
 77
     0
171
     0
175
     0
179
     0
273
     0
  0
XRECORD
  5
B3F5
102
{ACAD_REACTORS
330
B3F4
102
}
330
B3F4
100
AcDbXrecord
280
     1
270
     1
271
     1
  0
XRECORD
  5
B3F6
102
{ACAD_REACTORS
330
B3F4
102
}
330
B3F4
100
AcDbXrecord
280
     1
270
     1
271
     1
  0
XRECORD
  5
B3F7
102
{ACAD_REACTORS
330
B3F4
102
}
330
B3F4
100
AcDbXrecord
280
     1
270
     1
271
     1
  0
XRECORD
  5
B3F8
102
{ACAD_REACTORS
330
B3F4
102
}
330
B3F4
100
AcDbXrecord
280
     1
270
     1
271
     1
  0
XRECORD
  5
B3F9
102
{ACAD_REACTORS
330
B3F4
102
}
330
B3F4
100
AcDbXrecord
280
     1
270
     1
271
     1
  0
XRECORD
  5
B3FA
102
{ACAD_REACTORS
330
B3F4
102
}
330
B3F4
100
AcDbXrecord
280
     1
270
     1
271
     1
  0
CELLSTYLEMAP
  5
B458
102
{ACAD_REACTORS
330
B457
102
}
330
B457
100
AcDbCellStyleMap
 90
        3
300
CELLSTYLE
  1
TABLEFORMAT_BEGIN
 90
        5
170
     1
 91
        0
 92
    32768
 62
   257
 93
        1
300
CONTENTFORMAT
  1
CONTENTFORMAT_BEGIN
 90
        0
 91
        0
 92
        4
 93
        0
300

 40
0.0
140
1.0
 94
        5
 62
     0
340
B40A
144
6.0
309
CONTENTFORMAT_END
171
     1
301
MARGIN
  1
CELLMARGIN_BEGIN
 40
1.5
 40
1.5
 40
1.5
 40
1.5
 40
0.18
 40
0.18
309
CELLMARGIN_END
 94
        6
 95
        1
302
GRIDFORMAT
  1
GRIDFORMAT_BEGIN
 90
        0
 91
        1
 62
     0
 92
       -2
340
0
 93
        0
 40
0.045
309
GRIDFORMAT_END
 95
        2
302
GRIDFORMAT
  1
GRIDFORMAT_BEGIN
 90
        0
 91
        1
 62
     0
 92
       -2
340
0
 93
        0
 40
0.045
309
GRIDFORMAT_END
 95
        4
302
GRIDFORMAT
  1
GRIDFORMAT_BEGIN
 90
        0
 91
        1
 62
     0
 92
       -2
340
0
 93
        0
 40
0.045
309
GRIDFORMAT_END
 95
        8
302
GRIDFORMAT
  1
GRIDFORMAT_BEGIN
 90
        0
 91
        1
 62
     0
 92
       -2
340
0
 93
        0
 40
0.045
309
GRIDFORMAT_END
 95
       16
302
GRIDFORMAT
  1
GRIDFORMAT_BEGIN
 90
        0
 91
        1
 62
     0
 92
       -2
340
0
 93
        0
 40
0.045
309
GRIDFORMAT_END
 95
       32
302
GRIDFORMAT
  1
GRIDFORMAT_BEGIN
 90
        0
 91
        1
 62
     0
 92
       -2
340
0
 93
        0
 40
0.045
309
GRIDFORMAT_END
309
TABLEFORMAT_END
  1
CELLSTYLE_BEGIN
 90
        1
 91
        1
300
_TITLE
309
CELLSTYLE_END
300
CELLSTYLE
  1
TABLEFORMAT_BEGIN
 90
        5
170
     1
 91
        0
 92
        0
 62
   257
 93
        1
300
CONTENTFORMAT
  1
CONTENTFORMAT_BEGIN
 90
        0
 91
        0
 92
        4
 93
        0
300

 40
0.0
140
1.0
 94
        5
 62
     0
340
B40A
144
4.5
309
CONTENTFORMAT_END
171
     1
301
MARGIN
  1
CELLMARGIN_BEGIN
 40
1.5
 40
1.5
 40
1.5
 40
1.5
 40
0.18
 40
0.18
309
CELLMARGIN_END
 94
        6
 95
        1
302
GRIDFORMAT
  1
GRIDFORMAT_BEGIN
 90
        0
 91
        1
 62
     0
 92
       -2
340
0
 93
        0
 40
0.045
309
GRIDFORMAT_END
 95
        2
302
GRIDFORMAT
  1
GRIDFORMAT_BEGIN
 90
        0
 91
        1
 62
     0
 92
       -2
340
0
 93
        0
 40
0.045
309
GRIDFORMAT_END
 95
        4
302
GRIDFORMAT
  1
GRIDFORMAT_BEGIN
 90
        0
 91
        1
 62
     0
 92
       -2
340
0
 93
        0
 40
0.045
309
GRIDFORMAT_END
 95
        8
302
GRIDFORMAT
  1
GRIDFORMAT_BEGIN
 90
        0
 91
        1
 62
     0
 92
       -2
340
0
 93
        0
 40
0.045
309
GRIDFORMAT_END
 95
       16
302
GRIDFORMAT
  1
GRIDFORMAT_BEGIN
 90
        0
 91
        1
 62
     0
 92
       -2
340
0
 93
        0
 40
0.045
309
GRIDFORMAT_END
 95
       32
302
GRIDFORMAT
  1
GRIDFORMAT_BEGIN
 90
        0
 91
        1
 62
     0
 92
       -2
340
0
 93
        0
 40
0.045
309
GRIDFORMAT_END
309
TABLEFORMAT_END
  1
CELLSTYLE_BEGIN
 90
        2
 91
        1
300
_HEADER
309
CELLSTYLE_END
300
CELLSTYLE
  1
TABLEFORMAT_BEGIN
 90
        5
170
     1
 91
        0
 92
        0
 62
   257
 93
        1
300
CONTENTFORMAT
  1
CONTENTFORMAT_BEGIN
 90
        0
 91
        0
 92
        4
 93
        0
300

 40
0.0
140
1.0
 94
        2
 62
     0
340
B40A
144
4.5
309
CONTENTFORMAT_END
171
     1
301
MARGIN
  1
CELLMARGIN_BEGIN
 40
1.5
 40
1.5
 40
1.5
 40
1.5
 40
0.18
 40
0.18
309
CELLMARGIN_END
 94
        6
 95
        1
302
GRIDFORMAT
  1
GRIDFORMAT_BEGIN
 90
        0
 91
        1
 62
     0
 92
       -2
340
0
 93
        0
 40
0.045
309
GRIDFORMAT_END
 95
        2
302
GRIDFORMAT
  1
GRIDFORMAT_BEGIN
 90
        0
 91
        1
 62
     0
 92
       -2
340
0
 93
        0
 40
0.045
309
GRIDFORMAT_END
 95
        4
302
GRIDFORMAT
  1
GRIDFORMAT_BEGIN
 90
        0
 91
        1
 62
     0
 92
       -2
340
0
 93
        0
 40
0.045
309
GRIDFORMAT_END
 95
        8
302
GRIDFORMAT
  1
GRIDFORMAT_BEGIN
 90
        0
 91
        1
 62
     0
 92
       -2
340
0
 93
        0
 40
0.045
309
GRIDFORMAT_END
 95
       16
302
GRIDFORMAT
  1
GRIDFORMAT_BEGIN
 90
        0
 91
        1
 62
     0
 92
       -2
340
0
 93
        0
 40
0.045
309
GRIDFORMAT_END
 95
       32
302
GRIDFORMAT
  1
GRIDFORMAT_BEGIN
 90
        0
 91
        1
 62
     0
 92
       -2
340
0
 93
        0
 40
0.045
309
GRIDFORMAT_END
309
TABLEFORMAT_END
  1
CELLSTYLE_BEGIN
 90
        3
 91
        2
300
_DATA
309
CELLSTYLE_END
  0
XRECORD
  5
B45F
102
{ACAD_REACTORS
330
B457
102
}
330
B457
100
AcDbXrecord
280
     1
102
ACAD_ROUNDTRIP_PRE2007_TABLESTYLE
 90
        4
 91
        0
  1

 92
        4
 93
        0
  2

 94
        4
 95
        0
  3

  0
XRECORD
  5
B45C
102
{ACAD_REACTORS
330
B45B
102
}
330
B45B
100
AcDbXrecord
280
     1
102
RTVSPropertyOp0
 70
     1
102
RTVSPropertyOp1
 70
     1
102
RTVSPropertyOp2
 70
     1
102
RTVSPropertyOp3
 70
     1
102
RTVSPropertyOp4
 70
     1
102
RTVSPropertyOp5
 70
     1
102
RTVSPropertyOp6
 70
     1
102
RTVSPropertyOp7
 70
     1
102
RTVSPropertyOp8
 70
     1
102
RTVSPropertyOp9
 70
     1
102
RTVSPropertyOp10
 70
     1
102
RTVSPropertyOp11
 70
     1
102
RTVSPropertyOp12
 70
     1
102
RTVSPropertyOp13
 70
     1
102
RTVSPropertyOp14
 70
     1
102
RTVSPropertyOp15
 70
     1
102
RTVSPropertyOp16
 70
     1
102
RTVSPropertyOp17
 70
     1
102
RTVSPropertyOp18
 70
     1
102
RTVSPropertyOp19
 70
     1
102
RTVSPropertyOp20
 70
     1
102
RTVSPropertyOp21
 70
     1
102
RTVSPropertyOp22
 70
     1
102
RTVSPropertyOp23
 70
     1
102
RTVSPropertyOp24
 70
     1
102
RTVSPropertyOp25
 70
     1
102
RTVSPropertyOp26
 70
     1
102
RTVSPropertyOp27
 70
     1
  0
XRECORD
  5
B463
102
{ACAD_REACTORS
330
B462
102
}
330
B462
100
AcDbXrecord
280
     1
102
RTVSPropertyOp0
 70
     1
102
RTVSPropertyOp1
 70
     1
102
RTVSPropertyOp2
 70
     1
102
RTVSPropertyOp3
 70
     1
102
RTVSPropertyOp4
 70
     1
102
RTVSPropertyOp5
 70
     1
102
RTVSPropertyOp6
 70
     1
102
RTVSPropertyOp7
 70
     1
102
RTVSPropertyOp8
 70
     1
102
RTVSPropertyOp9
 70
     1
102
RTVSPropertyOp10
 70
     1
102
RTVSPropertyOp11
 70
     1
102
RTVSPropertyOp12
 70
     1
102
RTVSPropertyOp13
 70
     1
102
RTVSPropertyOp14
 70
     1
102
RTVSPropertyOp15
 70
     1
102
RTVSPropertyOp16
 70
     1
102
RTVSPropertyOp17
 70
     1
102
RTVSPropertyOp18
 70
     1
102
RTVSPropertyOp19
 70
     1
102
RTVSPropertyOp20
 70
     1
102
RTVSPropertyOp21
 70
     1
102
RTVSPropertyOp22
 70
     1
102
RTVSPropertyOp23
 70
     1
102
RTVSPropertyOp24
 70
     1
102
RTVSPropertyOp25
 70
     1
102
RTVSPropertyOp26
 70
     1
102
RTVSPropertyOp27
 70
     1
  0
XRECORD
  5
B461
102
{ACAD_REACTORS
330
B460
102
}
330
B460
100
AcDbXrecord
280
     1
102
RTVSPropertyOp0
 70
     1
102
RTVSPropertyOp1
 70
     1
102
RTVSPropertyOp2
 70
     1
102
RTVSPropertyOp3
 70
     1
102
RTVSPropertyOp4
 70
     1
102
RTVSPropertyOp5
 70
     1
102
RTVSPropertyOp6
 70
     1
102
RTVSPropertyOp7
 70
     1
102
RTVSPropertyOp8
 70
     1
102
RTVSPropertyOp9
 70
     1
102
RTVSPropertyOp10
 70
     1
102
RTVSPropertyOp11
 70
     1
102
RTVSPropertyOp12
 70
     1
102
RTVSPropertyOp13
 70
     1
102
RTVSPropertyOp14
 70
     1
102
RTVSPropertyOp15
 70
     1
102
RTVSPropertyOp16
 70
     1
102
RTVSPropertyOp17
 70
     1
102
RTVSPropertyOp18
 70
     1
102
RTVSPropertyOp19
 70
     1
102
RTVSPropertyOp20
 70
     1
102
RTVSPropertyOp21
 70
     1
102
RTVSPropertyOp22
 70
     1
102
RTVSPropertyOp23
 70
     1
102
RTVSPropertyOp24
 70
     1
102
RTVSPropertyOp25
 70
     1
102
RTVSPropertyOp26
 70
     1
102
RTVSPropertyOp27
 70
     1
  0
ENDSEC
  0
EOF
