  0
SECTION
  2
HEADER
  9
$ACADVER
  1
AC1018
  9
$ACADMAINTVER
 70
   104
  9
$DWGCODEPAGE
  3
ANSI_932
  9
$AUTHOR
  1
pyxis04
  9
$LASTSAVEDBY
  1
pyxis04
  9
$INSBASE
 10
0.0
 20
0.0
 30
0.0
  9
$EXTMIN
 10
171873.1
 20
113369.1
 30
0.0
  9
$EXTMAX
 10
201573.2
 20
134369.2
 30
0.0
  9
$LIMMIN
 10
113974.262998
 20
51120.262998
  9
$LIMMAX
 10
259472.037002
 20
196618.037002
  9
$ORTHOMODE
 70
     0
  9
$REGENMODE
 70
     1
  9
$FILLMODE
 70
     1
  9
$QTEXTMODE
 70
     0
  9
$MIRRTEXT
 70
     0
  9
$LTSCALE
 40
1.0
  9
$ATTMODE
 70
     1
  9
$TEXTSIZE
 40
225.0
  9
$TRACEWID
 40
1.0
  9
$TEXTSTYLE
  7
Standard
  9
$CLAYER
  8
A221_記入文字
  9
$CELTYPE
  6
Continuous
  9
$CECOLOR
 62
     7
  9
$CELTSCALE
 40
50.0
  9
$DISPSILH
 70
     0
  9
$DIMSCALE
 40
1.0
  9
$DIMASZ
 40
2.5
  9
$DIMEXO
 40
0.625
  9
$DIMDLI
 40
3.75
  9
$DIMRND
 40
0.0
  9
$DIMDLE
 40
0.0
  9
$DIMEXE
 40
1.25
  9
$DIMTP
 40
0.0
  9
$DIMTM
 40
0.0
  9
$DIMTXT
 40
2.5
  9
$DIMCEN
 40
2.5
  9
$DIMTSZ
 40
0.0
  9
$DIMTOL
 70
     0
  9
$DIMLIM
 70
     0
  9
$DIMTIH
 70
     0
  9
$DIMTOH
 70
     0
  9
$DIMSE1
 70
     0
  9
$DIMSE2
 70
     0
  9
$DIMTAD
 70
     1
  9
$DIMZIN
 70
     8
  9
$DIMBLK
  1

  9
$DIMASO
 70
     1
  9
$DIMSHO
 70
     1
  9
$DIMPOST
  1

  9
$DIMAPOST
  1

  9
$DIMALT
 70
     0
  9
$DIMALTD
 70
     3
  9
$DIMALTF
 40
0.03937
  9
$DIMLFAC
 40
1.0
  9
$DIMTOFL
 70
     1
  9
$DIMTVP
 40
0.0
  9
$DIMTIX
 70
     0
  9
$DIMSOXD
 70
     0
  9
$DIMSAH
 70
     0
  9
$DIMBLK1
  1

  9
$DIMBLK2
  1

  9
$DIMSTYLE
  2
ISO-25
  9
$DIMCLRD
 70
     0
  9
$DIMCLRE
 70
     0
  9
$DIMCLRT
 70
     0
  9
$DIMTFAC
 40
1.0
  9
$DIMGAP
 40
0.625
  9
$DIMJUST
 70
     0
  9
$DIMSD1
 70
     0
  9
$DIMSD2
 70
     0
  9
$DIMTOLJ
 70
     0
  9
$DIMTZIN
 70
     8
  9
$DIMALTZ
 70
     0
  9
$DIMALTTZ
 70
     0
  9
$DIMUPT
 70
     0
  9
$DIMDEC
 70
     2
  9
$DIMTDEC
 70
     2
  9
$DIMALTU
 70
     2
  9
$DIMALTTD
 70
     3
  9
$DIMTXSTY
  7
Standard
  9
$DIMAUNIT
 70
     0
  9
$DIMADEC
 70
     0
  9
$DIMALTRND
 40
0.0
  9
$DIMAZIN
 70
     0
  9
$DIMDSEP
 70
    44
  9
$DIMATFIT
 70
     3
  9
$DIMFRAC
 70
     0
  9
$DIMLDRBLK
  1

  9
$DIMLUNIT
 70
     2
  9
$DIMLWD
 70
    -2
  9
$DIMLWE
 70
    -2
  9
$DIMTMOVE
 70
     0
  9
$LUNITS
 70
     2
  9
$LUPREC
 70
     6
  9
$SKETCHINC
 40
1.0
  9
$FILLETRAD
 40
0.0
  9
$AUNITS
 70
     0
  9
$AUPREC
 70
     8
  9
$MENU
  1
.
  9
$ELEVATION
 40
0.0
  9
$PELEVATION
 40
0.0
  9
$THICKNESS
 40
0.0
  9
$LIMCHECK
 70
     0
  9
$CHAMFERA
 40
0.0
  9
$CHAMFERB
 40
0.0
  9
$CHAMFERC
 40
0.0
  9
$CHAMFERD
 40
0.0
  9
$SKPOLY
 70
     0
  9
$TDCREATE
 40
2454145.195247280
  9
$TDUCREATE
 40
2454144.820247280
  9
$TDUPDATE
 40
2454145.196122512
  9
$TDUUPDATE
 40
2454144.821122512
  9
$TDINDWG
 40
0.0008794213
  9
$TDUSRTIMER
 40
0.0008775694
  9
$USRTIMER
 70
     1
  9
$ANGBASE
 50
0.0
  9
$ANGDIR
 70
     0
  9
$PDMODE
 70
     0
  9
$PDSIZE
 40
0.0
  9
$PLINEWID
 40
0.0
  9
$SPLFRAME
 70
     0
  9
$SPLINETYPE
 70
     6
  9
$SPLINESEGS
 70
     8
  9
$HANDSEED
  5
B2FC
  9
$SURFTAB1
 70
     6
  9
$SURFTAB2
 70
     6
  9
$SURFTYPE
 70
     6
  9
$SURFU
 70
     6
  9
$SURFV
 70
     6
  9
$UCSBASE
  2

  9
$UCSNAME
  2

  9
$UCSORG
 10
0.0
 20
0.0
 30
0.0
  9
$UCSXDIR
 10
1.0
 20
0.0
 30
0.0
  9
$UCSYDIR
 10
0.0
 20
1.0
 30
0.0
  9
$UCSORTHOREF
  2

  9
$UCSORTHOVIEW
 70
     0
  9
$UCSORGTOP
 10
0.0
 20
0.0
 30
0.0
  9
$UCSORGBOTTOM
 10
0.0
 20
0.0
 30
0.0
  9
$UCSORGLEFT
 10
0.0
 20
0.0
 30
0.0
  9
$UCSORGRIGHT
 10
0.0
 20
0.0
 30
0.0
  9
$UCSORGFRONT
 10
0.0
 20
0.0
 30
0.0
  9
$UCSORGBACK
 10
0.0
 20
0.0
 30
0.0
  9
$PUCSBASE
  2

  9
$PUCSNAME
  2

  9
$PUCSORG
 10
0.0
 20
0.0
 30
0.0
  9
$PUCSXDIR
 10
1.0
 20
0.0
 30
0.0
  9
$PUCSYDIR
 10
0.0
 20
1.0
 30
0.0
  9
$PUCSORTHOREF
  2

  9
$PUCSORTHOVIEW
 70
     0
  9
$PUCSORGTOP
 10
0.0
 20
0.0
 30
0.0
  9
$PUCSORGBOTTOM
 10
0.0
 20
0.0
 30
0.0
  9
$PUCSORGLEFT
 10
0.0
 20
0.0
 30
0.0
  9
$PUCSORGRIGHT
 10
0.0
 20
0.0
 30
0.0
  9
$PUCSORGFRONT
 10
0.0
 20
0.0
 30
0.0
  9
$PUCSORGBACK
 10
0.0
 20
0.0
 30
0.0
  9
$USERI1
 70
     0
  9
$USERI2
 70
     0
  9
$USERI3
 70
     0
  9
$USERI4
 70
     0
  9
$USERI5
 70
     0
  9
$USERR1
 40
0.0
  9
$USERR2
 40
0.0
  9
$USERR3
 40
0.0
  9
$USERR4
 40
0.0
  9
$USERR5
 40
0.0
  9
$WORLDVIEW
 70
     1
  9
$SHADEDGE
 70
     3
  9
$SHADEDIF
 70
    70
  9
$TILEMODE
 70
     1
  9
$MAXACTVP
 70
    64
  9
$PINSBASE
 10
0.0
 20
0.0
 30
0.0
  9
$PLIMCHECK
 70
     0
  9
$PEXTMIN
 10
25.7
 20
19.5
 30
0.0
  9
$PEXTMAX
 10
231.3
 20
175.5
 30
0.0
  9
$PLIMMIN
 10
-20.0
 20
-7.5
  9
$PLIMMAX
 10
277.0
 20
202.5
  9
$UNITMODE
 70
     0
  9
$VISRETAIN
 70
     1
  9
$PLINEGEN
 70
     0
  9
$PSLTSCALE
 70
     0
  9
$TREEDEPTH
 70
  3020
  9
$CMLSTYLE
  2
Standard
  9
$CMLJUST
 70
     0
  9
$CMLSCALE
 40
20.0
  9
$PROXYGRAPHICS
 70
     1
  9
$MEASUREMENT
 70
     1
  9
$CELWEIGHT
370
    13
  9
$ENDCAPS
280
     0
  9
$JOINSTYLE
280
     0
  9
$LWDISPLAY
290
     1
  9
$INSUNITS
 70
     4
  9
$HYPERLINKBASE
  1

  9
$STYLESHEET
  1

  9
$XEDIT
290
     1
  9
$CEPSNTYPE
380
     0
  9
$PSTYLEMODE
290
     1
  9
$FINGERPRINTGUID
  2
{BE19174F-7F7B-40EF-93E6-0E508908013B}
  9
$VERSIONGUID
  2
{387A601E-E697-4F95-A263-71BCBFF6BFF5}
  9
$EXTNAMES
290
     1
  9
$PSVPSCALE
 40
0.0
  9
$OLESTARTUP
290
     0
  9
$SORTENTS
280
   127
  9
$INDEXCTL
280
     0
  9
$HIDETEXT
280
     1
  9
$XCLIPFRAME
290
     0
  9
$HALOGAP
280
     0
  9
$OBSCOLOR
 70
   257
  9
$OBSLTYPE
280
     0
  9
$INTERSECTIONDISPLAY
280
     0
  9
$INTERSECTIONCOLOR
 70
   257
  9
$DIMASSOC
280
     1
  9
$PROJECTNAME
  1

  0
ENDSEC
  0
SECTION
  2
CLASSES
  0
CLASS
  1
ACDBDICTIONARYWDFLT
  2
AcDbDictionaryWithDefault
  3
ObjectDBX Classes
 90
        0
 91
        1
280
     0
281
     0
  0
CLASS
  1
DICTIONARYVAR
  2
AcDbDictionaryVar
  3
ObjectDBX Classes
 90
        0
 91
        3
280
     0
281
     0
  0
CLASS
  1
TABLESTYLE
  2
AcDbTableStyle
  3
ObjectDBX Classes
 90
     4095
 91
        1
280
     0
281
     0
  0
CLASS
  1
MATERIAL
  2
AcDbMaterial
  3
ObjectDBX Classes
 90
     1153
 91
        3
280
     0
281
     0
  0
CLASS
  1
VISUALSTYLE
  2
AcDbVisualStyle
  3
ObjectDBX Classes
 90
     4095
 91
        3
280
     0
281
     0
  0
CLASS
  1
SCALE
  2
AcDbScale
  3
ObjectDBX Classes
 90
     1153
 91
       17
280
     0
281
     0
  0
CLASS
  1
MLEADERSTYLE
  2
AcDbMLeaderStyle
  3
ACDB_MLEADERSTYLE_CLASS
 90
     4095
 91
        0
280
     0
281
     0
  0
CLASS
  1
CELLSTYLEMAP
  2
AcDbCellStyleMap
  3
ObjectDBX Classes
 90
     1152
 91
        1
280
     0
281
     0
  0
ENDSEC
  0
SECTION
  2
TABLES
  0
TABLE
  2
VPORT
  5
B2A9
330
0
100
AcDbSymbolTable
 70
     2
  0
VPORT
  5
4B
330
B2A9
100
AcDbSymbolTableRecord
100
AcDbViewportTableRecord
  2
*ACTIVE
 70
     0
 10
0.0
 20
0.0
 11
1.0
 21
1.0
 12
186723.137725
 22
123869.154865
 13
0.0
 23
0.0
 14
100.0
 24
100.0
 15
100.0
 25
100.0
 16
0.0
 26
0.0
 36
1.0
 17
0.0
 27
0.0
 37
0.0
 40
21840.0
 41
3.442559
 42
50.0
 43
0.0
 44
0.0
 50
0.0
 51
0.0
 71
     0
 72
   100
 73
     1
 74
     0
 75
     0
 76
     0
 77
     0
 78
     1
281
     0
 65
     1
110
0.0
120
0.0
130
0.0
111
1.0
121
0.0
131
0.0
112
0.0
122
1.0
132
0.0
 79
     0
146
0.0
  0
ENDTAB
  0
TABLE
  2
LTYPE
  5
B2A4
330
0
100
AcDbSymbolTable
 70
    13
  0
LTYPE
  5
B2A5
330
B2A4
100
AcDbSymbolTableRecord
100
AcDbLinetypeTableRecord
  2
ByBlock
 70
     0
  3

 72
    65
 73
     0
 40
0.0
  0
LTYPE
  5
B2A6
330
B2A4
100
AcDbSymbolTableRecord
100
AcDbLinetypeTableRecord
  2
ByLayer
 70
     0
  3

 72
    65
 73
     0
 40
0.0
  0
LTYPE
  5
B293
330
B2A4
100
AcDbSymbolTableRecord
100
AcDbLinetypeTableRecord
  2
Continuous
 70
     0
  3
Solid line
 72
    65
 73
     0
 40
0.0
  0
LTYPE
  5
442B
330
B2A4
100
AcDbSymbolTableRecord
100
AcDbLinetypeTableRecord
  2
4_CENTER2
 70
     0
  3

 72
    65
 73
     4
 40
1.88
 49
1.4
 74
     0
 49
-0.16
 74
     0
 49
0.16
 74
     0
 49
-0.16
 74
     0
  0
LTYPE
  5
442D
330
B2A4
100
AcDbSymbolTableRecord
100
AcDbLinetypeTableRecord
  2
7_CENTER
 70
     0
  3

 72
    65
 73
     4
 40
6.68
 49
6.2
 74
     0
 49
-0.16
 74
     0
 49
0.16
 74
     0
 49
-0.16
 74
     0
  0
LTYPE
  5
4510
330
B2A4
100
AcDbSymbolTableRecord
100
AcDbLinetypeTableRecord
  2
2_HIDDEN2
 70
     0
  3

 72
    65
 73
     2
 40
0.34
 49
0.24
 74
     0
 49
-0.1
 74
     0
  0
LTYPE
  5
454A
330
B2A4
100
AcDbSymbolTableRecord
100
AcDbLinetypeTableRecord
  2
1_HIDDEN
 70
     0
  3

 72
    65
 73
     2
 40
0.1
 49
0.0
 74
     0
 49
-0.1
 74
     0
  0
LTYPE
  5
455C
330
B2A4
100
AcDbSymbolTableRecord
100
AcDbLinetypeTableRecord
  2
6_PHANTOM
 70
     0
  3

 72
    65
 73
     6
 40
4.9
 49
4.2
 74
     0
 49
-0.14
 74
     0
 49
0.14
 74
     0
 49
-0.14
 74
     0
 49
0.14
 74
     0
 49
-0.14
 74
     0
  0
LTYPE
  5
456E
330
B2A4
100
AcDbSymbolTableRecord
100
AcDbLinetypeTableRecord
  2
3_DASHED
 70
     0
  3

 72
    65
 73
     2
 40
0.58
 49
0.48
 74
     0
 49
-0.1
 74
     0
  0
LTYPE
  5
4D7E
330
B2A4
100
AcDbSymbolTableRecord
100
AcDbLinetypeTableRecord
  2
CENTER
 70
     0
  3

 72
    65
 73
     4
 40
50.8
 49
31.75
 74
     0
 49
-6.35
 74
     0
 49
6.35
 74
     0
 49
-6.35
 74
     0
  0
LTYPE
  5
B2E1
330
B2A4
100
AcDbSymbolTableRecord
100
AcDbLinetypeTableRecord
  2
DGN Style 1
 70
     0
  3
Dgn Style 1
 72
    65
 73
     2
 40
0.6
 49
0.0
 74
     0
 49
-0.6
 74
     0
  0
LTYPE
  5
B2E2
330
B2A4
100
AcDbSymbolTableRecord
100
AcDbLinetypeTableRecord
  2
DGN Style 2
 70
     0
  3
Dgn Style 2
 72
    65
 73
     2
 40
1.0
 49
0.6
 74
     0
 49
-0.4
 74
     0
  0
LTYPE
  5
B2E3
330
B2A4
100
AcDbSymbolTableRecord
100
AcDbLinetypeTableRecord
  2
DGN Style 6
 70
     0
  3
Dgn Style 6
 72
    65
 73
     6
 40
1.9
 49
0.0
 74
     0
 49
-0.4
 74
     0
 49
0.7
 74
     0
 49
-0.4
 74
     0
 49
0.0
 74
     0
 49
-0.4
 74
     0
  0
LTYPE
  5
B2E4
330
B2A4
100
AcDbSymbolTableRecord
100
AcDbLinetypeTableRecord
  2
DGN Style 4
 70
     0
  3
Dgn Style 4
 72
    65
 73
     4
 40
1.6
 49
0.8
 74
     0
 49
-0.4
 74
     0
 49
0.0
 74
     0
 49
-0.4
 74
     0
  0
LTYPE
  5
B2E5
330
B2A4
100
AcDbSymbolTableRecord
100
AcDbLinetypeTableRecord
  2
DGN Style 3
 70
     0
  3
Dgn Style 3
 72
    65
 73
     2
 40
1.4
 49
1.0
 74
     0
 49
-0.4
 74
     0
  0
ENDTAB
  0
TABLE
  2
LAYER
  5
B29E
102
{ACAD_XDICTIONARY
360
B29F
102
}
330
0
100
AcDbSymbolTable
 70
   136
  0
LAYER
  5
B286
330
B29E
100
AcDbSymbolTableRecord
100
AcDbLayerTableRecord
  2
0
 70
     0
 62
     7
  6
Continuous
370
    -3
390
B287
  0
LAYER
  5
53C2
330
B29E
100
AcDbSymbolTableRecord
100
AcDbLayerTableRecord
  2
A231_壁：種別
 70
     0
 62
     7
  6
Continuous
370
     9
390
B287
  0
LAYER
  5
9708
330
B29E
100
AcDbSymbolTableRecord
100
AcDbLayerTableRecord
  2
枠
 70
     0
 62
     7
  6
Continuous
290
     0
370
     9
390
B287
  0
LAYER
  5
9982
330
B29E
100
AcDbSymbolTableRecord
100
AcDbLayerTableRecord
  2
1階座席
 70
     0
 62
     3
  6
Continuous
370
     9
390
B287
  0
LAYER
  5
9B25
330
B29E
100
AcDbSymbolTableRecord
100
AcDbLayerTableRecord
  2
3-0通芯
 70
     0
 62
     7
  6
Continuous
370
     9
390
B287
  0
LAYER
  5
9DCA
330
B29E
100
AcDbSymbolTableRecord
100
AcDbLayerTableRecord
  2
2階座席
 70
     0
 62
     5
  6
Continuous
370
     9
390
B287
  0
LAYER
  5
4D86
330
B29E
100
AcDbSymbolTableRecord
100
AcDbLayerTableRecord
  2
A242_記号２
 70
     0
 62
     7
  6
Continuous
370
     9
390
B287
  0
LAYER
  5
4D87
330
B29E
100
AcDbSymbolTableRecord
100
AcDbLayerTableRecord
  2
A670_細点線
 70
     0
 62
     7
  6
DGN Style 1
370
     9
390
B287
  0
LAYER
  5
4D88
330
B29E
100
AcDbSymbolTableRecord
100
AcDbLayerTableRecord
  2
A661_中破線
 70
     0
 62
     7
  6
DGN Style 2
370
    13
390
B287
  0
LAYER
  5
4D89
330
B29E
100
AcDbSymbolTableRecord
100
AcDbLayerTableRecord
  2
A622_シャッター
 70
     0
 62
     7
  6
DGN Style 6
370
    13
390
B287
  0
LAYER
  5
4D8A
330
B29E
100
AcDbSymbolTableRecord
100
AcDbLayerTableRecord
  2
A854_衛生設備_記号
 70
     0
 62
   250
  6
Continuous
370
    13
390
B287
  0
LAYER
  5
4D8B
330
B29E
100
AcDbSymbolTableRecord
100
AcDbLayerTableRecord
  2
A322_ハッチング点線
 70
     0
 62
     7
  6
DGN Style 1
370
     9
390
B287
  0
LAYER
  5
4D8C
330
B29E
100
AcDbSymbolTableRecord
100
AcDbLayerTableRecord
  2
A743_駐車場
 70
     0
 62
     7
  6
Continuous
370
     9
390
B287
  0
LAYER
  5
4D8D
330
B29E
100
AcDbSymbolTableRecord
100
AcDbLayerTableRecord
  2
A740_外構
 70
     0
 62
     7
  6
Continuous
370
     9
390
B287
  0
LAYER
  5
4D8E
330
B29E
100
AcDbSymbolTableRecord
100
AcDbLayerTableRecord
  2
A823_サイン
 70
     0
 62
     7
  6
Continuous
370
     9
390
B287
  0
LAYER
  5
4D8F
330
B29E
100
AcDbSymbolTableRecord
100
AcDbLayerTableRecord
  2
A856_消防設備
 70
     0
 62
     7
  6
DGN Style 6
370
    13
390
B287
  0
LAYER
  5
4D90
330
B29E
100
AcDbSymbolTableRecord
100
AcDbLayerTableRecord
  2
A571_床ピット
 70
     0
 62
     7
  6
Continuous
370
     9
390
B287
  0
LAYER
  5
4D91
330
B29E
100
AcDbSymbolTableRecord
100
AcDbLayerTableRecord
  2
C132_ＧＬ
 70
     0
 62
     7
  6
DGN Style 4
370
     9
390
B287
  0
LAYER
  5
4D92
330
B29E
100
AcDbSymbolTableRecord
100
AcDbLayerTableRecord
  2
A343_基礎
 70
     0
 62
     7
  6
Continuous
370
     9
390
B287
  0
LAYER
  5
4D93
330
B29E
100
AcDbSymbolTableRecord
100
AcDbLayerTableRecord
  2
A344_樋
 70
     0
 62
     7
  6
Continuous
370
     9
390
B287
  0
LAYER
  5
4D95
330
B29E
100
AcDbSymbolTableRecord
100
AcDbLayerTableRecord
  2
A711_自敷地境界線
 70
     0
 62
     7
  6
DGN Style 6
370
    30
390
B287
  0
LAYER
  5
4D96
330
B29E
100
AcDbSymbolTableRecord
100
AcDbLayerTableRecord
  2
A733_工作物
 70
     0
 62
     7
  6
Continuous
370
     9
390
B287
  0
LAYER
  5
4D97
330
B29E
100
AcDbSymbolTableRecord
100
AcDbLayerTableRecord
  2
A732_舗装
 70
     0
 62
     7
  6
Continuous
370
     9
390
B287
  0
LAYER
  5
4D98
330
B29E
100
AcDbSymbolTableRecord
100
AcDbLayerTableRecord
  2
A741_擁壁
 70
     0
 62
     7
  6
Continuous
370
     9
390
B287
  0
LAYER
  5
4D99
330
B29E
100
AcDbSymbolTableRecord
100
AcDbLayerTableRecord
  2
A742_解体建物
 70
     0
 62
     7
  6
Continuous
370
     9
390
B287
  0
LAYER
  5
4D9A
330
B29E
100
AcDbSymbolTableRecord
100
AcDbLayerTableRecord
  2
A650_細実線
 70
     0
 62
    30
  6
Continuous
370
     9
390
B287
  0
LAYER
  5
4D9B
330
B29E
100
AcDbSymbolTableRecord
100
AcDbLayerTableRecord
  2
A651_中実線
 70
     0
 62
     7
  6
Continuous
370
    13
390
B287
  0
LAYER
  5
4D9C
330
B29E
100
AcDbSymbolTableRecord
100
AcDbLayerTableRecord
  2
A652_太実線
 70
     0
 62
     7
  6
Continuous
370
    30
390
B287
  0
LAYER
  5
4D9D
330
B29E
100
AcDbSymbolTableRecord
100
AcDbLayerTableRecord
  2
A660_細破線
 70
     0
 62
     7
  6
DGN Style 2
370
     9
390
B287
  0
LAYER
  5
4D9E
330
B29E
100
AcDbSymbolTableRecord
100
AcDbLayerTableRecord
  2
A662_太破線
 70
     0
 62
     7
  6
DGN Style 2
370
    30
390
B287
  0
LAYER
  5
4D9F
330
B29E
100
AcDbSymbolTableRecord
100
AcDbLayerTableRecord
  2
A671_中点線
 70
     0
 62
     7
  6
DGN Style 1
370
    13
390
B287
  0
LAYER
  5
4DA0
330
B29E
100
AcDbSymbolTableRecord
100
AcDbLayerTableRecord
  2
A672_太点線
 70
     0
 62
     7
  6
DGN Style 1
370
    30
390
B287
  0
LAYER
  5
4DA1
330
B29E
100
AcDbSymbolTableRecord
100
AcDbLayerTableRecord
  2
A680_細鎖線
 70
     0
 62
     7
  6
DGN Style 6
370
     9
390
B287
  0
LAYER
  5
4DA2
330
B29E
100
AcDbSymbolTableRecord
100
AcDbLayerTableRecord
  2
A681_中鎖線
 70
     0
 62
     7
  6
DGN Style 6
370
    13
390
B287
  0
LAYER
  5
4DA3
330
B29E
100
AcDbSymbolTableRecord
100
AcDbLayerTableRecord
  2
A682_太鎖線
 70
     0
 62
     7
  6
DGN Style 6
370
    30
390
B287
  0
LAYER
  5
4DA4
330
B29E
100
AcDbSymbolTableRecord
100
AcDbLayerTableRecord
  2
A244_記号中線
 70
     0
 62
     7
  6
Continuous
370
    13
390
B287
  0
LAYER
  5
4DA5
330
B29E
100
AcDbSymbolTableRecord
100
AcDbLayerTableRecord
  2
A245_記号太線
 70
     0
 62
     7
  6
Continuous
370
    30
390
B287
  0
LAYER
  5
4DA6
330
B29E
100
AcDbSymbolTableRecord
100
AcDbLayerTableRecord
  2
A246_記号点線
 70
     0
 62
     7
  6
DGN Style 1
370
     9
390
B287
  0
LAYER
  5
4DA7
330
B29E
100
AcDbSymbolTableRecord
100
AcDbLayerTableRecord
  2
A247_記号破線
 70
     0
 62
     7
  6
DGN Style 2
370
     9
390
B287
  0
LAYER
  5
4DA8
330
B29E
100
AcDbSymbolTableRecord
100
AcDbLayerTableRecord
  2
A323_ハッチング破線
 70
     0
 62
     7
  6
DGN Style 2
370
     9
390
B287
  0
LAYER
  5
4DA9
330
B29E
100
AcDbSymbolTableRecord
100
AcDbLayerTableRecord
  2
A714_各種制限線
 70
     0
 62
     7
  6
DGN Style 6
370
     9
390
B287
  0
LAYER
  5
4DAA
330
B29E
100
AcDbSymbolTableRecord
100
AcDbLayerTableRecord
  2
A565_目地点線
 70
     0
 62
     7
  6
DGN Style 1
370
     9
390
B287
  0
LAYER
  5
4DAB
330
B29E
100
AcDbSymbolTableRecord
100
AcDbLayerTableRecord
  2
A566_目地破線
 70
     0
 62
     7
  6
DGN Style 2
370
     9
390
B287
  0
LAYER
  5
4DAC
330
B29E
100
AcDbSymbolTableRecord
100
AcDbLayerTableRecord
  2
A347_防水
 70
     0
 62
     7
  6
DGN Style 6
370
    13
390
B287
  0
LAYER
  5
4DAD
330
B29E
100
AcDbSymbolTableRecord
100
AcDbLayerTableRecord
  2
A222_引出線
 70
     0
 62
     7
  6
Continuous
370
     9
390
B287
  0
LAYER
  5
4DAE
330
B29E
100
AcDbSymbolTableRecord
100
AcDbLayerTableRecord
  2
A712_他敷地境界線
 70
     0
 62
     7
  6
DGN Style 6
370
     9
390
B287
  0
LAYER
  5
4DAF
330
B29E
100
AcDbSymbolTableRecord
100
AcDbLayerTableRecord
  2
A614_カーテン実線
 70
     0
 62
     7
  6
Continuous
370
     9
390
B287
  0
LAYER
  5
4DB0
330
B29E
100
AcDbSymbolTableRecord
100
AcDbLayerTableRecord
  2
A842_搬送機破線
 70
     0
 62
     7
  6
DGN Style 2
370
     9
390
B287
  0
LAYER
  5
4DB1
330
B29E
100
AcDbSymbolTableRecord
100
AcDbLayerTableRecord
  2
C131_通芯
 70
     0
 62
     7
  6
DGN Style 4
370
     9
390
B287
  0
LAYER
  5
4DB2
330
B29E
100
AcDbSymbolTableRecord
100
AcDbLayerTableRecord
  2
C151_壁芯
 70
     0
 62
     7
  6
DGN Style 4
370
     9
390
B287
  0
LAYER
  5
4DB3
330
B29E
100
AcDbSymbolTableRecord
100
AcDbLayerTableRecord
  2
C135_捨芯
 70
     0
 62
     7
  6
DGN Style 4
290
     0
370
     9
390
B287
  0
LAYER
  5
4999
330
B29E
100
AcDbSymbolTableRecord
100
AcDbLayerTableRecord
  2
A221_記入文字
 70
     0
 62
     7
  6
Continuous
370
     9
390
B287
  0
LAYER
  5
4C79
330
B29E
100
AcDbSymbolTableRecord
100
AcDbLayerTableRecord
  2
A341_床ピット
 70
     0
 62
   201
  6
Continuous
370
    13
390
B287
  0
LAYER
  5
4C7B
330
B29E
100
AcDbSymbolTableRecord
100
AcDbLayerTableRecord
  2
C111_図枠
 70
     0
 62
     7
  6
Continuous
370
     9
390
B287
  0
LAYER
  5
4C7D
330
B29E
100
AcDbSymbolTableRecord
100
AcDbLayerTableRecord
  2
C121_図面名称
 70
     0
 62
     7
  6
Continuous
370
    53
390
B287
  0
LAYER
  5
4C7F
330
B29E
100
AcDbSymbolTableRecord
100
AcDbLayerTableRecord
  2
C115_OFF
 70
     0
 62
     7
  6
Continuous
290
     0
370
     9
390
B287
  0
LAYER
  5
4C83
330
B29E
100
AcDbSymbolTableRecord
100
AcDbLayerTableRecord
  2
C132_FL
 70
     0
 62
     7
  6
Continuous
370
    40
390
B287
  0
LAYER
  5
4C87
330
B29E
100
AcDbSymbolTableRecord
100
AcDbLayerTableRecord
  2
C133_雑芯
 70
     0
 62
     7
  6
DGN Style 4
370
     9
390
B287
  0
LAYER
  5
4C89
330
B29E
100
AcDbSymbolTableRecord
100
AcDbLayerTableRecord
  2
C134_雑芯２
 70
     0
 62
     7
  6
DGN Style 4
370
     9
390
B287
  0
LAYER
  5
4C8D
330
B29E
100
AcDbSymbolTableRecord
100
AcDbLayerTableRecord
  2
C136_雑芯３
 70
     0
 62
     7
  6
DGN Style 4
370
     9
390
B287
  0
LAYER
  5
4C8F
330
B29E
100
AcDbSymbolTableRecord
100
AcDbLayerTableRecord
  2
C137_雑芯４
 70
     0
 62
   254
  6
DGN Style 4
370
     9
390
B287
  0
LAYER
  5
4C91
330
B29E
100
AcDbSymbolTableRecord
100
AcDbLayerTableRecord
  2
C138_雑芯５
 70
     0
 62
    40
  6
DGN Style 4
370
     9
390
B287
  0
LAYER
  5
4459
330
B29E
100
AcDbSymbolTableRecord
100
AcDbLayerTableRecord
  2
C161_通心寸法
 70
     0
 62
     7
  6
Continuous
370
     9
390
B287
  0
LAYER
  5
445D
330
B29E
100
AcDbSymbolTableRecord
100
AcDbLayerTableRecord
  2
C162_その他寸法
 70
     0
 62
     7
  6
Continuous
370
     9
390
B287
  0
LAYER
  5
4C95
330
B29E
100
AcDbSymbolTableRecord
100
AcDbLayerTableRecord
  2
A211_室名
 70
     0
 62
     7
  6
Continuous
370
     9
390
B287
  0
LAYER
  5
4C97
330
B29E
100
AcDbSymbolTableRecord
100
AcDbLayerTableRecord
  2
A241_方位
 70
     0
 62
     7
  6
Continuous
370
     9
390
B287
  0
LAYER
  5
4C99
330
B29E
100
AcDbSymbolTableRecord
100
AcDbLayerTableRecord
  2
A242_記号
 70
     0
 62
     7
  6
Continuous
370
     9
390
B287
  0
LAYER
  5
4C9B
330
B29E
100
AcDbSymbolTableRecord
100
AcDbLayerTableRecord
  2
A243_建具記号
 70
     0
 62
     7
  6
Continuous
370
     9
390
B287
  0
LAYER
  5
4C9D
330
B29E
100
AcDbSymbolTableRecord
100
AcDbLayerTableRecord
  2
A245_雲マーク
 70
     0
 62
     7
  6
Continuous
370
    40
390
B287
  0
LAYER
  5
4C9F
330
B29E
100
AcDbSymbolTableRecord
100
AcDbLayerTableRecord
  2
A311_吹抜線
 70
     0
 62
     7
  6
DGN Style 4
370
     9
390
B287
  0
LAYER
  5
4CA1
330
B29E
100
AcDbSymbolTableRecord
100
AcDbLayerTableRecord
  2
A321_ハッチング
 70
     0
 62
     7
  6
Continuous
370
     9
390
B287
  0
LAYER
  5
4CA3
330
B29E
100
AcDbSymbolTableRecord
100
AcDbLayerTableRecord
  2
A342_屋根・庇
 70
     0
 62
     7
  6
Continuous
370
     9
390
B287
  0
LAYER
  5
4CA5
330
B29E
100
AcDbSymbolTableRecord
100
AcDbLayerTableRecord
  2
A343_機械基礎
 70
     0
 62
     7
  6
Continuous
370
     9
390
B287
  0
LAYER
  5
4CA7
330
B29E
100
AcDbSymbolTableRecord
100
AcDbLayerTableRecord
  2
A361_ＯＦＦ
 70
     0
 62
     7
  6
Continuous
370
     9
390
B287
  0
LAYER
  5
4CA9
330
B29E
100
AcDbSymbolTableRecord
100
AcDbLayerTableRecord
  2
A411_柱：ＲＣ
 70
     0
 62
     7
  6
DGN Style 2
370
     9
390
B287
  0
LAYER
  5
4CAB
330
B29E
100
AcDbSymbolTableRecord
100
AcDbLayerTableRecord
  2
A412_柱：Ｓ
 70
     0
 62
     7
  6
Continuous
370
    30
390
B287
  0
LAYER
  5
4CAD
330
B29E
100
AcDbSymbolTableRecord
100
AcDbLayerTableRecord
  2
A421_壁：ＲＣ
 70
     0
 62
     7
  6
Continuous
370
    30
390
B287
  0
LAYER
  5
4CAF
330
B29E
100
AcDbSymbolTableRecord
100
AcDbLayerTableRecord
  2
A422_壁：ＡＬＣ
 70
     0
 62
     7
  6
Continuous
370
    13
390
B287
  0
LAYER
  5
4CB1
330
B29E
100
AcDbSymbolTableRecord
100
AcDbLayerTableRecord
  2
A431_梁
 70
     0
 62
     7
  6
Continuous
370
     9
390
B287
  0
LAYER
  5
4CB3
330
B29E
100
AcDbSymbolTableRecord
100
AcDbLayerTableRecord
  2
A441_壁：ＬＧＳ
 70
     0
 62
     7
  6
Continuous
370
    13
390
B287
  0
LAYER
  5
4CB5
330
B29E
100
AcDbSymbolTableRecord
100
AcDbLayerTableRecord
  2
A442_壁：木軸
 70
     0
 62
     7
  6
Continuous
370
    13
390
B287
  0
LAYER
  5
4CB7
330
B29E
100
AcDbSymbolTableRecord
100
AcDbLayerTableRecord
  2
A444_壁：下地鉄骨、間柱
 70
     0
 62
     7
  6
Continuous
370
     9
390
B287
  0
LAYER
  5
4CB9
330
B29E
100
AcDbSymbolTableRecord
100
AcDbLayerTableRecord
  2
A521_壁：仕上
 70
     0
 62
     7
  6
Continuous
370
    30
390
B287
  0
LAYER
  5
4CBB
330
B29E
100
AcDbSymbolTableRecord
100
AcDbLayerTableRecord
  2
R003_防火区画
 70
     0
 62
     7
  6
Continuous
370
    70
390
B287
  0
LAYER
  5
4CBD
330
B29E
100
AcDbSymbolTableRecord
100
AcDbLayerTableRecord
  2
R004_防煙区画
 70
     0
 62
     7
  6
Continuous
370
    70
390
B287
  0
LAYER
  5
4CBF
330
B29E
100
AcDbSymbolTableRecord
100
AcDbLayerTableRecord
  2
A522_壁：仕上
 70
     0
 62
     7
  6
Continuous
370
    30
390
B287
  0
LAYER
  5
4CC1
330
B29E
100
AcDbSymbolTableRecord
100
AcDbLayerTableRecord
  2
A523_壁：仕上
 70
     0
 62
     7
  6
Continuous
370
    30
390
B287
  0
LAYER
  5
4CC3
330
B29E
100
AcDbSymbolTableRecord
100
AcDbLayerTableRecord
  2
A524_壁：仕上
 70
     0
 62
     7
  6
Continuous
370
    30
390
B287
  0
LAYER
  5
4CC5
330
B29E
100
AcDbSymbolTableRecord
100
AcDbLayerTableRecord
  2
A525_壁：仕上
 70
     0
 62
     7
  6
Continuous
370
    30
390
B287
  0
LAYER
  5
4CC7
330
B29E
100
AcDbSymbolTableRecord
100
AcDbLayerTableRecord
  2
A531_パーティション
 70
     0
 62
     7
  6
Continuous
370
    13
390
B287
  0
LAYER
  5
4CC9
330
B29E
100
AcDbSymbolTableRecord
100
AcDbLayerTableRecord
  2
A551_階段
 70
     0
 62
     7
  6
Continuous
370
     9
390
B287
  0
LAYER
  5
4CCB
330
B29E
100
AcDbSymbolTableRecord
100
AcDbLayerTableRecord
  2
A561_耐火被覆
 70
     0
 62
     7
  6
Continuous
370
     9
390
B287
  0
LAYER
  5
4CCD
330
B29E
100
AcDbSymbolTableRecord
100
AcDbLayerTableRecord
  2
A562_断熱材
 70
     0
 62
     7
  6
Continuous
370
     9
390
B287
  0
LAYER
  5
4CCF
330
B29E
100
AcDbSymbolTableRecord
100
AcDbLayerTableRecord
  2
A563_手摺
 70
     0
 62
     7
  6
Continuous
370
     9
390
B287
  0
LAYER
  5
4CD1
330
B29E
100
AcDbSymbolTableRecord
100
AcDbLayerTableRecord
  2
A564_目地
 70
     0
 62
     7
  6
Continuous
370
     9
390
B287
  0
LAYER
  5
4CD3
330
B29E
100
AcDbSymbolTableRecord
100
AcDbLayerTableRecord
  2
A565_側溝
 70
     0
 62
     7
  6
Continuous
370
     9
390
B287
  0
LAYER
  5
4CD5
330
B29E
100
AcDbSymbolTableRecord
100
AcDbLayerTableRecord
  2
A566_樋
 70
     0
 62
     7
  6
Continuous
370
     9
390
B287
  0
LAYER
  5
4CD7
330
B29E
100
AcDbSymbolTableRecord
100
AcDbLayerTableRecord
  2
A568_EXP．J
 70
     0
 62
     7
  6
Continuous
370
     9
390
B287
  0
LAYER
  5
4CD9
330
B29E
100
AcDbSymbolTableRecord
100
AcDbLayerTableRecord
  2
A569_雑金物
 70
     0
 62
     7
  6
Continuous
370
     9
390
B287
  0
LAYER
  5
4CDB
330
B29E
100
AcDbSymbolTableRecord
100
AcDbLayerTableRecord
  2
A611_窓
 70
     0
 62
     7
  6
Continuous
370
     9
390
B287
  0
LAYER
  5
4CDD
330
B29E
100
AcDbSymbolTableRecord
100
AcDbLayerTableRecord
  2
A621_扉枠
 70
     0
 62
     7
  6
Continuous
370
    30
390
B287
  0
LAYER
  5
4CDF
330
B29E
100
AcDbSymbolTableRecord
100
AcDbLayerTableRecord
  2
A624_沓摺
 70
     0
 62
     7
  6
Continuous
370
     9
390
B287
  0
LAYER
  5
4CE1
330
B29E
100
AcDbSymbolTableRecord
100
AcDbLayerTableRecord
  2
A622_扉
 70
     0
 62
     7
  6
Continuous
370
    13
390
B287
  0
LAYER
  5
4CE3
330
B29E
100
AcDbSymbolTableRecord
100
AcDbLayerTableRecord
  2
A725_等高線
 70
     0
 62
     7
  6
Continuous
370
     9
390
B287
  0
LAYER
  5
4CE5
330
B29E
100
AcDbSymbolTableRecord
100
AcDbLayerTableRecord
  2
A731_門･塀
 70
     0
 62
     7
  6
Continuous
370
     9
390
B287
  0
LAYER
  5
4CE7
330
B29E
100
AcDbSymbolTableRecord
100
AcDbLayerTableRecord
  2
A741_植栽
 70
     0
 62
     7
  6
Continuous
370
     9
390
B287
  0
LAYER
  5
4CE9
330
B29E
100
AcDbSymbolTableRecord
100
AcDbLayerTableRecord
  2
A811_造作家具
 70
     0
 62
     7
  6
Continuous
370
     9
390
B287
  0
LAYER
  5
4CEB
330
B29E
100
AcDbSymbolTableRecord
100
AcDbLayerTableRecord
  2
A822_別途：家具
 70
     0
 62
     7
  6
DGN Style 1
370
     9
390
B287
  0
LAYER
  5
4CED
330
B29E
100
AcDbSymbolTableRecord
100
AcDbLayerTableRecord
  2
A831_衛生機器
 70
     0
 62
     7
  6
Continuous
370
     9
390
B287
  0
LAYER
  5
4CEF
330
B29E
100
AcDbSymbolTableRecord
100
AcDbLayerTableRecord
  2
A841_ＥＬＶ・ＥＳＣ
 70
     0
 62
     7
  6
Continuous
370
     9
390
B287
  0
LAYER
  5
4CF1
330
B29E
100
AcDbSymbolTableRecord
100
AcDbLayerTableRecord
  2
A851_電気設備_実形
 70
     0
 62
     7
  6
Continuous
370
     9
390
B287
  0
LAYER
  5
4CF3
330
B29E
100
AcDbSymbolTableRecord
100
AcDbLayerTableRecord
  2
A855_空調設備_実形
 70
     0
 62
    67
  6
Continuous
370
     9
390
B287
  0
LAYER
  5
4CF5
330
B29E
100
AcDbSymbolTableRecord
100
AcDbLayerTableRecord
  2
R001_申請用文字
 70
     0
 62
     7
  6
Continuous
370
     9
390
B287
  0
LAYER
  5
4CF7
330
B29E
100
AcDbSymbolTableRecord
100
AcDbLayerTableRecord
  2
R002_1F延焼の恐れのある部分
 70
     0
 62
     7
  6
DGN Style 4
370
     9
390
B287
  0
LAYER
  5
4CF9
330
B29E
100
AcDbSymbolTableRecord
100
AcDbLayerTableRecord
  2
R012_2F延焼の恐れのある部分
 70
     0
 62
     7
  6
DGN Style 4
370
     9
390
B287
  0
LAYER
  5
4CFB
330
B29E
100
AcDbSymbolTableRecord
100
AcDbLayerTableRecord
  2
A362_ON
 70
     0
 62
     7
  6
Continuous
370
     9
390
B287
  0
LAYER
  5
4CFD
330
B29E
100
AcDbSymbolTableRecord
100
AcDbLayerTableRecord
  2
A425_石・タイル
 70
     0
 62
     7
  6
Continuous
370
    13
390
B287
  0
LAYER
  5
4CFF
330
B29E
100
AcDbSymbolTableRecord
100
AcDbLayerTableRecord
  2
A570_樹脂類
 70
     0
 62
     7
  6
Continuous
370
     9
390
B287
  0
LAYER
  5
4D01
330
B29E
100
AcDbSymbolTableRecord
100
AcDbLayerTableRecord
  2
A571_シーリング
 70
     0
 62
     7
  6
Continuous
370
     9
390
B287
  0
LAYER
  5
4D03
330
B29E
100
AcDbSymbolTableRecord
100
AcDbLayerTableRecord
  2
A860_車両
 70
     0
 62
     7
  6
DGN Style 2
370
     9
390
B287
  0
LAYER
  5
4D05
330
B29E
100
AcDbSymbolTableRecord
100
AcDbLayerTableRecord
  2
A331_見上げ線
 70
     0
 62
     7
  6
DGN Style 2
370
     9
390
B287
  0
LAYER
  5
4D07
330
B29E
100
AcDbSymbolTableRecord
100
AcDbLayerTableRecord
  2
A613_カーテンボックス
 70
     0
 62
     7
  6
Continuous
370
     9
390
B287
  0
LAYER
  5
4D09
330
B29E
100
AcDbSymbolTableRecord
100
AcDbLayerTableRecord
  2
A346_見え掛り線
 70
     0
 62
     7
  6
Continuous
370
     9
390
B287
  0
LAYER
  5
4D0B
330
B29E
100
AcDbSymbolTableRecord
100
AcDbLayerTableRecord
  2
A430_地業
 70
     0
 62
    35
  6
Continuous
370
     9
390
B287
  0
LAYER
  5
4D0D
330
B29E
100
AcDbSymbolTableRecord
100
AcDbLayerTableRecord
  2
A711_境界線
 70
     0
 62
     7
  6
Continuous
370
     9
390
B287
  0
LAYER
  5
4D0F
330
B29E
100
AcDbSymbolTableRecord
100
AcDbLayerTableRecord
  2
A735_建物の外周線
 70
     0
 62
     7
  6
Continuous
370
    30
390
B287
  0
LAYER
  5
4D11
330
B29E
100
AcDbSymbolTableRecord
100
AcDbLayerTableRecord
  2
A736_既存建物
 70
     0
 62
     4
  6
DGN Style 3
370
     9
390
B287
  0
LAYER
  5
4D13
330
B29E
100
AcDbSymbolTableRecord
100
AcDbLayerTableRecord
  2
A722_周辺道路
 70
     0
 62
     8
  6
Continuous
370
     9
390
B287
  0
LAYER
  5
4D15
330
B29E
100
AcDbSymbolTableRecord
100
AcDbLayerTableRecord
  2
A723_周辺建物
 70
     0
 62
   201
  6
Continuous
370
     9
390
B287
  0
LAYER
  5
4D17
330
B29E
100
AcDbSymbolTableRecord
100
AcDbLayerTableRecord
  2
A345_既存部分
 70
     0
 62
     8
  6
DGN Style 2
370
     9
390
B287
  0
LAYER
  5
4D19
330
B29E
100
AcDbSymbolTableRecord
100
AcDbLayerTableRecord
  2
A312_面積算定線
 70
     0
 62
     7
  6
Continuous
370
    40
390
B287
  0
LAYER
  5
4D1B
330
B29E
100
AcDbSymbolTableRecord
100
AcDbLayerTableRecord
  2
A853_衛生設備_実形
 70
     0
 62
     7
  6
Continuous
370
     9
390
B287
  0
LAYER
  5
4D1E
330
B29E
100
AcDbSymbolTableRecord
100
AcDbLayerTableRecord
  2
A721_道路中心線
 70
     0
 62
     7
  6
Continuous
370
     9
390
B287
  0
LAYER
  5
4D20
330
B29E
100
AcDbSymbolTableRecord
100
AcDbLayerTableRecord
  2
A713_斜線制限
 70
     0
 62
     7
  6
Continuous
370
     9
390
B287
  0
LAYER
  5
4D22
330
B29E
100
AcDbSymbolTableRecord
100
AcDbLayerTableRecord
  2
A733_ストリートファニチャ
 70
     0
 62
     7
  6
Continuous
370
     9
390
B287
  0
LAYER
  5
4D24
330
B29E
100
AcDbSymbolTableRecord
100
AcDbLayerTableRecord
  2
A732_ペイブメント
 70
     0
 62
     7
  6
Continuous
370
     9
390
B287
  0
ENDTAB
  0
TABLE
  2
STYLE
  5
B2A1
330
0
100
AcDbSymbolTable
 70
     3
  0
STYLE
  5
B2A2
330
B2A1
100
AcDbSymbolTableRecord
100
AcDbTextStyleTableRecord
  2
Standard
 70
     0
 40
0.0
 41
1.0
 50
0.0
 71
     0
 42
225.0
  3
txt
  4

  0
STYLE
  5
B2E6
330
B2A1
100
AcDbSymbolTableRecord
100
AcDbTextStyleTableRecord
  2
Style-HGSｺﾞｼｯｸM
 70
     0
 40
0.0
 41
1.0
 50
0.0
 71
     0
 42
225.0
  3

  4

1001
ACAD
1000
HGSGothicM
1071
    32823
  0
STYLE
  5
B2E8
330
B2A1
100
AcDbSymbolTableRecord
100
AcDbTextStyleTableRecord
  2
Style-HG明朝B
 70
     0
 40
0.0
 41
1.0
 50
0.0
 71
     0
 42
225.0
  3

  4

1001
ACAD
1000
HGMinchoB
1071
    32790
  0
ENDTAB
  0
TABLE
  2
VIEW
  5
B2A7
330
0
100
AcDbSymbolTable
 70
     0
  0
ENDTAB
  0
TABLE
  2
UCS
  5
B2A8
330
0
100
AcDbSymbolTable
 70
     0
  0
ENDTAB
  0
TABLE
  2
APPID
  5
B2AD
330
0
100
AcDbSymbolTable
 70
     2
  0
APPID
  5
B2AE
330
B2AD
100
AcDbSymbolTableRecord
100
AcDbRegAppTableRecord
  2
ACAD
 70
     0
  0
APPID
  5
B297
330
B2AD
100
AcDbSymbolTableRecord
100
AcDbRegAppTableRecord
  2
ACAD_PSEXT
 70
     0
  0
ENDTAB
  0
TABLE
  2
DIMSTYLE
  5
B2AF
330
0
100
AcDbSymbolTable
 70
     1
100
AcDbDimStyleTable
 71
     1
340
B2B0
  0
DIMSTYLE
105
B2B0
330
B2AF
100
AcDbSymbolTableRecord
100
AcDbDimStyleTableRecord
  2
ISO-25
 70
     0
 41
2.5
 42
0.625
 43
3.75
 44
1.25
 73
     0
 74
     0
 77
     1
 78
     8
140
2.5
141
2.5
143
0.03937
147
0.625
171
     3
172
     1
271
     2
272
     2
274
     3
278
    44
283
     0
284
     8
340
B2A2
  0
ENDTAB
  0
TABLE
  2
BLOCK_RECORD
  5
B283
330
0
100
AcDbSymbolTable
 70
     0
  0
BLOCK_RECORD
  5
B284
330
B283
100
AcDbSymbolTableRecord
100
AcDbBlockTableRecord
  2
*Model_Space
340
B295
  0
BLOCK_RECORD
  5
B298
330
B283
100
AcDbSymbolTableRecord
100
AcDbBlockTableRecord
  2
*Paper_Space
340
B29B
  0
ENDTAB
  0
ENDSEC
  0
SECTION
  2
BLOCKS
  0
BLOCK
  5
B285
330
B284
100
AcDbEntity
  8
0
100
AcDbBlockBegin
  2
*Model_Space
 70
     0
 10
0.0
 20
0.0
 30
0.0
  3
*Model_Space
  1

  0
ENDBLK
  5
B294
330
B284
100
AcDbEntity
  8
0
100
AcDbBlockEnd
  0
BLOCK
  5
B299
330
B298
100
AcDbEntity
 67
     1
  8
0
100
AcDbBlockBegin
  2
*Paper_Space
 70
     0
 10
0.0
 20
0.0
 30
0.0
  3
*Paper_Space
  1

  0
ENDBLK
  5
B29A
330
B298
100
AcDbEntity
 67
     1
  8
0
100
AcDbBlockEnd
  0
ENDSEC
  0
SECTION
  2
ENTITIES
  0
TEXT
  5
AF51
330
B284
100
AcDbEntity
  8
1階座席
  6
Continuous
 62
     7
370
     9
100
AcDbText
 10
182367.615395
 20
121809.291881
 30
0.0
 40
225.0
  1
舞台裏通路
  7
Style-HGSｺﾞｼｯｸM
 11
182367.615395
 21
122034.291881
 31
0.0
100
AcDbText
 73
     3
  0
TEXT
  5
AF52
330
B284
100
AcDbEntity
  8
1階座席
  6
Continuous
 62
     7
370
     9
100
AcDbText
 10
186468.030522
 20
121281.101375
 30
0.0
 40
225.0
  1
舞台下手
  7
Style-HGSｺﾞｼｯｸM
 11
186468.030522
 21
121506.101375
 31
0.0
100
AcDbText
 73
     3
  0
LINE
  5
AF53
330
B284
100
AcDbEntity
  8
3-0通芯
  6
Continuous
 62
     7
370
    13
100
AcDbLine
 10
193459.080037
 20
128019.946738
 30
0.0
 11
193459.080037
 21
125803.697106
 31
0.0
  0
LWPOLYLINE
  5
AF54
330
B284
100
AcDbEntity
  8
3-0通芯
  6
Continuous
 62
     7
370
    13
100
AcDbPolyline
 90
        3
 70
   128
 43
0.0
 10
193659.080037
 20
127719.946738
 10
193459.080037
 20
128019.946738
 10
193259.080037
 20
127719.946738
  0
LWPOLYLINE
  5
AF55
330
B284
100
AcDbEntity
  8
3-0通芯
  6
Continuous
 62
     7
370
    13
100
AcDbPolyline
 90
        3
 70
   128
 43
0.0
 10
193659.080037
 20
123009.946738
 10
193459.080037
 20
122709.946738
 10
193259.080037
 20
123009.946738
  0
TEXT
  5
AF56
330
B284
100
AcDbEntity
  8
1階座席
  6
Continuous
 62
     7
370
    13
100
AcDbText
 10
193247.544893
 20
125481.14083
 30
0.0
 40
225.0
  1
5.3
  7
Style-HGSｺﾞｼｯｸM
 11
193247.544893
 21
125706.14083
 31
0.0
100
AcDbText
 73
     3
  0
LINE
  5
AF57
330
B284
100
AcDbEntity
  8
3-0通芯
  6
Continuous
 62
     7
370
    13
100
AcDbLine
 10
193459.080037
 20
125364.946738
 30
0.0
 11
193459.080037
 21
122709.946738
 31
0.0
  0
TEXT
  5
AF58
330
B284
100
AcDbEntity
  8
1階座席
  6
Continuous
 62
     7
370
     9
100
AcDbText
 10
191289.541313
 20
114035.093994
 30
0.0
 40
325.0
  1
1
  7
Style-HGSｺﾞｼｯｸM
 11
191289.541313
 21
114360.093994
 31
0.0
100
AcDbText
 73
     3
  0
TEXT
  5
AF59
330
B284
100
AcDbEntity
  8
1階座席
  6
Continuous
 62
     7
370
     9
100
AcDbText
 10
192245.088625
 20
114576.240977
 30
0.0
 40
275.0
  1
SC=1/100(A4)
 41
1.090909
  7
Style-HGSｺﾞｼｯｸM
 11
192245.088625
 21
114851.240977
 31
0.0
100
AcDbText
 73
     3
  0
TEXT
  5
AF5A
330
B284
100
AcDbEntity
  8
1階座席
  6
Continuous
 62
     7
370
     9
100
AcDbText
 10
183305.870717
 20
114221.154096
 30
0.0
 40
375.0
  1
大ホール控室（東控室）
 41
0.8
  7
Style-HGSｺﾞｼｯｸM
 11
183305.870717
 21
114596.154096
 31
0.0
100
AcDbText
 73
     3
  0
TEXT
  5
AF5B
330
B284
100
AcDbEntity
  8
1階座席
  6
Continuous
 62
     7
370
     9
100
AcDbText
 10
192445.841084
 20
113934.086933
 30
0.0
 40
325.0
  1
29
  7
Style-HGSｺﾞｼｯｸM
 11
192445.841084
 21
114259.086933
 31
0.0
100
AcDbText
 73
     3
  0
LINE
  5
AF5C
330
B284
100
AcDbEntity
  8
A733_ストリートファニチャ
 62
     7
370
     9
100
AcDbLine
 10
182187.324231
 20
125541.946738
 30
0.0
 11
181952.324231
 21
125541.946738
 31
0.0
  0
LINE
  5
AF5D
330
B284
100
AcDbEntity
  8
A733_ストリートファニチャ
 62
     7
370
     9
100
AcDbLine
 10
182187.324231
 20
125741.946738
 30
0.0
 11
181952.324231
 21
125741.946738
 31
0.0
  0
LINE
  5
AF5E
330
B284
100
AcDbEntity
  8
A733_ストリートファニチャ
 62
     7
370
     9
100
AcDbLine
 10
189094.324231
 20
128054.946738
 30
0.0
 11
189094.324231
 21
122698.946738
 31
0.0
  0
LINE
  5
AF5F
330
B284
100
AcDbEntity
  8
A733_ストリートファニチャ
 62
     7
370
     9
100
AcDbLine
 10
183786.324231
 20
125348.946738
 30
0.0
 11
183786.324231
 21
127541.946738
 31
0.0
  0
LINE
  5
AF60
330
B284
100
AcDbEntity
  8
A733_ストリートファニチャ
 62
     7
370
     9
100
AcDbLine
 10
183756.324231
 20
124443.946738
 30
0.0
 11
183756.324231
 21
124483.946738
 31
0.0
  0
LINE
  5
AF61
330
B284
100
AcDbEntity
  8
A733_ストリートファニチャ
 62
     7
370
     9
100
AcDbLine
 10
187442.824231
 20
128509.946738
 30
0.0
 11
188632.824231
 21
128509.946738
 31
0.0
  0
LINE
  5
AF62
330
B284
100
AcDbEntity
  8
A733_ストリートファニチャ
 62
     7
370
     9
100
AcDbLine
 10
185622.824231
 20
128054.946738
 30
0.0
 11
187347.824231
 21
128054.946738
 31
0.0
  0
LINE
  5
AF63
330
B284
100
AcDbEntity
  8
A733_ストリートファニチャ
 62
     7
370
     9
100
AcDbLine
 10
184527.824231
 20
127269.946738
 30
0.0
 11
185117.824231
 21
127269.946738
 31
0.0
  0
LINE
  5
AF64
330
B284
100
AcDbEntity
  8
A733_ストリートファニチャ
 62
     7
370
     9
100
AcDbLine
 10
185117.824231
 20
127269.946738
 30
0.0
 11
185117.824231
 21
127499.946738
 31
0.0
  0
LINE
  5
AF65
330
B284
100
AcDbEntity
  8
A733_ストリートファニチャ
 62
     7
370
     9
100
AcDbLine
 10
185117.824231
 20
127499.946738
 30
0.0
 11
185677.824231
 21
127499.946738
 31
0.0
  0
LINE
  5
AF66
330
B284
100
AcDbEntity
  8
A733_ストリートファニチャ
 62
     7
370
     9
100
AcDbLine
 10
188600.324231
 20
128144.946738
 30
0.0
 11
188633.824231
 21
128144.946738
 31
0.0
  0
LINE
  5
AF67
330
B284
100
AcDbEntity
  8
A733_ストリートファニチャ
 62
     7
370
     9
100
AcDbLine
 10
188600.324231
 20
128126.946738
 30
0.0
 11
188633.824231
 21
128126.946738
 31
0.0
  0
LINE
  5
AF68
330
B284
100
AcDbEntity
  8
A733_ストリートファニチャ
 62
     7
370
     9
100
AcDbLine
 10
188612.324231
 20
128126.946738
 30
0.0
 11
188612.324231
 21
128144.946738
 31
0.0
  0
LINE
  5
AF69
330
B284
100
AcDbEntity
  8
A733_ストリートファニチャ
 62
     7
370
     9
100
AcDbLine
 10
188623.824231
 20
128126.946738
 30
0.0
 11
188623.824231
 21
128144.946738
 31
0.0
  0
LINE
  5
AF6A
330
B284
100
AcDbEntity
  8
A733_ストリートファニチャ
 62
     7
370
     9
100
AcDbLine
 10
188046.824231
 20
128135.946738
 30
0.0
 11
188606.324231
 21
128135.946738
 31
0.0
  0
LINE
  5
AF6B
330
B284
100
AcDbEntity
  8
A733_ストリートファニチャ
 62
     7
370
     9
100
AcDbLine
 10
187469.324231
 20
128172.946738
 30
0.0
 11
188028.824231
 21
128172.946738
 31
0.0
  0
LINE
  5
AF6C
330
B284
100
AcDbEntity
  8
A733_ストリートファニチャ
 62
     7
370
     9
100
AcDbLine
 10
187463.324231
 20
128163.946738
 30
0.0
 11
187463.324231
 21
128181.946738
 31
0.0
  0
LINE
  5
AF6D
330
B284
100
AcDbEntity
  8
A733_ストリートファニチャ
 62
     7
370
     9
100
AcDbLine
 10
187451.824231
 20
128163.946738
 30
0.0
 11
187451.824231
 21
128181.946738
 31
0.0
  0
LINE
  5
AF6E
330
B284
100
AcDbEntity
  8
A733_ストリートファニチャ
 62
     7
370
     9
100
AcDbLine
 10
187475.324231
 20
128163.946738
 30
0.0
 11
187441.824231
 21
128163.946738
 31
0.0
  0
LINE
  5
AF6F
330
B284
100
AcDbEntity
  8
A733_ストリートファニチャ
 62
     7
370
     9
100
AcDbLine
 10
187475.324231
 20
128181.946738
 30
0.0
 11
187441.824231
 21
128181.946738
 31
0.0
  0
LINE
  5
AF70
330
B284
100
AcDbEntity
  8
A733_ストリートファニチャ
 62
     7
370
     9
100
AcDbLine
 10
188052.824231
 20
128181.946738
 30
0.0
 11
188052.824231
 21
128154.446738
 31
0.0
  0
LINE
  5
AF71
330
B284
100
AcDbEntity
  8
A733_ストリートファニチャ
 62
     7
370
     9
100
AcDbLine
 10
188040.824231
 20
128144.946738
 30
0.0
 11
188040.824231
 21
128126.946738
 31
0.0
  0
LINE
  5
AF72
330
B284
100
AcDbEntity
  8
A733_ストリートファニチャ
 62
     7
370
     9
100
AcDbLine
 10
188022.824231
 20
128181.946738
 30
0.0
 11
188052.824231
 21
128181.946738
 31
0.0
  0
LINE
  5
AF73
330
B284
100
AcDbEntity
  8
A733_ストリートファニチャ
 62
     7
370
     9
100
AcDbLine
 10
188034.824231
 20
128163.946738
 30
0.0
 11
188034.824231
 21
128181.946738
 31
0.0
  0
LINE
  5
AF74
330
B284
100
AcDbEntity
  8
A733_ストリートファニチャ
 62
     7
370
     9
100
AcDbLine
 10
188022.824231
 20
128126.946738
 30
0.0
 11
188022.824231
 21
128144.946738
 31
0.0
  0
LINE
  5
AF75
330
B284
100
AcDbEntity
  8
A733_ストリートファニチャ
 62
     7
370
     9
100
AcDbLine
 10
188022.824231
 20
128163.946738
 30
0.0
 11
188052.824231
 21
128163.946738
 31
0.0
  0
LINE
  5
AF76
330
B284
100
AcDbEntity
  8
A733_ストリートファニチャ
 62
     7
370
     9
100
AcDbLine
 10
188052.824231
 20
128154.446738
 30
0.0
 11
188037.824231
 21
128154.446738
 31
0.0
  0
LINE
  5
AF77
330
B284
100
AcDbEntity
  8
A733_ストリートファニチャ
 62
     7
370
     9
100
AcDbLine
 10
188052.824231
 20
128144.946738
 30
0.0
 11
188022.824231
 21
128144.946738
 31
0.0
  0
LINE
  5
AF78
330
B284
100
AcDbEntity
  8
A733_ストリートファニチャ
 62
     7
370
     9
100
AcDbLine
 10
188052.824231
 20
128126.946738
 30
0.0
 11
188022.824231
 21
128126.946738
 31
0.0
  0
LINE
  5
AF79
330
B284
100
AcDbEntity
  8
A733_ストリートファニチャ
 62
     7
370
     9
100
AcDbLine
 10
188602.824231
 20
128119.946738
 30
0.0
 11
187472.824231
 21
128119.946738
 31
0.0
  0
LINE
  5
AF7A
330
B284
100
AcDbEntity
  8
A733_ストリートファニチャ
 62
     7
370
     9
100
AcDbLine
 10
188602.824231
 20
128189.946738
 30
0.0
 11
187472.824231
 21
128189.946738
 31
0.0
  0
LINE
  5
AF7B
330
B284
100
AcDbEntity
  8
A733_ストリートファニチャ
 62
     7
370
     9
100
AcDbLine
 10
187437.824231
 20
128119.946738
 30
0.0
 11
187437.824231
 21
128189.946738
 31
0.0
  0
LINE
  5
AF7C
330
B284
100
AcDbEntity
  8
A733_ストリートファニチャ
 62
     7
370
     9
100
AcDbLine
 10
188637.824231
 20
128119.946738
 30
0.0
 11
188637.824231
 21
128189.946738
 31
0.0
  0
LINE
  5
AF7D
330
B284
100
AcDbEntity
  8
A733_ストリートファニチャ
 62
     7
370
     9
100
AcDbLine
 10
188687.824231
 20
128214.946738
 30
0.0
 11
188727.824231
 21
128214.946738
 31
0.0
  0
LINE
  5
AF7E
330
B284
100
AcDbEntity
  8
A733_ストリートファニチャ
 62
     7
370
     9
100
AcDbLine
 10
187387.824231
 20
128214.946738
 30
0.0
 11
187347.824231
 21
128214.946738
 31
0.0
  0
LINE
  5
AF7F
330
B284
100
AcDbEntity
  8
A733_ストリートファニチャ
 62
     7
370
     9
100
AcDbLine
 10
188687.824231
 20
128389.946738
 30
0.0
 11
188687.824231
 21
128214.946738
 31
0.0
  0
LINE
  5
AF80
330
B284
100
AcDbEntity
  8
A733_ストリートファニチャ
 62
     7
370
     9
100
AcDbLine
 10
188687.824231
 20
128389.946738
 30
0.0
 11
189184.875455
 21
128389.946738
 31
0.0
  0
ARC
  5
AF81
330
B284
100
AcDbEntity
  8
A733_ストリートファニチャ
 62
     7
370
     9
100
AcDbCircle
 10
185031.324231
 20
128264.946738
 30
0.0
 40
125.0
100
AcDbArc
 50
90.0
 51
180.0
  0
LINE
  5
AF82
330
B284
100
AcDbEntity
  8
A733_ストリートファニチャ
 62
     7
370
     9
100
AcDbLine
 10
184906.324231
 20
128264.946738
 30
0.0
 11
184906.324231
 21
127864.946738
 31
0.0
  0
LINE
  5
AF83
330
B284
100
AcDbEntity
  8
A733_ストリートファニチャ
 62
     7
370
     9
100
AcDbLine
 10
184906.324231
 20
127864.946738
 30
0.0
 11
182227.324231
 21
127864.946738
 31
0.0
  0
LINE
  5
AF84
330
B284
100
AcDbEntity
  8
A733_ストリートファニチャ
 62
     7
370
     9
100
AcDbLine
 10
187387.824231
 20
128389.946738
 30
0.0
 11
187387.824231
 21
128214.946738
 31
0.0
  0
LINE
  5
AF85
330
B284
100
AcDbEntity
  8
A733_ストリートファニチャ
 62
     7
370
     9
100
AcDbLine
 10
185031.324231
 20
128389.946738
 30
0.0
 11
187387.824231
 21
128389.946738
 31
0.0
  0
LINE
  5
AF86
330
B284
100
AcDbEntity
  8
A733_ストリートファニチャ
 62
     7
370
     9
100
AcDbLine
 10
188622.824231
 20
128119.946738
 30
0.0
 11
188662.824231
 21
128119.946738
 31
0.0
  0
LINE
  5
AF87
330
B284
100
AcDbEntity
  8
A733_ストリートファニチャ
 62
     7
370
     9
100
AcDbLine
 10
188662.824231
 20
128119.946738
 30
0.0
 11
188662.824231
 21
128128.946738
 31
0.0
  0
LINE
  5
AF88
330
B284
100
AcDbEntity
  8
A733_ストリートファニチャ
 62
     7
370
     9
100
AcDbLine
 10
188662.824231
 20
128189.946738
 30
0.0
 11
188662.824231
 21
128180.946738
 31
0.0
  0
LINE
  5
AF89
330
B284
100
AcDbEntity
  8
A733_ストリートファニチャ
 62
     7
370
     9
100
AcDbLine
 10
188622.824231
 20
128189.946738
 30
0.0
 11
188662.824231
 21
128189.946738
 31
0.0
  0
LINE
  5
AF8A
330
B284
100
AcDbEntity
  8
A733_ストリートファニチャ
 62
     7
370
     9
100
AcDbLine
 10
187412.824231
 20
128119.946738
 30
0.0
 11
187412.824231
 21
128128.946738
 31
0.0
  0
LINE
  5
AF8B
330
B284
100
AcDbEntity
  8
A733_ストリートファニチャ
 62
     7
370
     9
100
AcDbLine
 10
187412.824231
 20
128189.946738
 30
0.0
 11
187412.824231
 21
128180.946738
 31
0.0
  0
LINE
  5
AF8C
330
B284
100
AcDbEntity
  8
A733_ストリートファニチャ
 62
     7
370
     9
100
AcDbLine
 10
187452.824231
 20
128119.946738
 30
0.0
 11
187412.824231
 21
128119.946738
 31
0.0
  0
LINE
  5
AF8D
330
B284
100
AcDbEntity
  8
A733_ストリートファニチャ
 62
     7
370
     9
100
AcDbLine
 10
187412.824231
 20
128189.946738
 30
0.0
 11
187452.824231
 21
128189.946738
 31
0.0
  0
LINE
  5
AF8E
330
B284
100
AcDbEntity
  8
A733_ストリートファニチャ
 62
     7
370
     9
100
AcDbLine
 10
184382.824231
 20
120689.946738
 30
0.0
 11
184317.824231
 21
120689.946738
 31
0.0
  0
LINE
  5
AF8F
330
B284
100
AcDbEntity
  8
A733_ストリートファニチャ
 62
     7
370
     9
100
AcDbLine
 10
184382.824231
 20
120689.946738
 30
0.0
 11
184382.824231
 21
120854.946738
 31
0.0
  0
LINE
  5
AF90
330
B284
100
AcDbEntity
  8
A733_ストリートファニチャ
 62
     7
370
     9
100
AcDbLine
 10
184382.824231
 20
120854.946738
 30
0.0
 11
184347.824231
 21
120854.946738
 31
0.0
  0
LINE
  5
AF91
330
B284
100
AcDbEntity
  8
A733_ストリートファニチャ
 62
     7
370
     9
100
AcDbLine
 10
184332.824231
 20
120769.946738
 30
0.0
 11
184332.824231
 21
120814.946738
 31
0.0
  0
LINE
  5
AF92
330
B284
100
AcDbEntity
  8
A733_ストリートファニチャ
 62
     7
370
     9
100
AcDbLine
 10
184317.824231
 20
120689.946738
 30
0.0
 11
184317.824231
 21
120769.946738
 31
0.0
  0
LINE
  5
AF93
330
B284
100
AcDbEntity
  8
A733_ストリートファニチャ
 62
     7
370
     9
100
AcDbLine
 10
184382.824231
 20
120769.946738
 30
0.0
 11
184317.824231
 21
120769.946738
 31
0.0
  0
LINE
  5
AF94
330
B284
100
AcDbEntity
  8
A733_ストリートファニチャ
 62
     7
370
     9
100
AcDbLine
 10
183352.824231
 20
120689.946738
 30
0.0
 11
183352.824231
 21
120854.946738
 31
0.0
  0
LINE
  5
AF95
330
B284
100
AcDbEntity
  8
A733_ストリートファニチャ
 62
     7
370
     9
100
AcDbLine
 10
183352.824231
 20
120854.946738
 30
0.0
 11
183387.824231
 21
120854.946738
 31
0.0
  0
LINE
  5
AF96
330
B284
100
AcDbEntity
  8
A733_ストリートファニチャ
 62
     7
370
     9
100
AcDbLine
 10
183402.824231
 20
120769.946738
 30
0.0
 11
183402.824231
 21
120814.946738
 31
0.0
  0
LINE
  5
AF97
330
B284
100
AcDbEntity
  8
A733_ストリートファニチャ
 62
     7
370
     9
100
AcDbLine
 10
183417.824231
 20
120689.946738
 30
0.0
 11
183417.824231
 21
120769.946738
 31
0.0
  0
LINE
  5
AF98
330
B284
100
AcDbEntity
  8
A733_ストリートファニチャ
 62
     7
370
     9
100
AcDbLine
 10
183352.824231
 20
120689.946738
 30
0.0
 11
183417.824231
 21
120689.946738
 31
0.0
  0
LINE
  5
AF99
330
B284
100
AcDbEntity
  8
A733_ストリートファニチャ
 62
     7
370
     9
100
AcDbLine
 10
183352.824231
 20
120769.946738
 30
0.0
 11
183417.824231
 21
120769.946738
 31
0.0
  0
LINE
  5
AF9A
330
B284
100
AcDbEntity
  8
A733_ストリートファニチャ
 62
     7
370
     9
100
AcDbLine
 10
183387.824231
 20
120814.946738
 30
0.0
 11
183387.824231
 21
120854.946738
 31
0.0
  0
LINE
  5
AF9B
330
B284
100
AcDbEntity
  8
A733_ストリートファニチャ
 62
     7
370
     9
100
AcDbLine
 10
183387.824231
 20
120814.946738
 30
0.0
 11
183402.824231
 21
120814.946738
 31
0.0
  0
LINE
  5
AF9C
330
B284
100
AcDbEntity
  8
A733_ストリートファニチャ
 62
     7
370
     9
100
AcDbLine
 10
184347.824231
 20
120814.946738
 30
0.0
 11
184347.824231
 21
120854.946738
 31
0.0
  0
LINE
  5
AF9D
330
B284
100
AcDbEntity
  8
A733_ストリートファニチャ
 62
     7
370
     9
100
AcDbLine
 10
184347.824231
 20
120814.946738
 30
0.0
 11
184332.824231
 21
120814.946738
 31
0.0
  0
LINE
  5
AF9E
330
B284
100
AcDbEntity
  8
A733_ストリートファニチャ
 62
     7
370
     9
100
AcDbLine
 10
184317.824231
 20
120769.946738
 30
0.0
 11
183417.824231
 21
120769.946738
 31
0.0
  0
LINE
  5
AF9F
330
B284
100
AcDbEntity
  8
A733_ストリートファニチャ
 62
     7
370
     9
100
AcDbLine
 10
184332.824231
 20
120814.946738
 30
0.0
 11
183402.824231
 21
120814.946738
 31
0.0
  0
LINE
  5
AFA0
330
B284
100
AcDbEntity
  8
A733_ストリートファニチャ
 62
     7
370
     9
100
AcDbLine
 10
182377.82423
 20
120930.651314
 30
0.0
 11
182327.82423
 21
120980.651314
 31
0.0
  0
LINE
  5
AFA1
330
B284
100
AcDbEntity
  8
A733_ストリートファニチャ
 62
     7
370
     9
100
AcDbLine
 10
182327.82423
 20
120980.651314
 30
0.0
 11
182127.82423
 21
120980.651314
 31
0.0
  0
LINE
  5
AFA2
330
B284
100
AcDbEntity
  8
A733_ストリートファニチャ
 62
     7
370
     9
100
AcDbLine
 10
182127.82423
 20
120980.651314
 30
0.0
 11
182077.82423
 21
120930.651314
 31
0.0
  0
LINE
  5
AFA3
330
B284
100
AcDbEntity
  8
A733_ストリートファニチャ
 62
     7
370
     9
100
AcDbLine
 10
182377.82423
 20
120834.946738
 30
0.0
 11
182377.82423
 21
120930.651314
 31
0.0
  0
LINE
  5
AFA4
330
B284
100
AcDbEntity
  8
A733_ストリートファニチャ
 62
     7
370
     9
100
AcDbLine
 10
183402.824231
 20
120679.946738
 30
0.0
 11
184332.824231
 21
120679.946738
 31
0.0
  0
LINE
  5
AFA5
330
B284
100
AcDbEntity
  8
A733_ストリートファニチャ
 62
     7
370
     9
100
AcDbLine
 10
183352.824231
 20
120834.946738
 30
0.0
 11
182377.82423
 21
120834.946738
 31
0.0
  0
LINE
  5
AFA6
330
B284
100
AcDbEntity
  8
A733_ストリートファニチャ
 62
     7
370
     9
100
AcDbLine
 10
183387.824231
 20
120829.946738
 30
0.0
 11
184347.824231
 21
120829.946738
 31
0.0
  0
LINE
  5
AFA7
330
B284
100
AcDbEntity
  8
A733_ストリートファニチャ
 62
     7
370
     9
100
AcDbLine
 10
183402.824231
 20
120624.946738
 30
0.0
 11
183402.824231
 21
120689.946738
 31
0.0
  0
LINE
  5
AFA8
330
B284
100
AcDbEntity
  8
A733_ストリートファニチャ
 62
     7
370
     9
100
AcDbLine
 10
183327.824231
 20
120669.946738
 30
0.0
 11
183327.824231
 21
120789.946738
 31
0.0
  0
LINE
  5
AFA9
330
B284
100
AcDbEntity
  8
A733_ストリートファニチャ
 62
     7
370
     9
100
AcDbLine
 10
184407.824231
 20
120669.946738
 30
0.0
 11
184407.824231
 21
120789.946738
 31
0.0
  0
LINE
  5
AFAA
330
B284
100
AcDbEntity
  8
A733_ストリートファニチャ
 62
     7
370
     9
100
AcDbLine
 10
184332.824231
 20
120624.946738
 30
0.0
 11
184332.824231
 21
120689.946738
 31
0.0
  0
ARC
  5
AFAB
330
B284
100
AcDbEntity
  8
A733_ストリートファニチャ
 62
     7
370
     9
100
AcDbCircle
 10
175410.32423
 20
97513.050586
 30
0.0
 40
24239.99999997596
100
AcDbArc
 50
72.23097
 51
72.807585
  0
LINE
  5
AFAC
330
B284
100
AcDbEntity
  8
A733_ストリートファニチャ
 62
     7
370
     9
100
AcDbLine
 10
183327.824231
 20
120669.946738
 30
0.0
 11
182575.22204
 21
120669.946738
 31
0.0
  0
ARC
  5
AFAD
330
B284
100
AcDbEntity
  8
A733_ストリートファニチャ
 62
     7
370
     9
100
AcDbCircle
 10
181831.32423
 20
117549.326662
 30
0.0
 40
3199.999999997001
100
AcDbArc
 50
71.032205
 51
72.23097
  0
LINE
  5
AFAE
330
B284
100
AcDbEntity
  8
A733_ストリートファニチャ
 62
     7
370
     9
100
AcDbLine
 10
189184.875455
 20
128054.946738
 30
0.0
 11
188727.824231
 21
128054.946738
 31
0.0
  0
LINE
  5
AFAF
330
B284
100
AcDbEntity
  8
A733_ストリートファニチャ
 62
     7
370
     9
100
AcDbLine
 10
188727.824231
 20
128214.946738
 30
0.0
 11
188727.824231
 21
128054.946738
 31
0.0
  0
LINE
  5
AFB0
330
B284
100
AcDbEntity
  8
A733_ストリートファニチャ
 62
     7
370
     9
100
AcDbLine
 10
187347.824231
 20
128214.946738
 30
0.0
 11
187347.824231
 21
128054.946738
 31
0.0
  0
LINE
  5
AFB1
330
B284
100
AcDbEntity
  8
A733_ストリートファニチャ
 62
     7
370
     9
100
AcDbLine
 10
184906.324231
 20
127864.946738
 30
0.0
 11
184906.324231
 21
127541.946738
 31
0.0
  0
LINE
  5
AFB2
330
B284
100
AcDbEntity
  8
A733_ストリートファニチャ
 62
     7
370
     9
100
AcDbLine
 10
182984.324231
 20
127864.946738
 30
0.0
 11
182984.324231
 21
127541.946738
 31
0.0
  0
LINE
  5
AFB3
330
B284
100
AcDbEntity
  8
A733_ストリートファニチャ
 62
     7
370
     9
100
AcDbLine
 10
182984.324231
 20
127541.946738
 30
0.0
 11
182227.324231
 21
127864.946738
 31
0.0
  0
LINE
  5
AFB4
330
B284
100
AcDbEntity
  8
A733_ストリートファニチャ
 62
     7
370
     9
100
AcDbLine
 10
182227.324231
 20
127541.946738
 30
0.0
 11
182984.324231
 21
127864.946738
 31
0.0
  0
LINE
  5
AFB5
330
B284
100
AcDbEntity
  8
A733_ストリートファニチャ
 62
     7
370
     9
100
AcDbLine
 10
185622.824231
 20
128054.946738
 30
0.0
 11
185622.824231
 21
128389.946738
 31
0.0
  0
LINE
  5
AFB6
330
B284
100
AcDbEntity
  8
A733_ストリートファニチャ
 62
     7
370
     9
100
AcDbLine
 10
185622.824231
 20
127541.946738
 30
0.0
 11
184951.683336
 21
128361.291576
 31
0.0
  0
LINE
  5
AFB7
330
B284
100
AcDbEntity
  8
A733_ストリートファニチャ
 62
     7
370
     9
100
AcDbLine
 10
184906.324231
 20
127541.946738
 30
0.0
 11
185622.824231
 21
128389.946738
 31
0.0
  0
LINE
  5
AFB8
330
B284
100
AcDbEntity
  8
A733_ストリートファニチャ
 62
     7
370
     9
100
AcDbLine
 10
185622.824231
 20
128054.946738
 30
0.0
 11
185622.824231
 21
127541.946738
 31
0.0
  0
LINE
  5
AFB9
330
B284
100
AcDbEntity
  8
A733_ストリートファニチャ
 62
     7
370
     9
100
AcDbLine
 10
185107.824231
 20
122691.946738
 30
0.0
 11
184562.824231
 21
123418.946738
 31
0.0
  0
LINE
  5
AFBA
330
B284
100
AcDbEntity
  8
A733_ストリートファニチャ
 62
     7
370
     9
100
AcDbLine
 10
184562.824231
 20
122691.946738
 30
0.0
 11
185107.824231
 21
123418.946738
 31
0.0
  0
LINE
  5
AFBB
330
B284
100
AcDbEntity
  8
A733_ストリートファニチャ
 62
     7
370
     9
100
AcDbLine
 10
184517.824231
 20
122859.946738
 30
0.0
 11
184517.824231
 21
122646.946738
 31
0.0
  0
LINE
  5
AFBC
330
B284
100
AcDbEntity
  8
A733_ストリートファニチャ
 62
     7
370
     9
100
AcDbLine
 10
189065.72729
 20
128054.946738
 30
0.0
 11
188915.72729
 21
128204.946738
 31
0.0
  0
LINE
  5
AFBD
330
B284
100
AcDbEntity
  8
A733_ストリートファニチャ
 62
     7
370
     9
100
AcDbLine
 10
187156.538981
 20
128054.946738
 30
0.0
 11
187006.538981
 21
128204.946738
 31
0.0
  0
LINE
  5
AFBE
330
B284
100
AcDbEntity
  8
A733_ストリートファニチャ
 62
     7
370
     9
100
AcDbLine
 10
186944.406947
 20
128054.946738
 30
0.0
 11
186794.406947
 21
128204.946738
 31
0.0
  0
LINE
  5
AFBF
330
B284
100
AcDbEntity
  8
A733_ストリートファニチャ
 62
     7
370
     9
100
AcDbLine
 10
186732.274912
 20
128054.946738
 30
0.0
 11
186582.274912
 21
128204.946738
 31
0.0
  0
LINE
  5
AFC0
330
B284
100
AcDbEntity
  8
A733_ストリートファニチャ
 62
     7
370
     9
100
AcDbLine
 10
186520.142878
 20
128054.946738
 30
0.0
 11
186370.142878
 21
128204.946738
 31
0.0
  0
LINE
  5
AFC1
330
B284
100
AcDbEntity
  8
A733_ストリートファニチャ
 62
     7
370
     9
100
AcDbLine
 10
186308.010844
 20
128054.946738
 30
0.0
 11
186158.010844
 21
128204.946738
 31
0.0
  0
LINE
  5
AFC2
330
B284
100
AcDbEntity
  8
A733_ストリートファニチャ
 62
     7
370
     9
100
AcDbLine
 10
186095.878809
 20
128054.946738
 30
0.0
 11
185945.878809
 21
128204.946738
 31
0.0
  0
LINE
  5
AFC3
330
B284
100
AcDbEntity
  8
A733_ストリートファニチャ
 62
     7
370
     9
100
AcDbLine
 10
185883.746775
 20
128054.946738
 30
0.0
 11
185733.746775
 21
128204.946738
 31
0.0
  0
LINE
  5
AFC4
330
B284
100
AcDbEntity
  8
A733_ストリートファニチャ
 62
     7
370
     9
100
AcDbLine
 10
184487.558466
 20
127541.946738
 30
0.0
 11
184337.558466
 21
127691.946738
 31
0.0
  0
LINE
  5
AFC5
330
B284
100
AcDbEntity
  8
A733_ストリートファニチャ
 62
     7
370
     9
100
AcDbLine
 10
184275.426431
 20
127541.946738
 30
0.0
 11
184125.426431
 21
127691.946738
 31
0.0
  0
LINE
  5
AFC6
330
B284
100
AcDbEntity
  8
A733_ストリートファニチャ
 62
     7
370
     9
100
AcDbLine
 10
184063.294397
 20
127541.946738
 30
0.0
 11
183913.294397
 21
127691.946738
 31
0.0
  0
LINE
  5
AFC7
330
B284
100
AcDbEntity
  8
A733_ストリートファニチャ
 62
     7
370
     9
100
AcDbLine
 10
183851.162363
 20
127541.946738
 30
0.0
 11
183701.162363
 21
127691.946738
 31
0.0
  0
LINE
  5
AFC8
330
B284
100
AcDbEntity
  8
A733_ストリートファニチャ
 62
     7
370
     9
100
AcDbLine
 10
184562.824231
 20
123112.946738
 30
0.0
 11
184562.824231
 21
122691.946738
 31
0.0
  0
LINE
  5
AFC9
330
B284
100
AcDbEntity
  8
A733_ストリートファニチャ
 62
     7
370
     9
100
AcDbLine
 10
184562.824231
 20
123232.946738
 30
0.0
 11
184562.824231
 21
123112.946738
 31
0.0
  0
LINE
  5
AFCA
330
B284
100
AcDbEntity
  8
A733_ストリートファニチャ
 62
     7
370
     9
100
AcDbLine
 10
184562.824231
 20
123232.946738
 30
0.0
 11
184562.824231
 21
123418.946738
 31
0.0
  0
LINE
  5
AFCB
330
B284
100
AcDbEntity
  8
A733_ストリートファニチャ
 62
     7
370
     9
100
AcDbLine
 10
184562.824231
 20
123232.946738
 30
0.0
 11
183791.324231
 21
123232.946738
 31
0.0
  0
LINE
  5
AFCC
330
B284
100
AcDbEntity
  8
A733_ストリートファニチャ
 62
     7
370
     9
100
AcDbLine
 10
182562.324231
 20
123112.946738
 30
0.0
 11
182562.324231
 21
122904.946738
 31
0.0
  0
LINE
  5
AFCD
330
B284
100
AcDbEntity
  8
A733_ストリートファニチャ
 62
     7
370
     9
100
AcDbLine
 10
184562.824231
 20
123112.946738
 30
0.0
 11
182562.324231
 21
123112.946738
 31
0.0
  0
LINE
  5
AFCE
330
B284
100
AcDbEntity
  8
A733_ストリートファニチャ
 62
     7
370
     9
100
AcDbLine
 10
182562.324231
 20
123112.946738
 30
0.0
 11
182562.324231
 21
123232.946738
 31
0.0
  0
LINE
  5
AFCF
330
B284
100
AcDbEntity
  8
A733_ストリートファニチャ
 62
     7
370
     9
100
AcDbLine
 10
183671.324231
 20
123232.946738
 30
0.0
 11
182562.324231
 21
123232.946738
 31
0.0
  0
LINE
  5
AFD0
330
B284
100
AcDbEntity
  8
A733_ストリートファニチャ
 62
     7
370
     9
100
AcDbLine
 10
182138.179569
 20
120955.651314
 30
0.0
 11
182102.82423
 21
120920.295975
 31
0.0
  0
LINE
  5
AFD1
330
B284
100
AcDbEntity
  8
A733_ストリートファニチャ
 62
     7
370
     9
100
AcDbLine
 10
182317.468891
 20
120955.651314
 30
0.0
 11
182138.179569
 21
120955.651314
 31
0.0
  0
LINE
  5
AFD2
330
B284
100
AcDbEntity
  8
A733_ストリートファニチャ
 62
     7
370
     9
100
AcDbLine
 10
182352.82423
 20
120920.295975
 30
0.0
 11
182317.468891
 21
120955.651314
 31
0.0
  0
LINE
  5
AFD3
330
B284
100
AcDbEntity
  8
A733_ストリートファニチャ
 62
     7
370
     9
100
AcDbLine
 10
182102.82423
 20
120810.862581
 30
0.0
 11
182102.82423
 21
120920.295975
 31
0.0
  0
LINE
  5
AFD4
330
B284
100
AcDbEntity
  8
A733_ストリートファニチャ
 62
     7
370
     9
100
AcDbLine
 10
182077.82423
 20
120844.031465
 30
0.0
 11
182077.82423
 21
120930.651314
 31
0.0
  0
LINE
  5
AFD5
330
B284
100
AcDbEntity
  8
A733_ストリートファニチャ
 62
     7
370
     9
100
AcDbLine
 10
183327.824231
 20
120789.946738
 30
0.0
 11
182352.82423
 21
120789.946738
 31
0.0
  0
LINE
  5
AFD6
330
B284
100
AcDbEntity
  8
A733_ストリートファニチャ
 62
     7
370
     9
100
AcDbLine
 10
182352.82423
 20
120789.946738
 30
0.0
 11
182352.82423
 21
120920.295975
 31
0.0
  0
LINE
  5
AFD7
330
B284
100
AcDbEntity
  8
A733_ストリートファニチャ
 62
     7
370
     9
100
AcDbLine
 10
183402.824231
 20
120624.946738
 30
0.0
 11
182801.471719
 21
120624.946738
 31
0.0
  0
ARC
  5
AFD8
330
B284
100
AcDbEntity
  8
A733_ストリートファニチャ
 62
     7
370
     9
100
AcDbCircle
 10
181831.32423
 20
117549.326662
 30
0.0
 40
3224.999999997001
100
AcDbArc
 50
69.779663
 51
72.493083
  0
ARC
  5
AFD9
330
B284
100
AcDbEntity
  8
A733_ストリートファニチャ
 62
     7
370
     9
100
AcDbCircle
 10
175410.32423
 20
97513.050586
 30
0.0
 40
24039.99999997596
100
AcDbArc
 50
73.605173
 51
74.208959
  0
ARC
  5
AFDA
330
B284
100
AcDbEntity
  8
A733_ストリートファニチャ
 62
     7
370
     9
100
AcDbCircle
 10
175410.32423
 20
97513.050586
 30
0.0
 40
24239.99999997576
100
AcDbArc
 50
73.972826
 51
74.342607
  0
ARC
  5
AFDB
330
B284
100
AcDbEntity
  8
A733_ストリートファニチャ
 62
     7
370
     9
100
AcDbCircle
 10
175410.32423
 20
97513.050586
 30
0.0
 40
24264.99999997576
100
AcDbArc
 50
74.051186
 51
74.359152
  0
LINE
  5
AFDC
330
B284
100
AcDbEntity
  8
A733_ストリートファニチャ
 62
     7
370
     9
100
AcDbLine
 10
181952.324231
 20
120879.532157
 30
0.0
 11
181952.324231
 21
120645.794392
 31
0.0
  0
LINE
  5
AFDD
330
B284
100
AcDbEntity
  8
A733_ストリートファニチャ
 62
     7
370
     9
100
AcDbLine
 10
182562.32423
 20
122904.946738
 30
0.0
 11
181952.324231
 21
122904.946738
 31
0.0
  0
LINE
  5
AFDE
330
B284
100
AcDbEntity
  8
A733_ストリートファニチャ
 62
     7
370
     9
100
AcDbLine
 10
184517.824231
 20
122859.946738
 30
0.0
 11
181952.324231
 21
122859.946738
 31
0.0
  0
LINE
  5
AFDF
330
B284
100
AcDbEntity
  8
A733_ストリートファニチャ
 62
     7
370
     9
100
AcDbLine
 10
182562.32423
 20
122904.946738
 30
0.0
 11
181952.324231
 21
123347.830123
 31
0.0
  0
LINE
  5
AFE0
330
B284
100
AcDbEntity
  8
A733_ストリートファニチャ
 62
     7
370
     9
100
AcDbLine
 10
181952.324231
 20
123506.506855
 30
0.0
 11
182562.32423
 21
123813.946738
 31
0.0
  0
LINE
  5
AFE1
330
B284
100
AcDbEntity
  8
A733_ストリートファニチャ
 62
     7
370
     9
100
AcDbLine
 10
181952.324231
 20
122904.946738
 30
0.0
 11
181952.324231
 21
123813.946738
 31
0.0
  0
LINE
  5
AFE2
330
B284
100
AcDbEntity
  8
A733_ストリートファニチャ
 62
     7
370
     9
100
AcDbLine
 10
181952.324231
 20
123813.946738
 30
0.0
 11
182227.324231
 21
123813.946738
 31
0.0
  0
LINE
  5
AFE3
330
B284
100
AcDbEntity
  8
A733_ストリートファニチャ
 62
     7
370
     9
100
AcDbLine
 10
188637.824231
 20
128119.946738
 30
0.0
 11
188677.824231
 21
128119.946738
 31
0.0
  0
LINE
  5
AFE4
330
B284
100
AcDbEntity
  8
A733_ストリートファニチャ
 62
     7
370
     9
100
AcDbLine
 10
187407.824231
 20
128204.946738
 30
0.0
 11
187422.824231
 21
128204.946738
 31
0.0
  0
LINE
  5
AFE5
330
B284
100
AcDbEntity
  8
A733_ストリートファニチャ
 62
     7
370
     9
100
AcDbLine
 10
187407.824231
 20
128189.946738
 30
0.0
 11
187407.824231
 21
128204.946738
 31
0.0
  0
LINE
  5
AFE6
330
B284
100
AcDbEntity
  8
A733_ストリートファニチャ
 62
     7
370
     9
100
AcDbLine
 10
187407.824231
 20
128189.946738
 30
0.0
 11
187422.824231
 21
128189.946738
 31
0.0
  0
LINE
  5
AFE7
330
B284
100
AcDbEntity
  8
A733_ストリートファニチャ
 62
     7
370
     9
100
AcDbLine
 10
187422.824231
 20
128189.946738
 30
0.0
 11
187422.824231
 21
128204.946738
 31
0.0
  0
LINE
  5
AFE8
330
B284
100
AcDbEntity
  8
A733_ストリートファニチャ
 62
     7
370
     9
100
AcDbLine
 10
188667.824231
 20
128189.946738
 30
0.0
 11
188667.824231
 21
128204.946738
 31
0.0
  0
LINE
  5
AFE9
330
B284
100
AcDbEntity
  8
A733_ストリートファニチャ
 62
     7
370
     9
100
AcDbLine
 10
188667.824231
 20
128189.946738
 30
0.0
 11
188652.824231
 21
128189.946738
 31
0.0
  0
LINE
  5
AFEA
330
B284
100
AcDbEntity
  8
A733_ストリートファニチャ
 62
     7
370
     9
100
AcDbLine
 10
188652.824231
 20
128189.946738
 30
0.0
 11
188652.824231
 21
128204.946738
 31
0.0
  0
LINE
  5
AFEB
330
B284
100
AcDbEntity
  8
A733_ストリートファニチャ
 62
     7
370
     9
100
AcDbLine
 10
188667.824231
 20
128204.946738
 30
0.0
 11
188652.824231
 21
128204.946738
 31
0.0
  0
LINE
  5
AFEC
330
B284
100
AcDbEntity
  8
A733_ストリートファニチャ
 62
     7
370
     9
100
AcDbLine
 10
187442.824231
 20
128189.946738
 30
0.0
 11
187442.824231
 21
128509.946738
 31
0.0
  0
LINE
  5
AFED
330
B284
100
AcDbEntity
  8
A733_ストリートファニチャ
 62
     7
370
     9
100
AcDbLine
 10
189184.875455
 20
128469.946738
 30
0.0
 11
188652.824231
 21
128469.946738
 31
0.0
  0
LINE
  5
AFEE
330
B284
100
AcDbEntity
  8
A733_ストリートファニチャ
 62
     7
370
     9
100
AcDbLine
 10
188632.824231
 20
128189.946738
 30
0.0
 11
188632.824231
 21
128509.946738
 31
0.0
  0
LINE
  5
AFEF
330
B284
100
AcDbEntity
  8
A733_ストリートファニチャ
 62
     7
370
     9
100
AcDbLine
 10
187442.824231
 20
128509.946738
 30
0.0
 11
187242.824231
 21
128509.946738
 31
0.0
  0
LINE
  5
AFF0
330
B284
100
AcDbEntity
  8
A733_ストリートファニチャ
 62
     7
370
     9
100
AcDbLine
 10
187242.824231
 20
128469.946738
 30
0.0
 11
187242.824231
 21
128509.946738
 31
0.0
  0
LINE
  5
AFF1
330
B284
100
AcDbEntity
  8
A733_ストリートファニチャ
 62
     7
370
     9
100
AcDbLine
 10
188832.824231
 20
128469.946738
 30
0.0
 11
188832.824231
 21
128509.946738
 31
0.0
  0
LINE
  5
AFF2
330
B284
100
AcDbEntity
  8
A733_ストリートファニチャ
 62
     7
370
     9
100
AcDbLine
 10
188832.824231
 20
128509.946738
 30
0.0
 11
188632.824231
 21
128509.946738
 31
0.0
  0
LINE
  5
AFF3
330
B284
100
AcDbEntity
  8
A733_ストリートファニチャ
 62
     7
370
     9
100
AcDbLine
 10
187422.824231
 20
128204.946738
 30
0.0
 11
187422.824231
 21
128469.946738
 31
0.0
  0
LINE
  5
AFF4
330
B284
100
AcDbEntity
  8
A733_ストリートファニチャ
 62
     7
370
     9
100
AcDbLine
 10
188652.824231
 20
128204.946738
 30
0.0
 11
188652.824231
 21
128469.946738
 31
0.0
  0
LINE
  5
AFF5
330
B284
100
AcDbEntity
  8
A733_ストリートファニチャ
 62
     7
370
     9
100
AcDbLine
 10
187437.824231
 20
128119.946738
 30
0.0
 11
187397.824231
 21
128119.946738
 31
0.0
  0
LINE
  5
AFF6
330
B284
100
AcDbEntity
  8
A733_ストリートファニチャ
 62
     7
370
     9
100
AcDbLine
 10
184826.324231
 20
128264.946738
 30
0.0
 11
184826.324231
 21
127944.946738
 31
0.0
  0
LINE
  5
AFF7
330
B284
100
AcDbEntity
  8
A733_ストリートファニチャ
 62
     7
370
     9
100
AcDbLine
 10
184826.324231
 20
127944.946738
 30
0.0
 11
182187.324231
 21
127944.946738
 31
0.0
  0
LINE
  5
AFF8
330
B284
100
AcDbEntity
  8
A733_ストリートファニチャ
 62
     7
370
     9
100
AcDbLine
 10
187422.824231
 20
128469.946738
 30
0.0
 11
185031.324231
 21
128469.946738
 31
0.0
  0
ARC
  5
AFF9
330
B284
100
AcDbEntity
  8
A733_ストリートファニチャ
 62
     7
370
     9
100
AcDbCircle
 10
185031.324231
 20
128264.946738
 30
0.0
 40
205.0
100
AcDbArc
 50
90.0
 51
180.0
  0
LINE
  5
AFFA
330
B284
100
AcDbEntity
  8
A733_ストリートファニチャ
 62
     7
370
     9
100
AcDbLine
 10
189184.875455
 20
128509.946738
 30
0.0
 11
189107.824231
 21
128509.946738
 31
0.0
  0
LINE
  5
AFFB
330
B284
100
AcDbEntity
  8
A733_ストリートファニチャ
 62
     7
370
     9
100
AcDbLine
 10
189107.824231
 20
128469.946738
 30
0.0
 11
189107.824231
 21
128509.946738
 31
0.0
  0
LINE
  5
AFFC
330
B284
100
AcDbEntity
  8
A733_ストリートファニチャ
 62
     7
370
     9
100
AcDbLine
 10
185107.824231
 20
123418.946738
 30
0.0
 11
184562.824231
 21
123418.946738
 31
0.0
  0
LINE
  5
AFFD
330
B284
100
AcDbEntity
  8
A733_ストリートファニチャ
 62
     7
370
     9
100
AcDbLine
 10
185062.824231
 20
120902.946738
 30
0.0
 11
185167.824231
 21
120902.946738
 31
0.0
  0
LINE
  5
AFFE
330
B284
100
AcDbEntity
  8
A733_ストリートファニチャ
 62
     7
370
     9
100
AcDbLine
 10
185167.824231
 20
120902.946738
 30
0.0
 11
185167.824231
 21
120977.946738
 31
0.0
  0
LINE
  5
AFFF
330
B284
100
AcDbEntity
  8
A733_ストリートファニチャ
 62
     7
370
     9
100
AcDbLine
 10
184957.824231
 20
120947.946738
 30
0.0
 11
185062.824231
 21
120947.946738
 31
0.0
  0
LINE
  5
B000
330
B284
100
AcDbEntity
  8
A733_ストリートファニチャ
 62
     7
370
     9
100
AcDbLine
 10
184957.824231
 20
120947.946738
 30
0.0
 11
184957.824231
 21
120997.946738
 31
0.0
  0
LINE
  5
B001
330
B284
100
AcDbEntity
  8
A733_ストリートファニチャ
 62
     7
370
     9
100
AcDbLine
 10
184957.824231
 20
120997.946738
 30
0.0
 11
185062.824231
 21
120997.946738
 31
0.0
  0
LINE
  5
B002
330
B284
100
AcDbEntity
  8
A733_ストリートファニチャ
 62
     7
370
     9
100
AcDbLine
 10
185062.824231
 20
120902.946738
 30
0.0
 11
185062.824231
 21
121897.946738
 31
0.0
  0
LINE
  5
B003
330
B284
100
AcDbEntity
  8
A733_ストリートファニチャ
 62
     7
370
     9
100
AcDbLine
 10
185107.824231
 20
120977.946738
 30
0.0
 11
185167.824231
 21
120977.946738
 31
0.0
  0
LINE
  5
B004
330
B284
100
AcDbEntity
  8
A733_ストリートファニチャ
 62
     7
370
     9
100
AcDbLine
 10
185107.824231
 20
120977.946738
 30
0.0
 11
185107.824231
 21
120987.946738
 31
0.0
  0
LINE
  5
B005
330
B284
100
AcDbEntity
  8
A733_ストリートファニチャ
 62
     7
370
     9
100
AcDbLine
 10
185062.824231
 20
120987.946738
 30
0.0
 11
185107.824231
 21
120987.946738
 31
0.0
  0
LINE
  5
B006
330
B284
100
AcDbEntity
  8
A733_ストリートファニチャ
 62
     7
370
     9
100
AcDbLine
 10
184757.824231
 20
120987.946738
 30
0.0
 11
184957.824231
 21
120987.946738
 31
0.0
  0
LINE
  5
B007
330
B284
100
AcDbEntity
  8
A733_ストリートファニチャ
 62
     7
370
     9
100
AcDbLine
 10
185107.824231
 20
121917.946738
 30
0.0
 11
185167.824231
 21
121917.946738
 31
0.0
  0
LINE
  5
B008
330
B284
100
AcDbEntity
  8
A733_ストリートファニチャ
 62
     7
370
     9
100
AcDbLine
 10
185107.824231
 20
121917.946738
 30
0.0
 11
185107.824231
 21
121907.946738
 31
0.0
  0
LINE
  5
B009
330
B284
100
AcDbEntity
  8
A733_ストリートファニチャ
 62
     7
370
     9
100
AcDbLine
 10
185062.824231
 20
121992.946738
 30
0.0
 11
185062.824231
 21
121897.946738
 31
0.0
  0
LINE
  5
B00A
330
B284
100
AcDbEntity
  8
A733_ストリートファニチャ
 62
     7
370
     9
100
AcDbLine
 10
185062.824231
 20
121907.946738
 30
0.0
 11
185107.824231
 21
121907.946738
 31
0.0
  0
LINE
  5
B00B
330
B284
100
AcDbEntity
  8
A733_ストリートファニチャ
 62
     7
370
     9
100
AcDbLine
 10
184957.824231
 20
121897.946738
 30
0.0
 11
185062.824231
 21
121897.946738
 31
0.0
  0
LINE
  5
B00C
330
B284
100
AcDbEntity
  8
A733_ストリートファニチャ
 62
     7
370
     9
100
AcDbLine
 10
184757.824231
 20
121907.946738
 30
0.0
 11
184957.824231
 21
121907.946738
 31
0.0
  0
LINE
  5
B00D
330
B284
100
AcDbEntity
  8
A733_ストリートファニチャ
 62
     7
370
     9
100
AcDbLine
 10
184957.824231
 20
121947.946738
 30
0.0
 11
184957.824231
 21
121897.946738
 31
0.0
  0
LINE
  5
B00E
330
B284
100
AcDbEntity
  8
A733_ストリートファニチャ
 62
     7
370
     9
100
AcDbLine
 10
184957.824231
 20
121947.946738
 30
0.0
 11
185062.824231
 21
121947.946738
 31
0.0
  0
LINE
  5
B00F
330
B284
100
AcDbEntity
  8
A733_ストリートファニチャ
 62
     7
370
     9
100
AcDbLine
 10
185167.824231
 20
121992.946738
 30
0.0
 11
185167.824231
 21
121917.946738
 31
0.0
  0
LINE
  5
B010
330
B284
100
AcDbEntity
  8
A733_ストリートファニチャ
 62
     7
370
     9
100
AcDbLine
 10
185062.824231
 20
121992.946738
 30
0.0
 11
185167.824231
 21
121992.946738
 31
0.0
  0
LINE
  5
B011
330
B284
100
AcDbEntity
  8
A733_ストリートファニチャ
 62
     7
370
     9
100
AcDbLine
 10
185107.824231
 20
120987.946738
 30
0.0
 11
185107.824231
 21
121907.946738
 31
0.0
  0
LINE
  5
B012
330
B284
100
AcDbEntity
  8
A733_ストリートファニチャ
 62
     7
370
     9
100
AcDbLine
 10
185127.824231
 20
121917.946738
 30
0.0
 11
185127.824231
 21
120977.946738
 31
0.0
  0
LINE
  5
B013
330
B284
100
AcDbEntity
  8
A733_ストリートファニチャ
 62
     7
370
     9
100
AcDbLine
 10
184927.824231
 20
121907.946738
 30
0.0
 11
184927.824231
 21
120987.946738
 31
0.0
  0
LINE
  5
B014
330
B284
100
AcDbEntity
  8
A733_ストリートファニチャ
 62
     7
370
     9
100
AcDbLine
 10
185127.824231
 20
120575.571207
 30
0.0
 11
185127.824231
 21
120902.946738
 31
0.0
  0
LINE
  5
B015
330
B284
100
AcDbEntity
  8
A733_ストリートファニチャ
 62
     7
370
     9
100
AcDbLine
 10
185162.824231
 20
120575.571207
 30
0.0
 11
185162.824231
 21
120902.946738
 31
0.0
  0
LINE
  5
B016
330
B284
100
AcDbEntity
  8
A733_ストリートファニチャ
 62
     7
370
     9
100
AcDbLine
 10
184757.824231
 20
120624.946738
 30
0.0
 11
184757.824231
 21
120575.571207
 31
0.0
  0
LINE
  5
B017
330
B284
100
AcDbEntity
  8
A733_ストリートファニチャ
 62
     7
370
     9
100
AcDbLine
 10
184757.824231
 20
120624.946738
 30
0.0
 11
184332.824231
 21
120624.946738
 31
0.0
  0
LINE
  5
B018
330
B284
100
AcDbEntity
  8
A733_ストリートファニチャ
 62
     7
370
     9
100
AcDbLine
 10
184802.824231
 20
120669.946738
 30
0.0
 11
184407.824231
 21
120669.946738
 31
0.0
  0
LINE
  5
B019
330
B284
100
AcDbEntity
  8
A733_ストリートファニチャ
 62
     7
370
     9
100
AcDbLine
 10
184802.824231
 20
120669.946738
 30
0.0
 11
184802.824231
 21
120575.571207
 31
0.0
  0
LINE
  5
B01A
330
B284
100
AcDbEntity
  8
A733_ストリートファニチャ
 62
     7
370
     9
100
AcDbLine
 10
184802.824231
 20
120877.946738
 30
0.0
 11
184802.824231
 21
120789.946738
 31
0.0
  0
LINE
  5
B01B
330
B284
100
AcDbEntity
  8
A733_ストリートファニチャ
 62
     7
370
     9
100
AcDbLine
 10
184802.824231
 20
120789.946738
 30
0.0
 11
184407.824231
 21
120789.946738
 31
0.0
  0
LINE
  5
B01C
330
B284
100
AcDbEntity
  8
A733_ストリートファニチャ
 62
     7
370
     9
100
AcDbLine
 10
184757.824231
 20
120834.946738
 30
0.0
 11
184382.824231
 21
120834.946738
 31
0.0
  0
LINE
  5
B01D
330
B284
100
AcDbEntity
  8
A733_ストリートファニチャ
 62
     7
370
     9
100
AcDbLine
 10
184757.824231
 20
120987.946738
 30
0.0
 11
184757.824231
 21
120834.946738
 31
0.0
  0
LINE
  5
B01E
330
B284
100
AcDbEntity
  8
A733_ストリートファニチャ
 62
     7
370
     9
100
AcDbLine
 10
185107.824231
 20
122017.946738
 30
0.0
 11
185107.824231
 21
123418.946738
 31
0.0
  0
LINE
  5
B01F
330
B284
100
AcDbEntity
  8
A733_ストリートファニチャ
 62
     7
370
     9
100
AcDbLine
 10
184802.824231
 20
122017.946738
 30
0.0
 11
185107.824231
 21
122017.946738
 31
0.0
  0
LINE
  5
B020
330
B284
100
AcDbEntity
  8
A733_ストリートファニチャ
 62
     7
370
     9
100
AcDbLine
 10
185107.824231
 20
120877.946738
 30
0.0
 11
185107.824231
 21
120575.571207
 31
0.0
  0
LINE
  5
B021
330
B284
100
AcDbEntity
  8
A733_ストリートファニチャ
 62
     7
370
     9
100
AcDbLine
 10
184802.824231
 20
120877.946738
 30
0.0
 11
185107.824231
 21
120877.946738
 31
0.0
  0
LINE
  5
B022
330
B284
100
AcDbEntity
  8
A733_ストリートファニチャ
 62
     7
370
     9
100
AcDbLine
 10
184757.824231
 20
122646.946738
 30
0.0
 11
184757.824231
 21
121907.946738
 31
0.0
  0
LINE
  5
B023
330
B284
100
AcDbEntity
  8
A733_ストリートファニチャ
 62
     7
370
     9
100
AcDbLine
 10
184517.824231
 20
122646.946738
 30
0.0
 11
184757.824231
 21
122646.946738
 31
0.0
  0
LINE
  5
B024
330
B284
100
AcDbEntity
  8
A733_ストリートファニチャ
 62
     7
370
     9
100
AcDbLine
 10
184562.824231
 20
122691.946738
 30
0.0
 11
184802.824231
 21
122691.946738
 31
0.0
  0
LINE
  5
B025
330
B284
100
AcDbEntity
  8
A733_ストリートファニチャ
 62
     7
370
     9
100
AcDbLine
 10
184802.824231
 20
122691.946738
 30
0.0
 11
184802.824231
 21
122017.946738
 31
0.0
  0
LINE
  5
B026
330
B284
100
AcDbEntity
  8
A733_ストリートファニチャ
 62
     7
370
     9
100
AcDbLine
 10
184802.824231
 20
122691.946738
 30
0.0
 11
185107.824231
 21
122691.946738
 31
0.0
  0
LINE
  5
B027
330
B284
100
AcDbEntity
  8
A733_ストリートファニチャ
 62
     7
370
     9
100
AcDbLine
 10
185127.824231
 20
123463.946738
 30
0.0
 11
184537.824231
 21
123463.946738
 31
0.0
  0
LINE
  5
B028
330
B284
100
AcDbEntity
  8
A733_ストリートファニチャ
 62
     7
370
     9
100
AcDbLine
 10
185162.824231
 20
123498.946738
 30
0.0
 11
184502.824231
 21
123498.946738
 31
0.0
  0
POINT
  5
B02B
330
B284
100
AcDbEntity
  8
A733_ストリートファニチャ
 62
     7
370
     9
100
AcDbPoint
 10
184209.897129
 20
123253.946738
 30
0.0
 50
-90.0
  0
LINE
  5
B02C
330
B284
100
AcDbEntity
  8
A733_ストリートファニチャ
 62
     7
370
     9
100
AcDbLine
 10
184537.824231
 20
123253.946738
 30
0.0
 11
184537.824231
 21
123463.946738
 31
0.0
  0
LINE
  5
B02D
330
B284
100
AcDbEntity
  8
A733_ストリートファニチャ
 62
     7
370
     9
100
AcDbLine
 10
184502.824231
 20
123288.946738
 30
0.0
 11
184502.824231
 21
123498.946738
 31
0.0
  0
LINE
  5
B02E
330
B284
100
AcDbEntity
  8
A733_ストリートファニチャ
 62
     7
370
     9
100
AcDbLine
 10
182227.324231
 20
123813.946738
 30
0.0
 11
182423.324231
 21
123813.946738
 31
0.0
  0
LINE
  5
B02F
330
B284
100
AcDbEntity
  8
A733_ストリートファニチャ
 62
     7
370
     9
100
AcDbLine
 10
182562.32423
 20
123813.946738
 30
0.0
 11
182562.32423
 21
123232.946738
 31
0.0
  0
LINE
  5
B030
330
B284
100
AcDbEntity
  8
A733_ストリートファニチャ
 62
     7
370
     9
100
AcDbLine
 10
182423.324231
 20
123813.946738
 30
0.0
 11
182562.32423
 21
123813.946738
 31
0.0
  0
LINE
  5
B031
330
B284
100
AcDbEntity
  8
A733_ストリートファニチャ
 62
     7
370
     9
100
AcDbLine
 10
182423.324231
 20
127541.946738
 30
0.0
 11
182227.324231
 21
127541.946738
 31
0.0
  0
LINE
  5
B032
330
B284
100
AcDbEntity
  8
A733_ストリートファニチャ
 62
     7
370
     9
100
AcDbLine
 10
182227.324231
 20
125333.946738
 30
0.0
 11
182423.324231
 21
125333.946738
 31
0.0
  0
LINE
  5
B033
330
B284
100
AcDbEntity
  8
A733_ストリートファニチャ
 62
     7
370
     9
100
AcDbLine
 10
182423.324231
 20
127541.946738
 30
0.0
 11
182423.324231
 21
125333.946738
 31
0.0
  0
LINE
  5
B034
330
B284
100
AcDbEntity
  8
A733_ストリートファニチャ
 62
     7
370
     9
100
AcDbLine
 10
182174.324231
 20
125303.946738
 30
0.0
 11
182194.324231
 21
125303.946738
 31
0.0
  0
LINE
  5
B035
330
B284
100
AcDbEntity
  8
A733_ストリートファニチャ
 62
     7
370
     9
100
AcDbLine
 10
182174.324231
 20
125278.946738
 30
0.0
 11
182174.324231
 21
125303.946738
 31
0.0
  0
LINE
  5
B036
330
B284
100
AcDbEntity
  8
A733_ストリートファニチャ
 62
     7
370
     9
100
AcDbLine
 10
182174.324231
 20
125278.946738
 30
0.0
 11
182219.324231
 21
125278.946738
 31
0.0
  0
LINE
  5
B037
330
B284
100
AcDbEntity
  8
A733_ストリートファニチャ
 62
     7
370
     9
100
AcDbLine
 10
182219.324231
 20
125255.946738
 30
0.0
 11
182219.324231
 21
125278.946738
 31
0.0
  0
LINE
  5
B038
330
B284
100
AcDbEntity
  8
A733_ストリートファニチャ
 62
     7
370
     9
100
AcDbLine
 10
182219.324231
 20
125255.946738
 30
0.0
 11
182274.324231
 21
125255.946738
 31
0.0
  0
LINE
  5
B039
330
B284
100
AcDbEntity
  8
A733_ストリートファニチャ
 62
     7
370
     9
100
AcDbLine
 10
182274.324231
 20
125255.946738
 30
0.0
 11
182274.324231
 21
125303.946738
 31
0.0
  0
LINE
  5
B03A
330
B284
100
AcDbEntity
  8
A733_ストリートファニチャ
 62
     7
370
     9
100
AcDbLine
 10
182254.324231
 20
125303.946738
 30
0.0
 11
182274.324231
 21
125303.946738
 31
0.0
  0
LINE
  5
B03B
330
B284
100
AcDbEntity
  8
A733_ストリートファニチャ
 62
     7
370
     9
100
AcDbLine
 10
184567.824231
 20
127309.946738
 30
0.0
 11
185077.824231
 21
127309.946738
 31
0.0
  0
LINE
  5
B03C
330
B284
100
AcDbEntity
  8
A733_ストリートファニチャ
 62
     7
370
     9
100
AcDbLine
 10
185622.824231
 20
127541.946738
 30
0.0
 11
185077.824231
 21
127541.946738
 31
0.0
  0
LINE
  5
B03D
330
B284
100
AcDbEntity
  8
A733_ストリートファニチャ
 62
     7
370
     9
100
AcDbLine
 10
185077.824231
 20
127309.946738
 30
0.0
 11
185077.824231
 21
127541.946738
 31
0.0
  0
LINE
  5
B03E
330
B284
100
AcDbEntity
  8
A733_ストリートファニチャ
 62
     7
370
     9
100
AcDbLine
 10
184567.824231
 20
127541.946738
 30
0.0
 11
182423.324231
 21
127541.946738
 31
0.0
  0
LINE
  5
B03F
330
B284
100
AcDbEntity
  8
A733_ストリートファニチャ
 62
     7
370
     9
100
AcDbLine
 10
185077.824231
 20
127541.946738
 30
0.0
 11
184567.824231
 21
127541.946738
 31
0.0
  0
LINE
  5
B040
330
B284
100
AcDbEntity
  8
A733_ストリートファニチャ
 62
     7
370
     9
100
AcDbLine
 10
184567.824231
 20
127309.946738
 30
0.0
 11
184567.824231
 21
127541.946738
 31
0.0
  0
LINE
  5
B041
330
B284
100
AcDbEntity
  8
A733_ストリートファニチャ
 62
     7
370
     9
100
AcDbLine
 10
184492.824231
 20
127234.946738
 30
0.0
 11
185152.824231
 21
127234.946738
 31
0.0
  0
LINE
  5
B042
330
B284
100
AcDbEntity
  8
A733_ストリートファニチャ
 62
     7
370
     9
100
AcDbLine
 10
185152.824231
 20
127234.946738
 30
0.0
 11
185152.824231
 21
127464.946738
 31
0.0
  0
LINE
  5
B043
330
B284
100
AcDbEntity
  8
A733_ストリートファニチャ
 62
     7
370
     9
100
AcDbLine
 10
185152.824231
 20
127464.946738
 30
0.0
 11
185712.824231
 21
127464.946738
 31
0.0
  0
LINE
  5
B044
330
B284
100
AcDbEntity
  8
A733_ストリートファニチャ
 62
     7
370
     9
100
AcDbLine
 10
183856.324231
 20
124443.946738
 30
0.0
 11
183856.324231
 21
124483.946738
 31
0.0
  0
LINE
  5
B045
330
B284
100
AcDbEntity
  8
A733_ストリートファニチャ
 62
     7
370
     9
100
AcDbLine
 10
183756.324231
 20
124483.946738
 30
0.0
 11
183856.324231
 21
124483.946738
 31
0.0
  0
LINE
  5
B046
330
B284
100
AcDbEntity
  8
A733_ストリートファニチャ
 62
     7
370
     9
100
AcDbLine
 10
183756.324231
 20
124443.946738
 30
0.0
 11
183856.324231
 21
124443.946738
 31
0.0
  0
LINE
  5
B047
330
B284
100
AcDbEntity
  8
A733_ストリートファニチャ
 62
     7
370
     9
100
AcDbLine
 10
183856.324231
 20
125323.946738
 30
0.0
 11
183856.324231
 21
125283.946738
 31
0.0
  0
LINE
  5
B048
330
B284
100
AcDbEntity
  8
A733_ストリートファニチャ
 62
     7
370
     9
100
AcDbLine
 10
183756.324231
 20
125323.946738
 30
0.0
 11
183756.324231
 21
125283.946738
 31
0.0
  0
LINE
  5
B049
330
B284
100
AcDbEntity
  8
A733_ストリートファニチャ
 62
     7
370
     9
100
AcDbLine
 10
183756.324231
 20
125283.946738
 30
0.0
 11
183856.324231
 21
125283.946738
 31
0.0
  0
LINE
  5
B04A
330
B284
100
AcDbEntity
  8
A733_ストリートファニチャ
 62
     7
370
     9
100
AcDbLine
 10
183756.324231
 20
125323.946738
 30
0.0
 11
183856.324231
 21
125323.946738
 31
0.0
  0
LINE
  5
B04B
330
B284
100
AcDbEntity
  8
A733_ストリートファニチャ
 62
     7
370
     9
100
AcDbLine
 10
183856.324231
 20
123288.946738
 30
0.0
 11
184502.824231
 21
123288.946738
 31
0.0
  0
LINE
  5
B04C
330
B284
100
AcDbEntity
  8
A733_ストリートファニチャ
 62
     7
370
     9
100
AcDbLine
 10
183856.324231
 20
123288.946738
 30
0.0
 11
183856.324231
 21
124443.946738
 31
0.0
  0
LINE
  5
B04D
330
B284
100
AcDbEntity
  8
A733_ストリートファニチャ
 62
     7
370
     9
100
AcDbLine
 10
183821.324231
 20
123253.946738
 30
0.0
 11
184537.824231
 21
123253.946738
 31
0.0
  0
LINE
  5
B04E
330
B284
100
AcDbEntity
  8
A733_ストリートファニチャ
 62
     7
370
     9
100
AcDbLine
 10
182274.324231
 20
125303.946738
 30
0.0
 11
183756.324231
 21
125303.946738
 31
0.0
  0
LINE
  5
B04F
330
B284
100
AcDbEntity
  8
A733_ストリートファニチャ
 62
     7
370
     9
100
AcDbLine
 10
182274.324231
 20
125316.446738
 30
0.0
 11
183756.324231
 21
125316.446738
 31
0.0
  0
POINT
  5
B050
330
B284
100
AcDbEntity
  8
A733_ストリートファニチャ
 62
     7
370
     9
100
AcDbPoint
 10
183821.324231
 20
126434.412251
 30
0.0
 50
-90.0
  0
LINE
  5
B051
330
B284
100
AcDbEntity
  8
A733_ストリートファニチャ
 62
     7
370
     9
100
AcDbLine
 10
184527.824231
 20
127269.946738
 30
0.0
 11
184527.824231
 21
127541.946738
 31
0.0
  0
LINE
  5
B052
330
B284
100
AcDbEntity
  8
A733_ストリートファニチャ
 62
     7
370
     9
100
AcDbLine
 10
185677.824231
 20
127499.946738
 30
0.0
 11
185677.824231
 21
128054.946738
 31
0.0
  0
LINE
  5
B053
330
B284
100
AcDbEntity
  8
A733_ストリートファニチャ
 62
     7
370
     9
100
AcDbLine
 10
185502.824231
 20
122689.446738
 30
0.0
 11
185107.824231
 21
122689.446738
 31
0.0
  0
LINE
  5
B054
330
B284
100
AcDbEntity
  8
A733_ストリートファニチャ
 62
     7
370
     9
100
AcDbLine
 10
185502.824231
 20
122624.446738
 30
0.0
 11
185502.824231
 21
122689.446738
 31
0.0
  0
LINE
  5
B055
330
B284
100
AcDbEntity
  8
A733_ストリートファニチャ
 62
     7
370
     9
100
AcDbLine
 10
185502.824231
 20
122624.446738
 30
0.0
 11
185107.824231
 21
122624.446738
 31
0.0
  0
LINE
  5
B056
330
B284
100
AcDbEntity
  8
A733_ストリートファニチャ
 62
     7
370
     9
100
AcDbLine
 10
187442.824231
 20
122624.446738
 30
0.0
 11
187442.824231
 21
122689.446738
 31
0.0
  0
LINE
  5
B057
330
B284
100
AcDbEntity
  8
A733_ストリートファニチャ
 62
     7
370
     9
100
AcDbLine
 10
189184.875455
 20
122624.446738
 30
0.0
 11
187442.824231
 21
122624.446738
 31
0.0
  0
LINE
  5
B058
330
B284
100
AcDbEntity
  8
A733_ストリートファニチャ
 62
     7
370
     9
100
AcDbLine
 10
189184.875455
 20
122689.446738
 30
0.0
 11
187442.824231
 21
122689.446738
 31
0.0
  0
POINT
  5
B059
330
B284
100
AcDbEntity
  8
A733_ストリートファニチャ
 62
     7
370
     9
100
AcDbPoint
 10
184047.217071
 20
127541.946738
 30
0.0
 50
-90.0
  0
LINE
  5
B05A
330
B284
100
AcDbEntity
  8
A733_ストリートファニチャ
 62
     7
370
     9
100
AcDbLine
 10
184567.824231
 20
127673.813007
 30
0.0
 11
184549.6905
 21
127691.946738
 31
0.0
  0
SOLID
  5
B05B
330
B284
100
AcDbEntity
  8
A733_ストリートファニチャ
 62
     7
370
     9
100
AcDbTrace
 10
182562.324231
 20
123112.946738
 30
0.0
 11
182562.324231
 21
123232.946738
 31
0.0
 12
181952.324231
 22
122904.946738
 32
0.0
 13
181952.324231
 23
122904.946738
 33
0.0
  0
SOLID
  5
B05C
330
B284
100
AcDbEntity
  8
A733_ストリートファニチャ
 62
     7
370
     9
100
AcDbTrace
 10
182562.324231
 20
122904.946738
 30
0.0
 11
181952.324231
 21
122904.946738
 31
0.0
 12
182562.324231
 22
123112.946738
 32
0.0
 13
182562.324231
 23
123112.946738
 33
0.0
  0
SOLID
  5
B05D
330
B284
100
AcDbEntity
  8
A733_ストリートファニチャ
 62
     7
370
     9
100
AcDbTrace
 10
184562.824231
 20
123112.946738
 30
0.0
 11
184802.824231
 21
122691.946738
 31
0.0
 12
184562.824231
 22
123232.946738
 32
0.0
 13
184562.824231
 23
123232.946738
 33
0.0
  0
SOLID
  5
B05E
330
B284
100
AcDbEntity
  8
A733_ストリートファニチャ
 62
     7
370
     9
100
AcDbTrace
 10
-184562.824231
 20
122691.946738
 30
0.0
 11
-184562.824231
 21
123112.946738
 31
0.0
 12
-184802.824231
 22
122691.946738
 32
0.0
 13
-184802.824231
 23
122691.946738
 33
0.0
210
0.0
220
0.0
230
-1.0
  0
SOLID
  5
B05F
330
B284
100
AcDbEntity
  8
A733_ストリートファニチャ
 62
     7
370
     9
100
AcDbTrace
 10
184802.824231
 20
122691.946738
 30
0.0
 11
185107.824231
 21
122017.946738
 31
0.0
 12
184562.824231
 22
123232.946738
 32
0.0
 13
184562.824231
 23
123232.946738
 33
0.0
  0
SOLID
  5
B060
330
B284
100
AcDbEntity
  8
A733_ストリートファニチャ
 62
     7
370
     9
100
AcDbTrace
 10
-184802.824231
 20
122017.946738
 30
0.0
 11
-184802.824231
 21
122691.946738
 31
0.0
 12
-185107.824231
 22
122017.946738
 32
0.0
 13
-185107.824231
 23
122017.946738
 33
0.0
210
0.0
220
0.0
230
-1.0
  0
SOLID
  5
B061
330
B284
100
AcDbEntity
  8
A733_ストリートファニチャ
 62
     7
370
     9
100
AcDbTrace
 10
184562.824231
 20
123232.946738
 30
0.0
 11
185107.824231
 21
122017.946738
 31
0.0
 12
185107.824231
 22
123418.946738
 32
0.0
 13
185107.824231
 23
123418.946738
 33
0.0
  0
SOLID
  5
B062
330
B284
100
AcDbEntity
  8
A733_ストリートファニチャ
 62
     7
370
     9
100
AcDbTrace
 10
-184562.824231
 20
123418.946738
 30
0.0
 11
-185107.824231
 21
123418.946738
 31
0.0
 12
-184562.824231
 22
123232.946738
 32
0.0
 13
-184562.824231
 23
123232.946738
 33
0.0
210
0.0
220
0.0
230
-1.0
  0
SOLID
  5
B063
330
B284
100
AcDbEntity
  8
A733_ストリートファニチャ
 62
     7
370
     9
100
AcDbTrace
 10
-184562.824231
 20
123232.946738
 30
0.0
 11
-183791.324231
 21
123232.946738
 31
0.0
 12
-184562.824231
 22
123112.946738
 32
0.0
 13
-184562.824231
 23
123112.946738
 33
0.0
210
0.0
220
0.0
230
-1.0
  0
SOLID
  5
B064
330
B284
100
AcDbEntity
  8
A733_ストリートファニチャ
 62
     7
370
     9
100
AcDbTrace
 10
183791.324231
 20
123232.946738
 30
0.0
 11
183671.324231
 21
123232.946738
 31
0.0
 12
184562.824231
 22
123112.946738
 32
0.0
 13
184562.824231
 23
123112.946738
 33
0.0
  0
SOLID
  5
B065
330
B284
100
AcDbEntity
  8
A733_ストリートファニチャ
 62
     7
370
     9
100
AcDbTrace
 10
183671.324231
 20
123232.946738
 30
0.0
 11
182562.324231
 21
123232.946738
 31
0.0
 12
184562.824231
 22
123112.946738
 32
0.0
 13
184562.824231
 23
123112.946738
 33
0.0
  0
SOLID
  5
B066
330
B284
100
AcDbEntity
  8
A733_ストリートファニチャ
 62
     7
370
     9
100
AcDbTrace
 10
182562.32423
 20
123813.946738
 30
0.0
 11
182423.324231
 21
123813.946738
 31
0.0
 12
182562.324231
 22
123232.946738
 32
0.0
 13
182562.324231
 23
123232.946738
 33
0.0
  0
SOLID
  5
B067
330
B284
100
AcDbEntity
  8
A733_ストリートファニチャ
 62
     7
370
     9
100
AcDbTrace
 10
182562.324231
 20
123112.946738
 30
0.0
 11
184562.824231
 21
123112.946738
 31
0.0
 12
182562.324231
 22
123232.946738
 32
0.0
 13
182562.324231
 23
123232.946738
 33
0.0
  0
SOLID
  5
B068
330
B284
100
AcDbEntity
  8
A733_ストリートファニチャ
 62
     7
370
     9
100
AcDbTrace
 10
-182562.324231
 20
123232.946738
 30
0.0
 11
-181952.324231
 21
123813.946738
 31
0.0
 12
-181952.324231
 22
122904.946738
 32
0.0
 13
-181952.324231
 23
122904.946738
 33
0.0
210
0.0
220
0.0
230
-1.0
  0
SOLID
  5
B069
330
B284
100
AcDbEntity
  8
A733_ストリートファニチャ
 62
     7
370
     9
100
AcDbTrace
 10
182227.324231
 20
123813.946738
 30
0.0
 11
181952.324231
 21
123813.946738
 31
0.0
 12
182562.324231
 22
123232.946738
 32
0.0
 13
182562.324231
 23
123232.946738
 33
0.0
  0
SOLID
  5
B06A
330
B284
100
AcDbEntity
  8
A733_ストリートファニチャ
 62
     7
370
     9
100
AcDbTrace
 10
182481.451363
 20
120575.571207
 30
0.0
 11
182493.172805
 21
120575.571207
 31
0.0
 12
181952.324231
 22
120853.569775
 32
0.0
 13
181989.975022
 23
120842.984051
 33
0.0
  0
SOLID
  5
B06D
330
B284
100
AcDbEntity
  8
A733_ストリートファニチャ
 62
     7
370
     9
100
AcDbTrace
 10
182493.172805
 20
120575.571207
 30
0.0
 11
182505.116561
 21
120575.571207
 31
0.0
 12
181989.975022
 22
120842.984051
 32
0.0
 13
182027.608684
 23
120832.337592
 33
0.0
  0
SOLID
  5
B070
330
B284
100
AcDbEntity
  8
A733_ストリートファニチャ
 62
     7
370
     9
100
AcDbTrace
 10
182505.116561
 20
120575.571207
 30
0.0
 11
182517.294365
 21
120575.571207
 31
0.0
 12
182027.608684
 22
120832.337592
 32
0.0
 13
182065.225119
 23
120821.630426
 33
0.0
  0
SOLID
  5
B073
330
B284
100
AcDbEntity
  8
A733_ストリートファニチャ
 62
     7
370
     9
100
AcDbTrace
 10
182517.294365
 20
120575.571207
 30
0.0
 11
182529.718707
 21
120575.571207
 31
0.0
 12
182065.225119
 22
120821.630426
 32
0.0
 13
182102.82423
 23
120810.862581
 33
0.0
  0
SOLID
  5
B076
330
B284
100
AcDbEntity
  8
A733_ストリートファニチャ
 62
     7
370
     9
100
AcDbTrace
 10
-182529.718707
 20
120575.571207
 30
0.0
 11
-182651.095468
 21
120575.571207
 31
0.0
 12
-182102.82423
 22
120810.862581
 32
0.0
 13
-182102.82423
 23
120920.295975
 33
0.0
210
0.0
220
0.0
230
-1.0
  0
SOLID
  5
B079
330
B284
100
AcDbEntity
  8
A733_ストリートファニチャ
 62
     7
370
     9
100
AcDbTrace
 10
-182681.685345
 20
120575.571207
 30
0.0
 11
-182686.968249
 21
120575.571207
 31
0.0
 12
-182352.82423
 22
120789.946738
 32
0.0
 13
-182352.82423
 23
120789.946738
 33
0.0
210
0.0
220
0.0
230
-1.0
  0
SOLID
  5
B07C
330
B284
100
AcDbEntity
  8
A733_ストリートファニチャ
 62
     7
370
     9
100
AcDbTrace
 10
-182462.091596
 20
120575.571207
 30
0.0
 11
-182481.451363
 21
120575.571207
 31
0.0
 12
-181952.324231
 22
120853.569775
 32
0.0
 13
-181952.324231
 23
120853.569775
 33
0.0
210
0.0
220
0.0
230
-1.0
  0
SOLID
  5
B07F
330
B284
100
AcDbEntity
  8
A733_ストリートファニチャ
 62
     7
370
     9
100
AcDbTrace
 10
-182446.069013
 20
120575.571207
 30
0.0
 11
-182462.091596
 21
120575.571207
 31
0.0
 12
-181952.324231
 22
120853.569775
 32
0.0
 13
-181952.324231
 23
120853.569775
 33
0.0
210
0.0
220
0.0
230
-1.0
  0
SOLID
  5
B082
330
B284
100
AcDbEntity
  8
A733_ストリートファニチャ
 62
     7
370
     9
100
AcDbTrace
 10
-182383.296486
 20
120575.571207
 30
0.0
 11
-182446.069013
 21
120575.571207
 31
0.0
 12
-181952.324231
 22
120853.569775
 32
0.0
 13
-181952.324231
 23
120853.569775
 33
0.0
210
0.0
220
0.0
230
-1.0
  0
SOLID
  5
B085
330
B284
100
AcDbEntity
  8
A733_ストリートファニチャ
 62
     7
370
     9
100
AcDbTrace
 10
-182293.931559
 20
120575.571207
 30
0.0
 11
-182383.296486
 21
120575.571207
 31
0.0
 12
-181952.324231
 22
120853.569775
 32
0.0
 13
-181952.324231
 23
120853.569775
 33
0.0
210
0.0
220
0.0
230
-1.0
  0
SOLID
  5
B088
330
B284
100
AcDbEntity
  8
A733_ストリートファニチャ
 62
     7
370
     9
100
AcDbTrace
 10
-182195.189129
 20
120575.571207
 30
0.0
 11
-182293.931559
 21
120575.571207
 31
0.0
 12
-182151.727712
 22
120588.472123
 32
0.0
 13
-181952.324231
 23
120853.569775
 33
0.0
210
0.0
220
0.0
230
-1.0
  0
SOLID
  5
B08B
330
B284
100
AcDbEntity
  8
A733_ストリートファニチャ
 62
     7
370
     9
100
AcDbTrace
 10
182151.727712
 20
120588.472123
 30
0.0
 11
181952.324231
 21
120853.569775
 31
0.0
 12
181952.324231
 22
120645.794392
 32
0.0
 13
181952.324231
 23
120645.794392
 33
0.0
  0
SOLID
  5
B08C
330
B284
100
AcDbEntity
  8
A733_ストリートファニチャ
 62
     7
370
     9
100
AcDbTrace
 10
182102.82423
 20
120920.295975
 30
0.0
 11
182317.468891
 21
120955.651314
 31
0.0
 12
182138.179569
 22
120955.651314
 32
0.0
 13
182138.179569
 23
120955.651314
 33
0.0
  0
SOLID
  5
B08D
330
B284
100
AcDbEntity
  8
A733_ストリートファニチャ
 62
     7
370
     9
100
AcDbTrace
 10
182102.82423
 20
120920.295975
 30
0.0
 11
182352.82423
 21
120920.295975
 31
0.0
 12
182317.468891
 22
120955.651314
 32
0.0
 13
182317.468891
 23
120955.651314
 33
0.0
  0
SOLID
  5
B08E
330
B284
100
AcDbEntity
  8
A733_ストリートファニチャ
 62
     7
370
     9
100
AcDbTrace
 10
182651.095468
 20
120575.571207
 30
0.0
 11
182681.685345
 21
120575.571207
 31
0.0
 12
182102.82423
 22
120920.295975
 32
0.0
 13
182352.82423
 23
120789.946738
 33
0.0
  0
SOLID
  5
B091
330
B284
100
AcDbEntity
  8
A733_ストリートファニチャ
 62
     7
370
     9
100
AcDbTrace
 10
182102.82423
 20
120920.295975
 30
0.0
 11
182352.82423
 21
120789.946738
 31
0.0
 12
182352.82423
 22
120920.295975
 32
0.0
 13
182352.82423
 23
120920.295975
 33
0.0
  0
SOLID
  5
B092
330
B284
100
AcDbEntity
  8
A733_ストリートファニチャ
 62
     7
370
     9
100
AcDbTrace
 10
182352.82423
 20
120789.946738
 30
0.0
 11
183327.824231
 21
120669.946738
 31
0.0
 12
183327.824231
 22
120789.946738
 32
0.0
 13
183327.824231
 23
120789.946738
 33
0.0
  0
SOLID
  5
B093
330
B284
100
AcDbEntity
  8
A733_ストリートファニチャ
 62
     7
370
     9
100
AcDbTrace
 10
-183327.824231
 20
120669.946738
 30
0.0
 11
-182352.82423
 21
120789.946738
 31
0.0
 12
-182575.22204
 22
120669.946738
 32
0.0
 13
-182575.22204
 23
120669.946738
 33
0.0
210
0.0
220
0.0
230
-1.0
  0
SOLID
  5
B094
330
B284
100
AcDbEntity
  8
A733_ストリートファニチャ
 62
     7
370
     9
100
AcDbTrace
 10
-182686.968249
 20
120575.571207
 30
0.0
 11
-182688.780872
 21
120575.571207
 31
0.0
 12
-182352.82423
 22
120789.946738
 32
0.0
 13
-182352.82423
 23
120789.946738
 33
0.0
210
0.0
220
0.0
230
-1.0
  0
SOLID
  5
B097
330
B284
100
AcDbEntity
  8
A733_ストリートファニチャ
 62
     7
370
     9
100
AcDbTrace
 10
-182688.780872
 20
120575.571207
 30
0.0
 11
-182743.870443
 21
120575.571207
 31
0.0
 12
-182352.82423
 22
120789.946738
 32
0.0
 13
-182352.82423
 23
120789.946738
 33
0.0
210
0.0
220
0.0
230
-1.0
  0
SOLID
  5
B09A
330
B284
100
AcDbEntity
  8
A733_ストリートファニチャ
 62
     7
370
     9
100
AcDbTrace
 10
182575.22204
 20
120669.946738
 30
0.0
 11
182807.902176
 21
120596.669031
 31
0.0
 12
182749.801463
 22
120615.20793
 32
0.0
 13
182749.801463
 23
120615.20793
 33
0.0
  0
SOLID
  5
B09B
330
B284
100
AcDbEntity
  8
A733_ストリートファニチャ
 62
     7
370
     9
100
AcDbTrace
 10
-182827.194006
 20
120575.571207
 30
0.0
 11
-182859.910632
 21
120575.571207
 31
0.0
 12
-182575.22204
 22
120669.946738
 32
0.0
 13
-182807.902176
 23
120596.669031
 33
0.0
210
0.0
220
0.0
230
-1.0
  0
SOLID
  5
B09E
330
B284
100
AcDbEntity
  8
A733_ストリートファニチャ
 62
     7
370
     9
100
AcDbTrace
 10
-182781.459314
 20
120575.571207
 30
0.0
 11
-182827.194006
 21
120575.571207
 31
0.0
 12
-182575.22204
 22
120669.946738
 32
0.0
 13
-182575.22204
 23
120669.946738
 33
0.0
210
0.0
220
0.0
230
-1.0
  0
SOLID
  5
B0A1
330
B284
100
AcDbEntity
  8
A733_ストリートファニチャ
 62
     7
370
     9
100
AcDbTrace
 10
-182743.870443
 20
120575.571207
 30
0.0
 11
-182746.963223
 21
120575.571207
 31
0.0
 12
-182352.82423
 22
120789.946738
 32
0.0
 13
-182575.22204
 23
120669.946738
 33
0.0
210
0.0
220
0.0
230
-1.0
  0
SOLID
  5
B0A4
330
B284
100
AcDbEntity
  8
A733_ストリートファニチャ
 62
     7
370
     9
100
AcDbTrace
 10
-182746.963223
 20
120575.571207
 30
0.0
 11
-182781.459314
 21
120575.571207
 31
0.0
 12
-182575.22204
 22
120669.946738
 32
0.0
 13
-182575.22204
 23
120669.946738
 33
0.0
210
0.0
220
0.0
230
-1.0
  0
SOLID
  5
B0A7
330
B284
100
AcDbEntity
  8
A733_ストリートファニチャ
 62
     7
370
     9
100
AcDbTrace
 10
-185040.507051
 20
120575.571207
 30
0.0
 11
-185107.824231
 21
120575.571207
 31
0.0
 12
-185107.824231
 22
120877.946738
 32
0.0
 13
-185107.824231
 23
120877.946738
 33
0.0
210
0.0
220
0.0
230
-1.0
  0
SOLID
  5
B0AA
330
B284
100
AcDbEntity
  8
A733_ストリートファニチャ
 62
     7
370
     9
100
AcDbTrace
 10
-184802.824231
 20
120669.946738
 30
0.0
 11
-184407.824231
 21
120789.946738
 31
0.0
 12
-184407.824231
 22
120669.946738
 32
0.0
 13
-184407.824231
 23
120669.946738
 33
0.0
210
0.0
220
0.0
230
-1.0
  0
SOLID
  5
B0AB
330
B284
100
AcDbEntity
  8
A733_ストリートファニチャ
 62
     7
370
     9
100
AcDbTrace
 10
184407.824231
 20
120789.946738
 30
0.0
 11
184802.824231
 21
120669.946738
 31
0.0
 12
184802.824231
 22
120789.946738
 32
0.0
 13
184802.824231
 23
120789.946738
 33
0.0
  0
SOLID
  5
B0AC
330
B284
100
AcDbEntity
  8
A733_ストリートファニチャ
 62
     7
370
     9
100
AcDbTrace
 10
-184802.824231
 20
120575.571207
 30
0.0
 11
-185040.507051
 21
120575.571207
 31
0.0
 12
-184802.824231
 22
120669.946738
 32
0.0
 13
-185107.824231
 23
120877.946738
 33
0.0
210
0.0
220
0.0
230
-1.0
  0
SOLID
  5
B0AF
330
B284
100
AcDbEntity
  8
A733_ストリートファニチャ
 62
     7
370
     9
100
AcDbTrace
 10
184802.824231
 20
120789.946738
 30
0.0
 11
185107.824231
 21
120877.946738
 31
0.0
 12
184802.824231
 22
120877.946738
 32
0.0
 13
184802.824231
 23
120877.946738
 33
0.0
  0
SOLID
  5
B0B0
330
B284
100
AcDbEntity
  8
A733_ストリートファニチャ
 62
     7
370
     9
100
AcDbTrace
 10
185107.824231
 20
120877.946738
 30
0.0
 11
184802.824231
 21
120669.946738
 31
0.0
 12
184802.824231
 22
120789.946738
 32
0.0
 13
184802.824231
 23
120789.946738
 33
0.0
  0
SOLID
  5
B0B1
330
B284
100
AcDbEntity
  8
A733_ストリートファニチャ
 62
     7
370
     9
100
AcDbTrace
 10
188727.824231
 20
128214.946738
 30
0.0
 11
188687.824231
 21
128389.946738
 31
0.0
 12
188687.824231
 22
128214.946738
 32
0.0
 13
188687.824231
 23
128214.946738
 33
0.0
  0
LINE
  5
B0B2
330
B284
100
AcDbEntity
  8
A733_ストリートファニチャ
 62
     7
370
     9
100
AcDbLine
 10
185671.614741
 20
128054.946738
 30
0.0
 11
185622.824231
 21
128103.737247
 31
0.0
  0
LINE
  5
B0B3
330
B284
100
AcDbEntity
  8
A733_ストリートファニチャ
 62
     7
370
     9
100
AcDbLine
 10
183671.324231
 20
123232.946738
 30
0.0
 11
183671.324231
 21
124323.946738
 31
0.0
  0
LINE
  5
B0B4
330
B284
100
AcDbEntity
  8
A733_ストリートファニチャ
 62
     7
370
     9
100
AcDbLine
 10
183791.324231
 20
123232.946738
 30
0.0
 11
183791.324231
 21
124443.946738
 31
0.0
  0
LINE
  5
B0B5
330
B284
100
AcDbEntity
  8
A733_ストリートファニチャ
 62
     7
370
     9
100
AcDbLine
 10
183731.324231
 20
124383.946738
 30
0.0
 11
182352.324231
 21
124383.946738
 31
0.0
  0
LINE
  5
B0B6
330
B284
100
AcDbEntity
  8
A733_ストリートファニチャ
 62
     7
370
     9
100
AcDbLine
 10
182423.324231
 20
124323.946738
 30
0.0
 11
182423.324231
 21
123813.946738
 31
0.0
  0
LINE
  5
B0B7
330
B284
100
AcDbEntity
  8
A733_ストリートファニチャ
 62
     7
370
     9
100
AcDbLine
 10
183671.324231
 20
124323.946738
 30
0.0
 11
182423.324231
 21
124323.946738
 31
0.0
  0
LINE
  5
B0B8
330
B284
100
AcDbEntity
  8
A733_ストリートファニチャ
 62
     7
370
     9
100
AcDbLine
 10
183791.324231
 20
124443.946738
 30
0.0
 11
182227.324231
 21
124443.946738
 31
0.0
  0
LINE
  5
B0B9
330
B284
100
AcDbEntity
  8
A733_ストリートファニチャ
 62
     7
370
     9
100
AcDbLine
 10
182227.324231
 20
124443.946738
 30
0.0
 11
182227.324231
 21
123813.946738
 31
0.0
  0
LINE
  5
B0BA
330
B284
100
AcDbEntity
  8
A733_ストリートファニチャ
 62
     7
370
     9
100
AcDbLine
 10
182174.324231
 20
124488.946738
 30
0.0
 11
182174.324231
 21
124463.946738
 31
0.0
  0
LINE
  5
B0BB
330
B284
100
AcDbEntity
  8
A733_ストリートファニチャ
 62
     7
370
     9
100
AcDbLine
 10
182219.324231
 20
124511.946738
 30
0.0
 11
182274.324231
 21
124511.946738
 31
0.0
  0
LINE
  5
B0BC
330
B284
100
AcDbEntity
  8
A733_ストリートファニチャ
 62
     7
370
     9
100
AcDbLine
 10
182174.324231
 20
124463.946738
 30
0.0
 11
182194.324231
 21
124463.946738
 31
0.0
  0
LINE
  5
B0BD
330
B284
100
AcDbEntity
  8
A733_ストリートファニチャ
 62
     7
370
     9
100
AcDbLine
 10
182254.324231
 20
124463.946738
 30
0.0
 11
182274.324231
 21
124463.946738
 31
0.0
  0
LINE
  5
B0BE
330
B284
100
AcDbEntity
  8
A733_ストリートファニチャ
 62
     7
370
     9
100
AcDbLine
 10
182174.324231
 20
124488.946738
 30
0.0
 11
182219.324231
 21
124488.946738
 31
0.0
  0
LINE
  5
B0BF
330
B284
100
AcDbEntity
  8
A733_ストリートファニチャ
 62
     7
370
     9
100
AcDbLine
 10
182219.324231
 20
124511.946738
 30
0.0
 11
182219.324231
 21
124488.946738
 31
0.0
  0
LINE
  5
B0C0
330
B284
100
AcDbEntity
  8
A733_ストリートファニチャ
 62
     7
370
     9
100
AcDbLine
 10
182274.324231
 20
124511.946738
 30
0.0
 11
182274.324231
 21
124463.946738
 31
0.0
  0
LINE
  5
B0C1
330
B284
100
AcDbEntity
  8
A733_ストリートファニチャ
 62
     7
370
     9
100
AcDbLine
 10
181967.324231
 20
124443.946738
 30
0.0
 11
181967.324231
 21
124343.946738
 31
0.0
  0
LINE
  5
B0C2
330
B284
100
AcDbEntity
  8
A733_ストリートファニチャ
 62
     7
370
     9
100
AcDbLine
 10
183821.324231
 20
123253.946738
 30
0.0
 11
183821.324231
 21
124443.946738
 31
0.0
  0
SOLID
  5
B0C3
330
B284
100
AcDbEntity
  8
A733_ストリートファニチャ
 62
     7
370
     9
100
AcDbTrace
 10
-183671.324231
 20
123232.946738
 30
0.0
 11
-183671.324231
 21
124323.946738
 31
0.0
 12
-183791.324231
 22
123232.946738
 32
0.0
 13
-183791.324231
 23
123232.946738
 33
0.0
210
0.0
220
0.0
230
-1.0
  0
SOLID
  5
B0C4
330
B284
100
AcDbEntity
  8
A733_ストリートファニチャ
 62
     7
370
     9
100
AcDbTrace
 10
183671.324231
 20
124323.946738
 30
0.0
 11
183791.324231
 21
124443.946738
 31
0.0
 12
183791.324231
 22
123232.946738
 32
0.0
 13
183791.324231
 23
123232.946738
 33
0.0
  0
SOLID
  5
B0C5
330
B284
100
AcDbEntity
  8
A733_ストリートファニチャ
 62
     7
370
     9
100
AcDbTrace
 10
-183671.324231
 20
124323.946738
 30
0.0
 11
-182423.324231
 21
124323.946738
 31
0.0
 12
-183791.324231
 22
124443.946738
 32
0.0
 13
-183791.324231
 23
124443.946738
 33
0.0
210
0.0
220
0.0
230
-1.0
  0
SOLID
  5
B0C6
330
B284
100
AcDbEntity
  8
A733_ストリートファニチャ
 62
     7
370
     9
100
AcDbTrace
 10
-182423.324231
 20
124323.946738
 30
0.0
 11
-183791.324231
 21
124443.946738
 31
0.0
 12
-182227.324231
 22
124443.946738
 32
0.0
 13
-182227.324231
 23
124443.946738
 33
0.0
210
0.0
220
0.0
230
-1.0
  0
SOLID
  5
B0C7
330
B284
100
AcDbEntity
  8
A733_ストリートファニチャ
 62
     7
370
     9
100
AcDbTrace
 10
-182423.324231
 20
124323.946738
 30
0.0
 11
-182423.324231
 21
123813.946738
 31
0.0
 12
-182227.324231
 22
124443.946738
 32
0.0
 13
-182227.324231
 23
124443.946738
 33
0.0
210
0.0
220
0.0
230
-1.0
  0
SOLID
  5
B0C8
330
B284
100
AcDbEntity
  8
A733_ストリートファニチャ
 62
     7
370
     9
100
AcDbTrace
 10
-182423.324231
 20
123813.946738
 30
0.0
 11
-182562.324231
 21
123232.946738
 31
0.0
 12
-182227.324231
 22
124443.946738
 32
0.0
 13
-182227.324231
 23
124443.946738
 33
0.0
210
0.0
220
0.0
230
-1.0
  0
SOLID
  5
B0C9
330
B284
100
AcDbEntity
  8
A733_ストリートファニチャ
 62
     7
370
     9
100
AcDbTrace
 10
182227.324231
 20
123813.946738
 30
0.0
 11
182562.324231
 21
123232.946738
 31
0.0
 12
182227.324231
 22
124443.946738
 32
0.0
 13
182227.324231
 23
124443.946738
 33
0.0
  0
POINT
  5
B0CA
330
B284
100
AcDbEntity
  8
A733_ストリートファニチャ
 62
     7
370
     9
100
AcDbPoint
 10
182947.850068
 20
125303.946738
 30
0.0
 50
-90.0
  0
LINE
  5
B0CB
330
B284
100
AcDbEntity
  8
A733_ストリートファニチャ
 62
     7
370
     9
100
AcDbLine
 10
183756.324231
 20
124463.946738
 30
0.0
 11
182274.324231
 21
124463.946738
 31
0.0
  0
LINE
  5
B0CC
330
B284
100
AcDbEntity
  8
A733_ストリートファニチャ
 62
     7
370
    13
100
AcDbLine
 10
182174.324231
 20
124488.946738
 30
0.0
 11
181384.324231
 21
124488.946738
 31
0.0
  0
ARC
  5
B0CD
330
B284
100
AcDbEntity
  8
A733_ストリートファニチャ
 62
     7
370
     9
100
AcDbCircle
 10
182174.324231
 20
124488.946738
 30
0.0
 40
790.0000000000004
100
AcDbArc
 50
90.0
 51
180.0
  0
LINE
  5
B0CE
330
B284
100
AcDbEntity
  8
A733_ストリートファニチャ
 62
     7
370
     9
100
AcDbLine
 10
182823.324231
 20
125488.946738
 30
0.0
 11
182823.324231
 21
125338.946738
 31
0.0
  0
LINE
  5
B0CF
330
B284
100
AcDbEntity
  8
A733_ストリートファニチャ
 62
     7
370
     9
100
AcDbLine
 10
182680.646561
 20
125338.946738
 30
0.0
 11
182530.646561
 21
125488.946738
 31
0.0
  0
LINE
  5
B0D0
330
B284
100
AcDbEntity
  8
A733_ストリートファニチャ
 62
     7
370
     9
100
AcDbLine
 10
182716.0019
 20
125338.946738
 30
0.0
 11
182566.0019
 21
125488.946738
 31
0.0
  0
LINE
  5
B0D1
330
B284
100
AcDbEntity
  8
A733_ストリートファニチャ
 62
     7
370
     9
100
AcDbLine
 10
183223.324231
 20
125488.946738
 30
0.0
 11
183223.324231
 21
125338.946738
 31
0.0
  0
LINE
  5
B0D2
330
B284
100
AcDbEntity
  8
A733_ストリートファニチャ
 62
     7
370
     9
100
AcDbLine
 10
183080.646561
 20
125338.946738
 30
0.0
 11
182930.646561
 21
125488.946738
 31
0.0
  0
LINE
  5
B0D3
330
B284
100
AcDbEntity
  8
A733_ストリートファニチャ
 62
     7
370
     9
100
AcDbLine
 10
183116.0019
 20
125338.946738
 30
0.0
 11
182966.0019
 21
125488.946738
 31
0.0
  0
LINE
  5
B0D4
330
B284
100
AcDbEntity
  8
A733_ストリートファニチャ
 62
     7
370
     9
100
AcDbLine
 10
183525.0019
 20
125338.946738
 30
0.0
 11
183375.0019
 21
125488.946738
 31
0.0
  0
LINE
  5
B0D5
330
B284
100
AcDbEntity
  8
A733_ストリートファニチャ
 62
     7
370
     9
100
AcDbLine
 10
183489.646561
 20
125338.946738
 30
0.0
 11
183339.646561
 21
125488.946738
 31
0.0
  0
POINT
  5
B0D6
330
B284
100
AcDbEntity
  8
A733_ストリートファニチャ
 62
     7
370
     9
100
AcDbPoint
 10
182947.850068
 20
125338.946738
 30
0.0
 50
-90.0
  0
POINT
  5
B0D7
330
B284
100
AcDbEntity
  8
A733_ストリートファニチャ
 62
     7
370
     9
100
AcDbPoint
 10
182947.850068
 20
125488.946717
 30
0.0
 50
-90.0
  0
LINE
  5
B0D8
330
B284
100
AcDbEntity
  8
A733_ストリートファニチャ
 62
     7
370
     9
100
AcDbLine
 10
182947.850068
 20
125338.946738
 30
0.0
 11
182947.850068
 21
125488.946717
 31
0.0
  0
LINE
  5
B0D9
330
B284
100
AcDbEntity
  8
A733_ストリートファニチャ
 62
     7
370
     9
100
AcDbLine
 10
182947.850068
 20
125338.946738
 30
0.0
 11
182947.850068
 21
125303.946738
 31
0.0
  0
LINE
  5
B0DA
330
B284
100
AcDbEntity
  8
A733_ストリートファニチャ
 62
     7
370
     9
100
AcDbLine
 10
183636.324231
 20
125941.946738
 30
0.0
 11
183786.324231
 21
125941.946738
 31
0.0
  0
LINE
  5
B0DB
330
B284
100
AcDbEntity
  8
A733_ストリートファニチャ
 62
     7
370
     9
100
AcDbLine
 10
183636.324231
 20
125541.946738
 30
0.0
 11
183786.324231
 21
125541.946738
 31
0.0
  0
LINE
  5
B0DC
330
B284
100
AcDbEntity
  8
A733_ストリートファニチャ
 62
     7
370
     9
100
AcDbLine
 10
183636.324231
 20
127141.946738
 30
0.0
 11
183786.324231
 21
127141.946738
 31
0.0
  0
LINE
  5
B0DD
330
B284
100
AcDbEntity
  8
A733_ストリートファニチャ
 62
     7
370
     9
100
AcDbLine
 10
183786.324231
 20
125799.269068
 30
0.0
 11
183636.324231
 21
125649.269068
 31
0.0
  0
LINE
  5
B0DE
330
B284
100
AcDbEntity
  8
A733_ストリートファニチャ
 62
     7
370
     9
100
AcDbLine
 10
183786.324231
 20
125834.624407
 30
0.0
 11
183636.324231
 21
125684.624407
 31
0.0
  0
LINE
  5
B0DF
330
B284
100
AcDbEntity
  8
A733_ストリートファニチャ
 62
     7
370
     9
100
AcDbLine
 10
183786.324231
 20
127399.269068
 30
0.0
 11
183636.324231
 21
127249.269068
 31
0.0
  0
LINE
  5
B0E0
330
B284
100
AcDbEntity
  8
A733_ストリートファニチャ
 62
     7
370
     9
100
AcDbLine
 10
183786.324231
 20
127434.624407
 30
0.0
 11
183636.324231
 21
127284.624407
 31
0.0
  0
LINE
  5
B0E1
330
B284
100
AcDbEntity
  8
A733_ストリートファニチャ
 62
     7
370
     9
100
AcDbLine
 10
183636.324231
 20
126741.946738
 30
0.0
 11
183786.324231
 21
126741.946738
 31
0.0
  0
LINE
  5
B0E2
330
B284
100
AcDbEntity
  8
A733_ストリートファニチャ
 62
     7
370
     9
100
AcDbLine
 10
183786.324231
 20
126999.269068
 30
0.0
 11
183636.324231
 21
126849.269068
 31
0.0
  0
LINE
  5
B0E3
330
B284
100
AcDbEntity
  8
A733_ストリートファニチャ
 62
     7
370
     9
100
AcDbLine
 10
183786.324231
 20
127034.624407
 30
0.0
 11
183636.324231
 21
126884.624407
 31
0.0
  0
LINE
  5
B0E4
330
B284
100
AcDbEntity
  8
A733_ストリートファニチャ
 62
     7
370
     9
100
AcDbLine
 10
183786.324231
 20
126599.269068
 30
0.0
 11
183636.324231
 21
126449.269068
 31
0.0
  0
LINE
  5
B0E5
330
B284
100
AcDbEntity
  8
A733_ストリートファニチャ
 62
     7
370
     9
100
AcDbLine
 10
183786.324231
 20
126634.624407
 30
0.0
 11
183636.324231
 21
126484.624407
 31
0.0
  0
LINE
  5
B0E6
330
B284
100
AcDbEntity
  8
A733_ストリートファニチャ
 62
     7
370
     9
100
AcDbLine
 10
183786.324231
 20
126199.269068
 30
0.0
 11
183636.324231
 21
126049.269068
 31
0.0
  0
LINE
  5
B0E7
330
B284
100
AcDbEntity
  8
A733_ストリートファニチャ
 62
     7
370
     9
100
AcDbLine
 10
183786.324231
 20
126234.624407
 30
0.0
 11
183636.324231
 21
126084.624407
 31
0.0
  0
LINE
  5
B0E8
330
B284
100
AcDbEntity
  8
A733_ストリートファニチャ
 62
     7
370
     9
100
AcDbLine
 10
183636.324231
 20
125348.946738
 30
0.0
 11
183786.324231
 21
125348.946738
 31
0.0
  0
LINE
  5
B0E9
330
B284
100
AcDbEntity
  8
A733_ストリートファニチャ
 62
     7
370
     9
100
AcDbLine
 10
183786.324231
 20
125502.769068
 30
0.0
 11
183636.324231
 21
125352.769068
 31
0.0
  0
LINE
  5
B0EA
330
B284
100
AcDbEntity
  8
A733_ストリートファニチャ
 62
     7
370
     9
100
AcDbLine
 10
183786.324231
 20
125538.124407
 30
0.0
 11
183636.324231
 21
125388.124407
 31
0.0
  0
POINT
  5
B0EB
330
B284
100
AcDbEntity
  8
A733_ストリートファニチャ
 62
     7
370
     9
100
AcDbPoint
 10
183786.324211
 20
126434.412251
 30
0.0
 50
-90.0
  0
POINT
  5
B0EC
330
B284
100
AcDbEntity
  8
A733_ストリートファニチャ
 62
     7
370
     9
100
AcDbPoint
 10
183636.324231
 20
126434.412251
 30
0.0
 50
-90.0
  0
LINE
  5
B0ED
330
B284
100
AcDbEntity
  8
A733_ストリートファニチャ
 62
     7
370
     9
100
AcDbLine
 10
183786.324211
 20
126434.412251
 30
0.0
 11
183636.324231
 21
126434.412251
 31
0.0
  0
LINE
  5
B0EE
330
B284
100
AcDbEntity
  8
A733_ストリートファニチャ
 62
     7
370
     9
100
AcDbLine
 10
183786.324231
 20
126434.412251
 30
0.0
 11
183821.324231
 21
126434.412251
 31
0.0
  0
LINE
  5
B0EF
330
B284
100
AcDbEntity
  8
A733_ストリートファニチャ
 62
     7
370
     9
100
AcDbLine
 10
182423.324231
 20
125488.946738
 30
0.0
 11
183636.324231
 21
125488.946738
 31
0.0
  0
LINE
  5
B0F0
330
B284
100
AcDbEntity
  8
A733_ストリートファニチャ
 62
     7
370
     9
100
AcDbLine
 10
183636.324231
 20
125338.946738
 30
0.0
 11
183636.324231
 21
127541.946738
 31
0.0
  0
LINE
  5
B0F1
330
B284
100
AcDbEntity
  8
A733_ストリートファニチャ
 62
     7
370
     9
100
AcDbLine
 10
182423.324231
 20
125338.946738
 30
0.0
 11
183636.324231
 21
125338.946738
 31
0.0
  0
LINE
  5
B0F2
330
B284
100
AcDbEntity
  8
A733_ストリートファニチャ
 62
     7
370
     9
100
AcDbLine
 10
184527.824231
 20
127506.946738
 30
0.0
 11
183821.324231
 21
127506.946738
 31
0.0
  0
LINE
  5
B0F3
330
B284
100
AcDbEntity
  8
A733_ストリートファニチャ
 62
     7
370
     9
100
AcDbLine
 10
184527.824231
 20
127519.446738
 30
0.0
 11
183808.824231
 21
127519.446738
 31
0.0
  0
POINT
  5
B0F4
330
B284
100
AcDbEntity
  8
A733_ストリートファニチャ
 62
     7
370
     9
100
AcDbPoint
 10
184047.217071
 20
127506.946738
 30
0.0
 50
-90.0
  0
POINT
  5
B0F5
330
B284
100
AcDbEntity
  8
A733_ストリートファニチャ
 62
     7
370
     9
100
AcDbPoint
 10
184297.217071
 20
127506.946738
 30
0.0
 50
-90.0
  0
LINE
  5
B0F6
330
B284
100
AcDbEntity
  8
A733_ストリートファニチャ
 62
     7
370
     9
100
AcDbLine
 10
183808.824231
 20
125323.946738
 30
0.0
 11
183808.824231
 21
127519.446738
 31
0.0
  0
LINE
  5
B0F7
330
B284
100
AcDbEntity
  8
A733_ストリートファニチャ
 62
     7
370
     9
100
AcDbLine
 10
183821.324231
 20
125323.946738
 30
0.0
 11
183821.324231
 21
127506.946738
 31
0.0
  0
LINE
  5
B0F8
330
B284
100
AcDbEntity
  8
A733_ストリートファニチャ
 62
     7
370
     9
100
AcDbLine
 10
185677.824231
 20
128019.946738
 30
0.0
 11
187397.824231
 21
128019.946738
 31
0.0
  0
LINE
  5
B0F9
330
B284
100
AcDbEntity
  8
A733_ストリートファニチャ
 62
     7
370
     9
100
AcDbLine
 10
185677.824231
 20
128032.446738
 30
0.0
 11
187397.824231
 21
128032.446738
 31
0.0
  0
LINE
  5
B0FA
330
B284
100
AcDbEntity
  8
A733_ストリートファニチャ
 62
     7
370
     9
100
AcDbLine
 10
188772.824231
 20
127869.946738
 30
0.0
 11
187302.824231
 21
127869.946738
 31
0.0
  0
LINE
  5
B0FB
330
B284
100
AcDbEntity
  8
A733_ストリートファニチャ
 62
     7
370
     9
100
AcDbLine
 10
189094.324231
 20
128019.946738
 30
0.0
 11
189184.875455
 21
128019.946738
 31
0.0
  0
LINE
  5
B0FC
330
B284
100
AcDbEntity
  8
A733_ストリートファニチャ
 62
     7
370
     9
100
AcDbLine
 10
189094.324231
 20
128032.446738
 30
0.0
 11
189184.875455
 21
128032.446738
 31
0.0
  0
LINE
  5
B0FD
330
B284
100
AcDbEntity
  8
A733_ストリートファニチャ
 62
     7
370
     9
100
AcDbLine
 10
187302.824231
 20
128019.946738
 30
0.0
 11
187302.824231
 21
127869.946738
 31
0.0
  0
POINT
  5
B0FE
330
B284
100
AcDbEntity
  8
A733_ストリートファニチャ
 62
     7
370
     9
100
AcDbPoint
 10
186043.427598
 20
128019.946738
 30
0.0
 50
-90.0
  0
LINE
  5
B0FF
330
B284
100
AcDbEntity
  8
A733_ストリートファニチャ
 62
     7
370
     9
100
AcDbLine
 10
187397.824231
 20
128019.946738
 30
0.0
 11
188677.824231
 21
128019.946738
 31
0.0
  0
LINE
  5
B100
330
B284
100
AcDbEntity
  8
A733_ストリートファニチャ
 62
     7
370
     9
100
AcDbLine
 10
187397.824231
 20
128119.946738
 30
0.0
 11
187397.824231
 21
127989.946738
 31
0.0
  0
LINE
  5
B101
330
B284
100
AcDbEntity
  8
A733_ストリートファニチャ
 62
     7
370
     9
100
AcDbLine
 10
187437.824231
 20
127989.946738
 30
0.0
 11
187397.824231
 21
127989.946738
 31
0.0
  0
LINE
  5
B102
330
B284
100
AcDbEntity
  8
A733_ストリートファニチャ
 62
     7
370
     9
100
AcDbLine
 10
187437.824231
 20
128119.946738
 30
0.0
 11
187437.824231
 21
127989.946738
 31
0.0
  0
LINE
  5
B103
330
B284
100
AcDbEntity
  8
A733_ストリートファニチャ
 62
     7
370
     9
100
AcDbLine
 10
188677.824231
 20
128119.946738
 30
0.0
 11
188677.824231
 21
127989.946738
 31
0.0
  0
LINE
  5
B104
330
B284
100
AcDbEntity
  8
A733_ストリートファニチャ
 62
     7
370
     9
100
AcDbLine
 10
188677.824231
 20
127989.946738
 30
0.0
 11
188637.824231
 21
127989.946738
 31
0.0
  0
LINE
  5
B105
330
B284
100
AcDbEntity
  8
A733_ストリートファニチャ
 62
     7
370
     9
100
AcDbLine
 10
188637.824231
 20
128119.946738
 30
0.0
 11
188637.824231
 21
127989.946738
 31
0.0
  0
LINE
  5
B106
330
B284
100
AcDbEntity
  8
A733_ストリートファニチャ
 62
     7
370
     9
100
AcDbLine
 10
188677.824231
 20
128019.946738
 30
0.0
 11
189004.324231
 21
128019.946738
 31
0.0
  0
LINE
  5
B107
330
B284
100
AcDbEntity
  8
A733_ストリートファニチャ
 62
     7
370
     9
100
AcDbLine
 10
188677.824231
 20
128032.446738
 30
0.0
 11
189004.324231
 21
128032.446738
 31
0.0
  0
LINE
  5
B108
330
B284
100
AcDbEntity
  8
A733_ストリートファニチャ
 62
     7
370
     9
100
AcDbLine
 10
188772.824231
 20
128019.946738
 30
0.0
 11
188772.824231
 21
127869.946738
 31
0.0
  0
LINE
  5
B109
330
B284
100
AcDbEntity
  8
A733_ストリートファニチャ
 62
     7
370
     9
100
AcDbLine
 10
182562.324232
 20
123044.946738
 30
0.0
 11
182562.324232
 21
122894.946738
 31
0.0
  0
LINE
  5
B10A
330
B284
100
AcDbEntity
  8
A733_ストリートファニチャ
 62
     7
370
     9
100
AcDbLine
 10
182562.324232
 20
123044.946738
 30
0.0
 11
184562.824232
 21
123044.946738
 31
0.0
  0
LINE
  5
B10B
330
B284
100
AcDbEntity
  8
A733_ストリートファニチャ
 62
     7
370
     9
100
AcDbLine
 10
182562.324232
 20
122894.946738
 30
0.0
 11
184562.824232
 21
122894.946738
 31
0.0
  0
POINT
  5
B10C
330
B284
100
AcDbEntity
  8
A733_ストリートファニチャ
 62
     7
370
     9
100
AcDbPoint
 10
193749.080037
 20
125891.277219
 30
0.0
 50
-90.0
  0
POINT
  5
B10D
330
B284
100
AcDbEntity
  8
A733_ストリートファニチャ
 62
     7
370
     9
100
AcDbPoint
 10
193659.080037
 20
125891.277219
 30
0.0
 50
-90.0
  0
POINT
  5
B10E
330
B284
100
AcDbEntity
  8
A733_ストリートファニチャ
 62
     7
370
     9
100
AcDbPoint
 10
193659.080017
 20
126141.277219
 30
0.0
 50
-90.0
  0
POINT
  5
B10F
330
B284
100
AcDbEntity
  8
A733_ストリートファニチャ
 62
     7
370
     9
100
AcDbPoint
 10
193749.080037
 20
126141.277219
 30
0.0
 50
-90.0
  0
LINE
  5
B110
330
B284
100
AcDbEntity
  8
A733_ストリートファニチャ
 62
     7
370
     9
100
AcDbLine
 10
189016.824231
 20
128054.946738
 30
0.0
 11
189016.824231
 21
122698.946738
 31
0.0
  0
LINE
  5
B111
330
B284
100
AcDbEntity
  8
A733_ストリートファニチャ
 62
     7
370
     9
100
AcDbLine
 10
189081.824231
 20
128054.946738
 30
0.0
 11
189081.824231
 21
122698.946738
 31
0.0
  0
LINE
  5
B112
330
B284
100
AcDbEntity
  8
A733_ストリートファニチャ
 62
     7
370
     9
100
AcDbLine
 10
185572.824231
 20
122665.446738
 30
0.0
 11
185552.824231
 21
122665.446738
 31
0.0
  0
LINE
  5
B113
330
B284
100
AcDbEntity
  8
A733_ストリートファニチャ
 62
     7
370
     9
100
AcDbLine
 10
187372.824231
 20
122665.446738
 30
0.0
 11
187392.824231
 21
122665.446738
 31
0.0
  0
LINE
  5
B114
330
B284
100
AcDbEntity
  8
A733_ストリートファニチャ
 62
     7
370
     9
100
AcDbLine
 10
185552.824231
 20
122603.446738
 30
0.0
 11
185527.824231
 21
122603.446738
 31
0.0
  0
LINE
  5
B115
330
B284
100
AcDbEntity
  8
A733_ストリートファニチャ
 62
     7
370
     9
100
AcDbLine
 10
185527.824231
 20
122603.446738
 30
0.0
 11
185527.824231
 21
122623.446738
 31
0.0
  0
LINE
  5
B116
330
B284
100
AcDbEntity
  8
A733_ストリートファニチャ
 62
     7
370
     9
100
AcDbLine
 10
185552.824231
 20
122603.446738
 30
0.0
 11
185552.824231
 21
122633.446738
 31
0.0
  0
LINE
  5
B117
330
B284
100
AcDbEntity
  8
A733_ストリートファニチャ
 62
     7
370
     9
100
AcDbLine
 10
185572.824231
 20
122633.446738
 30
0.0
 11
185552.824231
 21
122633.446738
 31
0.0
  0
LINE
  5
B118
330
B284
100
AcDbEntity
  8
A733_ストリートファニチャ
 62
     7
370
     9
100
AcDbLine
 10
187392.824231
 20
122603.446738
 30
0.0
 11
187417.824231
 21
122603.446738
 31
0.0
  0
LINE
  5
B119
330
B284
100
AcDbEntity
  8
A733_ストリートファニチャ
 62
     7
370
     9
100
AcDbLine
 10
187417.824231
 20
122603.446738
 30
0.0
 11
187417.824231
 21
122623.446738
 31
0.0
  0
LINE
  5
B11A
330
B284
100
AcDbEntity
  8
A733_ストリートファニチャ
 62
     7
370
     9
100
AcDbLine
 10
187392.824231
 20
122603.446738
 30
0.0
 11
187392.824231
 21
122633.446738
 31
0.0
  0
LINE
  5
B11B
330
B284
100
AcDbEntity
  8
A733_ストリートファニチャ
 62
     7
370
     9
100
AcDbLine
 10
187372.824231
 20
122633.446738
 30
0.0
 11
187392.824231
 21
122633.446738
 31
0.0
  0
LINE
  5
B11C
330
B284
100
AcDbEntity
  8
A733_ストリートファニチャ
 62
     7
370
     9
100
AcDbLine
 10
187372.824231
 20
122665.446738
 30
0.0
 11
187372.824231
 21
122633.446738
 31
0.0
  0
LINE
  5
B11D
330
B284
100
AcDbEntity
  8
A733_ストリートファニチャ
 62
     7
370
     9
100
AcDbLine
 10
185572.824231
 20
122665.446738
 30
0.0
 11
185572.824231
 21
122633.446738
 31
0.0
  0
LINE
  5
B11E
330
B284
100
AcDbEntity
  8
A733_ストリートファニチャ
 62
     7
370
     9
100
AcDbLine
 10
185527.824231
 20
122616.446738
 30
0.0
 11
185107.824231
 21
122616.446738
 31
0.0
  0
LINE
  5
B11F
330
B284
100
AcDbEntity
  8
A733_ストリートファニチャ
 62
     7
370
     9
100
AcDbLine
 10
185162.824231
 20
121992.946738
 30
0.0
 11
185162.824231
 21
122616.446738
 31
0.0
  0
LINE
  5
B120
330
B284
100
AcDbEntity
  8
A733_ストリートファニチャ
 62
     7
370
     9
100
AcDbLine
 10
185127.824231
 20
121992.946738
 30
0.0
 11
185127.824231
 21
122616.446738
 31
0.0
  0
LINE
  5
B121
330
B284
100
AcDbEntity
  8
A733_ストリートファニチャ
 62
     7
370
     9
100
AcDbLine
 10
185127.824231
 20
122697.446738
 30
0.0
 11
185127.824231
 21
123463.946738
 31
0.0
  0
LINE
  5
B122
330
B284
100
AcDbEntity
  8
A733_ストリートファニチャ
 62
     7
370
     9
100
AcDbLine
 10
185162.824231
 20
122697.446738
 30
0.0
 11
185162.824231
 21
123498.946738
 31
0.0
  0
POINT
  5
B123
330
B284
100
AcDbEntity
  8
A733_ストリートファニチャ
 62
     7
370
     9
100
AcDbPoint
 10
187710.111532
 20
122616.446738
 30
0.0
 50
-90.0
  0
POINT
  5
B124
330
B284
100
AcDbEntity
  8
A733_ストリートファニチャ
 62
     7
370
     9
100
AcDbPoint
 10
187960.111532
 20
122616.446738
 30
0.0
 50
-90.0
  0
LINE
  5
B125
330
B284
100
AcDbEntity
  8
A733_ストリートファニチャ
 62
     7
370
     9
100
AcDbLine
 10
183856.324231
 20
125323.946738
 30
0.0
 11
183856.324231
 21
127506.946738
 31
0.0
  0
LINE
  5
B126
330
B284
100
AcDbEntity
  8
A733_ストリートファニチャ
 62
     7
370
     9
100
AcDbLine
 10
184492.824231
 20
127234.946738
 30
0.0
 11
184492.824231
 21
127506.946738
 31
0.0
  0
LINE
  5
B127
330
B284
100
AcDbEntity
  8
A733_ストリートファニチャ
 62
     7
370
     9
100
AcDbLine
 10
185712.824231
 20
127464.946738
 30
0.0
 11
185712.824231
 21
128019.946738
 31
0.0
  0
POINT
  5
B128
330
B284
100
AcDbEntity
  8
A733_ストリートファニチャ
 62
     7
370
     9
100
AcDbPoint
 10
186368.7194
 20
128054.946738
 30
0.0
 50
-90.0
  0
POINT
  5
B129
330
B284
100
AcDbEntity
  8
A733_ストリートファニチャ
 62
     7
370
     9
100
AcDbPoint
 10
186368.7194
 20
128019.946738
 30
0.0
 50
-90.0
  0
LINE
  5
B12A
330
B284
100
AcDbEntity
  8
A733_ストリートファニチャ
 62
     7
370
     9
100
AcDbLine
 10
182227.324231
 20
127864.946738
 30
0.0
 11
182227.324231
 21
125333.946738
 31
0.0
  0
LINE
  5
B12B
330
B284
100
AcDbEntity
  8
A733_ストリートファニチャ
 62
     7
370
     9
100
AcDbLine
 10
182187.324231
 20
127944.946738
 30
0.0
 11
182187.324231
 21
125303.946738
 31
0.0
  0
SOLID
  5
B12C
330
B284
100
AcDbEntity
  8
A733_ストリートファニチャ
 62
     7
370
     9
100
AcDbTrace
 10
184923.071055
 20
128327.446738
 30
0.0
 11
184968.824231
 21
128373.199913
 31
0.0
 12
184942.935883
 22
128353.335085
 32
0.0
 13
184942.935883
 23
128353.335085
 33
0.0
  0
SOLID
  5
B12D
330
B284
100
AcDbEntity
  8
A733_ストリートファニチャ
 62
     7
370
     9
100
AcDbTrace
 10
184923.071055
 20
128327.446738
 30
0.0
 11
184998.97185
 21
128385.687466
 31
0.0
 12
184968.824231
 22
128373.199913
 32
0.0
 13
184968.824231
 23
128373.199913
 33
0.0
  0
SOLID
  5
B12E
330
B284
100
AcDbEntity
  8
A733_ストリートファニチャ
 62
     7
370
     9
100
AcDbTrace
 10
184923.071055
 20
128327.446738
 30
0.0
 11
185031.324231
 21
128389.946738
 31
0.0
 12
184998.97185
 22
128385.687466
 32
0.0
 13
184998.97185
 23
128385.687466
 33
0.0
  0
SOLID
  5
B12F
330
B284
100
AcDbEntity
  8
A733_ストリートファニチャ
 62
     7
370
     9
100
AcDbTrace
 10
184923.071055
 20
128327.446738
 30
0.0
 11
187387.824231
 21
128389.946738
 31
0.0
 12
185031.324231
 22
128389.946738
 32
0.0
 13
185031.324231
 23
128389.946738
 33
0.0
  0
SOLID
  5
B130
330
B284
100
AcDbEntity
  8
A733_ストリートファニチャ
 62
     7
370
     9
100
AcDbTrace
 10
184923.071055
 20
128327.446738
 30
0.0
 11
187387.824231
 21
128214.946738
 31
0.0
 12
187387.824231
 22
128389.946738
 32
0.0
 13
187387.824231
 23
128389.946738
 33
0.0
  0
SOLID
  5
B131
330
B284
100
AcDbEntity
  8
A733_ストリートファニチャ
 62
     7
370
     9
100
AcDbTrace
 10
-187387.824231
 20
128214.946738
 30
0.0
 11
-184923.071055
 21
128327.446738
 31
0.0
 12
-187347.824231
 22
128214.946738
 32
0.0
 13
-187347.824231
 23
128214.946738
 33
0.0
210
0.0
220
0.0
230
-1.0
  0
SOLID
  5
B132
330
B284
100
AcDbEntity
  8
A733_ストリートファニチャ
 62
     7
370
     9
100
AcDbTrace
 10
184923.071055
 20
128327.446738
 30
0.0
 11
187347.824231
 21
128054.946738
 31
0.0
 12
187347.824231
 22
128214.946738
 32
0.0
 13
187347.824231
 23
128214.946738
 33
0.0
  0
SOLID
  5
B133
330
B284
100
AcDbEntity
  8
A733_ストリートファニチャ
 62
     7
370
     9
100
AcDbTrace
 10
-187347.824231
 20
128054.946738
 30
0.0
 11
-184923.071055
 21
128327.446738
 31
0.0
 12
-185622.824231
 22
128054.946738
 32
0.0
 13
-185622.824231
 23
128054.946738
 33
0.0
210
0.0
220
0.0
230
-1.0
  0
SOLID
  5
B134
330
B284
100
AcDbEntity
  8
A733_ストリートファニチャ
 62
     7
370
     9
100
AcDbTrace
 10
-184923.071055
 20
128327.446738
 30
0.0
 11
-185622.824231
 21
127541.946738
 31
0.0
 12
-185622.824231
 22
128054.946738
 32
0.0
 13
-185622.824231
 23
128054.946738
 33
0.0
210
0.0
220
0.0
230
-1.0
  0
SOLID
  5
B135
330
B284
100
AcDbEntity
  8
A733_ストリートファニチャ
 62
     7
370
     9
100
AcDbTrace
 10
185622.824231
 20
127541.946738
 30
0.0
 11
184923.071055
 21
128327.446738
 31
0.0
 12
185077.824231
 22
127541.946738
 32
0.0
 13
185077.824231
 23
127541.946738
 33
0.0
  0
SOLID
  5
B136
330
B284
100
AcDbEntity
  8
A733_ストリートファニチャ
 62
     7
370
     9
100
AcDbTrace
 10
-184923.071055
 20
128327.446738
 30
0.0
 11
-185077.824231
 21
127309.946738
 31
0.0
 12
-185077.824231
 22
127541.946738
 32
0.0
 13
-185077.824231
 23
127541.946738
 33
0.0
210
0.0
220
0.0
230
-1.0
  0
SOLID
  5
B137
330
B284
100
AcDbEntity
  8
A733_ストリートファニチャ
 62
     7
370
     9
100
AcDbTrace
 10
184923.071055
 20
128327.446738
 30
0.0
 11
184906.324231
 21
128264.946738
 31
0.0
 12
184910.583503
 22
128297.299118
 32
0.0
 13
184910.583503
 23
128297.299118
 33
0.0
  0
SOLID
  5
B138
330
B284
100
AcDbEntity
  8
A733_ストリートファニチャ
 62
     7
370
     9
100
AcDbTrace
 10
184906.324231
 20
127864.946738
 30
0.0
 11
184923.071055
 21
128327.446738
 31
0.0
 12
184906.324231
 22
128264.946738
 32
0.0
 13
184906.324231
 23
128264.946738
 33
0.0
  0
SOLID
  5
B139
330
B284
100
AcDbEntity
  8
A733_ストリートファニチャ
 62
     7
370
     9
100
AcDbTrace
 10
-185077.824231
 20
127309.946738
 30
0.0
 11
-184567.824231
 21
127541.946738
 31
0.0
 12
-184567.824231
 22
127309.946738
 32
0.0
 13
-184567.824231
 23
127309.946738
 33
0.0
210
0.0
220
0.0
230
-1.0
  0
SOLID
  5
B13A
330
B284
100
AcDbEntity
  8
A733_ストリートファニチャ
 62
     7
370
     9
100
AcDbTrace
 10
184923.071055
 20
128327.446738
 30
0.0
 11
185077.824231
 21
127309.946738
 31
0.0
 12
184906.324231
 22
127864.946738
 32
0.0
 13
184906.324231
 23
127864.946738
 33
0.0
  0
SOLID
  5
B13B
330
B284
100
AcDbEntity
  8
A733_ストリートファニチャ
 62
     7
370
     9
100
AcDbTrace
 10
184906.324231
 20
127864.946738
 30
0.0
 11
185077.824231
 21
127309.946738
 31
0.0
 12
184567.824231
 22
127541.946738
 32
0.0
 13
184567.824231
 23
127541.946738
 33
0.0
  0
SOLID
  5
B13C
330
B284
100
AcDbEntity
  8
A733_ストリートファニチャ
 62
     7
370
     9
100
AcDbTrace
 10
-184906.324231
 20
127864.946738
 30
0.0
 11
-182227.324231
 21
127864.946738
 31
0.0
 12
-184567.824231
 22
127541.946738
 32
0.0
 13
-184567.824231
 23
127541.946738
 33
0.0
210
0.0
220
0.0
230
-1.0
  0
SOLID
  5
B13D
330
B284
100
AcDbEntity
  8
A733_ストリートファニチャ
 62
     7
370
     9
100
AcDbTrace
 10
-182423.324231
 20
127541.946738
 30
0.0
 11
-182227.324231
 21
125333.946738
 31
0.0
 12
-182423.324231
 22
125333.946738
 32
0.0
 13
-182423.324231
 23
125333.946738
 33
0.0
210
0.0
220
0.0
230
-1.0
  0
SOLID
  5
B13E
330
B284
100
AcDbEntity
  8
A733_ストリートファニチャ
 62
     7
370
     9
100
AcDbTrace
 10
-182227.324231
 20
127864.946738
 30
0.0
 11
-184567.824231
 21
127541.946738
 31
0.0
 12
-182423.324231
 22
127541.946738
 32
0.0
 13
-182423.324231
 23
127541.946738
 33
0.0
210
0.0
220
0.0
230
-1.0
  0
SOLID
  5
B13F
330
B284
100
AcDbEntity
  8
A733_ストリートファニチャ
 62
     7
370
     9
100
AcDbTrace
 10
-182227.324231
 20
127864.946738
 30
0.0
 11
-182227.324231
 21
125333.946738
 31
0.0
 12
-182423.324231
 22
127541.946738
 32
0.0
 13
-182423.324231
 23
127541.946738
 33
0.0
210
0.0
220
0.0
230
-1.0
  0
LINE
  5
B140
330
B284
100
AcDbEntity
  8
A733_ストリートファニチャ
 62
     7
370
     9
100
AcDbLine
 10
189004.324231
 20
128054.946738
 30
0.0
 11
189004.324231
 21
122709.946738
 31
0.0
  0
LINE
  5
B141
330
B284
100
AcDbEntity
  8
A733_ストリートファニチャ
 62
     7
370
     9
100
AcDbLine
 10
185552.824231
 20
122722.946738
 30
0.0
 11
185527.824231
 21
122722.946738
 31
0.0
  0
LINE
  5
B142
330
B284
100
AcDbEntity
  8
A733_ストリートファニチャ
 62
     7
370
     9
100
AcDbLine
 10
185527.824231
 20
122722.946738
 30
0.0
 11
185527.824231
 21
122702.946738
 31
0.0
  0
LINE
  5
B143
330
B284
100
AcDbEntity
  8
A733_ストリートファニチャ
 62
     7
370
     9
100
AcDbLine
 10
185552.824231
 20
122722.946738
 30
0.0
 11
185552.824231
 21
122665.446738
 31
0.0
  0
LINE
  5
B144
330
B284
100
AcDbEntity
  8
A733_ストリートファニチャ
 62
     7
370
     9
100
AcDbLine
 10
187392.824231
 20
122722.946738
 30
0.0
 11
187417.824231
 21
122722.946738
 31
0.0
  0
LINE
  5
B145
330
B284
100
AcDbEntity
  8
A733_ストリートファニチャ
 62
     7
370
     9
100
AcDbLine
 10
187417.824231
 20
122722.946738
 30
0.0
 11
187417.824231
 21
122702.946738
 31
0.0
  0
LINE
  5
B146
330
B284
100
AcDbEntity
  8
A733_ストリートファニチャ
 62
     7
370
     9
100
AcDbLine
 10
187392.824231
 20
122722.946738
 30
0.0
 11
187392.824231
 21
122665.446738
 31
0.0
  0
LINE
  5
B147
330
B284
100
AcDbEntity
  8
A733_ストリートファニチャ
 62
     7
370
    13
100
AcDbLine
 10
185552.824231
 20
122722.946738
 30
0.0
 11
185552.824231
 21
123642.946738
 31
0.0
  0
ARC
  5
B148
330
B284
100
AcDbEntity
  8
A733_ストリートファニチャ
 62
     7
370
     9
100
AcDbCircle
 10
185552.824231
 20
122722.946738
 30
0.0
 40
920.0000000000017
100
AcDbArc
 50
0.0
 51
90.0
  0
LINE
  5
B149
330
B284
100
AcDbEntity
  8
A733_ストリートファニチャ
 62
     7
370
    13
100
AcDbLine
 10
187392.824231
 20
122722.946738
 30
0.0
 11
187392.824231
 21
123642.946738
 31
0.0
  0
ARC
  5
B14A
330
B284
100
AcDbEntity
  8
A733_ストリートファニチャ
 62
     7
370
     9
100
AcDbCircle
 10
187392.824231
 20
122722.946738
 30
0.0
 40
920.0000000000017
100
AcDbArc
 50
90.0
 51
180.0
  0
LINE
  5
B14B
330
B284
100
AcDbEntity
  8
A733_ストリートファニチャ
 62
     7
370
     9
100
AcDbLine
 10
186472.824231
 20
122615.946738
 30
0.0
 11
186472.824231
 21
122775.446738
 31
0.0
  0
LINE
  5
B14C
330
B284
100
AcDbEntity
  8
A733_ストリートファニチャ
 62
     7
370
     9
100
AcDbLine
 10
189004.324231
 20
122709.946738
 30
0.0
 11
187417.824231
 21
122709.946738
 31
0.0
  0
LINE
  5
B14D
330
B284
100
AcDbEntity
  8
A733_ストリートファニチャ
 62
     7
370
     9
100
AcDbLine
 10
189184.875455
 20
122697.446738
 30
0.0
 11
187417.824231
 21
122697.446738
 31
0.0
  0
LINE
  5
B14E
330
B284
100
AcDbEntity
  8
A733_ストリートファニチャ
 62
     7
370
     9
100
AcDbLine
 10
189184.875455
 20
122616.446738
 30
0.0
 11
187417.824231
 21
122616.446738
 31
0.0
  0
LINE
  5
B14F
330
B284
100
AcDbEntity
  8
A733_ストリートファニチャ
 62
     7
370
     9
100
AcDbLine
 10
185527.824231
 20
122697.446738
 30
0.0
 11
185107.824231
 21
122697.446738
 31
0.0
  0
LINE
  5
B150
330
B284
100
AcDbEntity
  8
A733_ストリートファニチャ
 62
     7
370
     9
100
AcDbLine
 10
185527.824231
 20
122709.946738
 30
0.0
 11
185127.824231
 21
122709.946738
 31
0.0
  0
POINT
  5
B151
330
B284
100
AcDbEntity
  8
A733_ストリートファニチャ
 62
     7
370
     9
100
AcDbPoint
 10
187710.111532
 20
122709.946738
 30
0.0
 50
-90.0
  0
POINT
  5
B152
330
B284
100
AcDbEntity
  8
A733_ストリートファニチャ
 62
     7
370
     9
100
AcDbPoint
 10
187960.111532
 20
122709.946738
 30
0.0
 50
-90.0
  0
SOLID
  5
B153
330
B284
100
AcDbEntity
  8
A733_ストリートファニチャ
 62
     7
370
     9
100
AcDbTrace
 10
189081.824231
 20
128054.946738
 30
0.0
 11
189016.824231
 21
128054.946738
 31
0.0
 12
189081.824231
 22
122689.446738
 32
0.0
 13
189016.824231
 23
122689.446738
 33
0.0
  0
SOLID
  5
B154
330
B284
100
AcDbEntity
  8
A733_ストリートファニチャ
 62
     7
370
     9
100
AcDbTrace
 10
185502.824231
 20
122624.446738
 30
0.0
 11
185107.824231
 21
122624.446738
 31
0.0
 12
185502.824231
 22
122689.446738
 32
0.0
 13
185107.824231
 23
122689.446738
 33
0.0
  0
SOLID
  5
B155
330
B284
100
AcDbEntity
  8
A733_ストリートファニチャ
 62
     7
370
     9
100
AcDbTrace
 10
-183786.324231
 20
127541.946738
 30
0.0
 11
-183636.324231
 21
127541.946738
 31
0.0
 12
-183786.324231
 22
125338.946738
 32
0.0
 13
-183636.324231
 23
125338.946738
 33
0.0
210
0.0
220
0.0
230
-1.0
  0
SOLID
  5
B156
330
B284
100
AcDbEntity
  8
A733_ストリートファニチャ
 62
     7
370
     9
100
AcDbTrace
 10
-183636.324231
 20
125488.946738
 30
0.0
 11
-182423.324231
 21
125488.946738
 31
0.0
 12
-183636.324231
 22
125338.946738
 32
0.0
 13
-182423.324231
 23
125338.946738
 33
0.0
210
0.0
220
0.0
230
-1.0
  0
SOLID
  5
B157
330
B284
100
AcDbEntity
  8
A733_ストリートファニチャ
 62
     7
370
     9
100
AcDbTrace
 10
182227.324231
 20
127864.946738
 30
0.0
 11
182187.324231
 21
127864.946738
 31
0.0
 12
182227.324231
 22
125333.861782
 32
0.0
 13
182187.324231
 23
125333.861782
 33
0.0
  0
SOLID
  5
B158
330
B284
100
AcDbEntity
  8
A733_ストリートファニチャ
 62
     7
370
     9
100
AcDbTrace
 10
-181967.324231
 20
124443.946738
 30
0.0
 11
-182227.324231
 21
124443.946738
 31
0.0
 12
-181967.324231
 22
124343.946738
 32
0.0
 13
-182227.324231
 23
124343.946738
 33
0.0
210
0.0
220
0.0
230
-1.0
  0
LWPOLYLINE
  5
B159
330
B284
100
AcDbEntity
  8
枠
  6
Continuous
 62
     7
370
     9
100
AcDbPolyline
 90
        5
 70
   129
 43
0.0
 10
171873.137725
 20
113369.154865
 10
171873.137725
 20
134369.154865
 10
201573.137725
 20
134369.154865
 10
201573.137725
 20
113369.154865
 10
171873.137725
 20
113369.154865
  0
LWPOLYLINE
  5
B15A
330
B284
100
AcDbEntity
  8
2階座席
  6
Continuous
 62
     7
370
    30
100
AcDbPolyline
 90
        5
 70
   129
 43
0.0
 10
172423.137725
 20
113919.154865
 10
172423.137725
 20
133819.154865
 10
201023.137725
 20
133819.154865
 10
201023.137725
 20
113919.154865
 10
172423.137725
 20
113919.154865
  0
LINE
  5
B15B
330
B284
100
AcDbEntity
  8
2階座席
  6
Continuous
 62
     7
370
    30
100
AcDbLine
 10
201023.137725
 20
114919.154865
 30
0.0
 11
172423.137725
 21
114919.154865
 31
0.0
  0
LINE
  5
B15C
330
B284
100
AcDbEntity
  8
2階座席
  6
Continuous
 62
     7
370
    30
100
AcDbLine
 10
195023.137725
 20
114919.154865
 30
0.0
 11
195023.137725
 21
113919.154865
 31
0.0
  0
MTEXT
  5
B15F
330
B284
100
AcDbEntity
  8
1階座席
  6
Continuous
 62
     7
370
     9
100
AcDbMText
 10
173238.843251
 20
114652.4348
 30
0.0
 40
375.0
 41
0.0
 71
     1
 72
     1
  1
\H1x;\W0.866667;\T1.325;名古屋市公会堂
  7
Style-HG明朝B
 73
     2
 44
0.6
  0
LINE
  5
B160
330
B284
100
AcDbEntity
  8
2階座席
  6
Continuous
 62
     7
370
    30
100
AcDbLine
 10
195023.137725
 20
114919.154865
 30
0.0
 11
195023.137725
 21
113919.154865
 31
0.0
  0
LINE
  5
B161
330
B284
100
AcDbEntity
  8
2階座席
  6
Continuous
 62
     7
370
    30
100
AcDbLine
 10
192023.137725
 20
114919.154865
 30
0.0
 11
192023.137725
 21
113919.154865
 31
0.0
  0
LINE
  5
B162
330
B284
100
AcDbEntity
  8
2階座席
  6
Continuous
 62
     7
370
    13
100
AcDbLine
 10
192023.137725
 20
114507.721385
 30
0.0
 11
195023.137725
 21
114507.721385
 31
0.0
  0
LINE
  5
B163
330
B284
100
AcDbEntity
  8
2階座席
  6
Continuous
 62
     7
370
    13
100
AcDbLine
 10
193523.137725
 20
114507.721385
 30
0.0
 11
193523.137725
 21
113919.154865
 31
0.0
  0
LINE
  5
B164
330
B284
100
AcDbEntity
  8
2階座席
  6
DGN Style 2
 62
     7
370
     9
100
AcDbLine
 10
192023.137725
 20
114265.040893
 30
0.0
 11
193523.137725
 21
114265.040893
 31
0.0
  0
TEXT
  5
B165
330
B284
100
AcDbEntity
  8
1階座席
  6
Continuous
 62
     7
370
     9
100
AcDbText
 10
193200.437723
 20
113975.443964
 30
0.0
 40
200.0
  1
㎡
  7
Style-HGSｺﾞｼｯｸM
 11
193200.437723
 21
114175.443964
 31
0.0
100
AcDbText
 73
     3
  0
LINE
  5
B166
330
B284
100
AcDbEntity
  8
2階座席
  6
Continuous
 62
     7
370
    30
100
AcDbLine
 10
191023.137725
 20
114919.154865
 30
0.0
 11
191023.137725
 21
113919.154865
 31
0.0
  0
LINE
  5
B167
330
B284
100
AcDbEntity
  8
2階座席
  6
DGN Style 2
 62
     7
370
     9
100
AcDbLine
 10
192023.137725
 20
114507.721385
 30
0.0
 11
191023.137725
 21
114507.721385
 31
0.0
  0
TEXT
  5
B168
330
B284
100
AcDbEntity
  8
1階座席
  6
Continuous
 62
     7
370
     9
100
AcDbText
 10
191663.248383
 20
114128.288072
 30
0.0
 40
175.0
  1
階
 41
1.142857
  7
Style-HGSｺﾞｼｯｸM
 11
191663.248383
 21
114303.288072
 31
0.0
100
AcDbText
 73
     3
  0
LINE
  5
B169
330
B284
100
AcDbEntity
  8
2階座席
  6
Continuous
 62
     7
370
    30
100
AcDbLine
 10
198523.137725
 20
115864.202145
 30
0.0
 11
198523.137725
 21
115614.202145
 31
0.0
  0
LINE
  5
B16A
330
B284
100
AcDbEntity
  8
2階座席
  6
Continuous
 62
     7
370
    30
100
AcDbLine
 10
188523.137725
 20
115864.202145
 30
0.0
 11
188523.137725
 21
115614.202145
 31
0.0
  0
LINE
  5
B16B
330
B284
100
AcDbEntity
  8
2階座席
  6
Continuous
 62
     7
370
    13
100
AcDbLine
 10
189523.137725
 20
115864.202145
 30
0.0
 11
189523.137725
 21
115614.202145
 31
0.0
  0
LINE
  5
B16C
330
B284
100
AcDbEntity
  8
2階座席
  6
Continuous
 62
     7
370
    13
100
AcDbLine
 10
190523.137725
 20
115864.202145
 30
0.0
 11
190523.137725
 21
115614.202145
 31
0.0
  0
LINE
  5
B16D
330
B284
100
AcDbEntity
  8
2階座席
  6
Continuous
 62
     7
370
    13
100
AcDbLine
 10
191523.137725
 20
115864.202145
 30
0.0
 11
191523.137725
 21
115614.202145
 31
0.0
  0
LINE
  5
B16E
330
B284
100
AcDbEntity
  8
2階座席
  6
Continuous
 62
     7
370
    13
100
AcDbLine
 10
192523.137725
 20
115864.202145
 30
0.0
 11
192523.137725
 21
115614.202145
 31
0.0
  0
LINE
  5
B16F
330
B284
100
AcDbEntity
  8
2階座席
  6
Continuous
 62
     7
370
    30
100
AcDbLine
 10
193523.137725
 20
115864.202145
 30
0.0
 11
193523.137725
 21
115614.202145
 31
0.0
  0
LINE
  5
B170
330
B284
100
AcDbEntity
  8
2階座席
  6
Continuous
 62
     7
370
    13
100
AcDbLine
 10
188523.137725
 20
115614.202145
 30
0.0
 11
198523.137725
 21
115614.202145
 31
0.0
  0
LINE
  5
B171
330
B284
100
AcDbEntity
  8
2階座席
  6
Continuous
 62
     7
370
    30
100
AcDbLine
 10
199523.137725
 20
116419.154865
 30
0.0
 11
199523.137725
 21
114969.154865
 31
0.0
  0
LINE
  5
B172
330
B284
100
AcDbEntity
  8
2階座席
  6
Continuous
 62
     7
370
    30
100
AcDbLine
 10
199523.137725
 20
116419.154865
 30
0.0
 11
200973.137725
 21
116419.154865
 31
0.0
  0
CIRCLE
  5
B173
330
B284
100
AcDbEntity
  8
2階座席
  6
Continuous
 62
     7
370
    30
100
AcDbCircle
 10
200273.137725
 20
115572.78983
 30
0.0
 40
443.7228623379668
  0
LWPOLYLINE
  5
B174
330
B284
100
AcDbEntity
  8
2階座席
  6
Continuous
 62
     7
370
    30
100
AcDbPolyline
 90
        3
 70
   128
 43
0.0
 10
200047.512725
 20
115190.712171
 10
200273.137725
 20
116016.512692
 10
200498.762725
 20
115190.712171
  0
LWPOLYLINE
  5
B175
330
B284
100
AcDbEntity
  8
2階座席
  6
Continuous
 62
     7
370
    30
100
AcDbPolyline
 90
        3
 70
   128
 43
0.0
 10
200047.512725
 20
115190.712171
 10
200273.137725
 20
115235.837171
 10
200498.762725
 20
115190.712171
  0
TEXT
  5
B176
330
B284
100
AcDbEntity
  8
1階座席
  6
Continuous
 62
     7
370
     9
100
AcDbText
 10
200167.135325
 20
116070.086095
 30
0.0
 40
250.0
  1
N
  7
Style-HGSｺﾞｼｯｸM
 11
200167.135325
 21
116320.086095
 31
0.0
100
AcDbText
 73
     3
  0
LINE
  5
B177
330
B284
100
AcDbEntity
  8
2階座席
  6
Continuous
 62
     7
370
    30
100
AcDbLine
 10
200973.137725
 20
116419.154865
 30
0.0
 11
200973.137725
 21
114969.154865
 31
0.0
  0
LINE
  5
B178
330
B284
100
AcDbEntity
  8
2階座席
  6
Continuous
 62
     7
370
    30
100
AcDbLine
 10
199523.137725
 20
114969.154865
 30
0.0
 11
200973.137725
 21
114969.154865
 31
0.0
  0
TEXT
  5
B179
330
B284
100
AcDbEntity
  8
1階座席
  6
Continuous
 62
     7
370
     9
100
AcDbText
 10
191129.576794
 20
114605.041405
 30
0.0
 40
175.0
  1
施設階
 41
1.142857
  7
Style-HGSｺﾞｼｯｸM
 11
191129.576794
 21
114780.041405
 31
0.0
100
AcDbText
 73
     3
  0
TEXT
  5
B17A
330
B284
100
AcDbEntity
  8
1階座席
  6
Continuous
 62
     7
370
    30
100
AcDbText
 10
188452.071791
 20
115924.604183
 30
0.0
 40
175.0
  1
0
 41
1.142857
  7
Style-HGSｺﾞｼｯｸM
 11
188452.071791
 21
116099.604183
 31
0.0
100
AcDbText
 73
     3
  0
TEXT
  5
B17B
330
B284
100
AcDbEntity
  8
1階座席
  6
Continuous
 62
     7
370
    30
100
AcDbText
 10
189444.352879
 20
115924.604183
 30
0.0
 40
175.0
  1
1
 41
1.142857
  7
Style-HGSｺﾞｼｯｸM
 11
189444.352879
 21
116099.604183
 31
0.0
100
AcDbText
 73
     3
  0
TEXT
  5
B17C
330
B284
100
AcDbEntity
  8
1階座席
  6
Continuous
 62
     7
370
    30
100
AcDbText
 10
190458.013361
 20
115924.604183
 30
0.0
 40
175.0
  1
2
 41
1.142857
  7
Style-HGSｺﾞｼｯｸM
 11
190458.013361
 21
116099.604183
 31
0.0
100
AcDbText
 73
     3
  0
TEXT
  5
B17D
330
B284
100
AcDbEntity
  8
1階座席
  6
Continuous
 62
     7
370
    30
100
AcDbText
 10
191453.944589
 20
115924.604183
 30
0.0
 40
175.0
  1
3
 41
1.142857
  7
Style-HGSｺﾞｼｯｸM
 11
191453.944589
 21
116099.604183
 31
0.0
100
AcDbText
 73
     3
  0
TEXT
  5
B17E
330
B284
100
AcDbEntity
  8
1階座席
  6
Continuous
 62
     7
370
    30
100
AcDbText
 10
192449.875816
 20
115924.604183
 30
0.0
 40
175.0
  1
4
 41
1.142857
  7
Style-HGSｺﾞｼｯｸM
 11
192449.875816
 21
116099.604183
 31
0.0
100
AcDbText
 73
     3
  0
TEXT
  5
B17F
330
B284
100
AcDbEntity
  8
1階座席
  6
Continuous
 62
     7
370
    30
100
AcDbText
 10
193445.807044
 20
115924.604183
 30
0.0
 40
175.0
  1
5
 41
1.142857
  7
Style-HGSｺﾞｼｯｸM
 11
193445.807044
 21
116099.604183
 31
0.0
100
AcDbText
 73
     3
  0
TEXT
  5
B180
330
B284
100
AcDbEntity
  8
1階座席
  6
Continuous
 62
     7
370
    30
100
AcDbText
 10
198357.160544
 20
115924.604183
 30
0.0
 40
175.0
  1
10m
 41
1.142857
  7
Style-HGSｺﾞｼｯｸM
 11
198357.160544
 21
116099.604183
 31
0.0
100
AcDbText
 73
     3
  0
LINE
  5
B181
330
B284
100
AcDbEntity
  8
2階座席
  6
Continuous
 62
     7
370
     9
100
AcDbLine
 10
189023.137725
 20
115739.202145
 30
0.0
 11
189023.137725
 21
115614.202145
 31
0.0
  0
LINE
  5
B182
330
B284
100
AcDbEntity
  8
2階座席
  6
Continuous
 62
     7
370
     9
100
AcDbLine
 10
190023.137725
 20
115739.202145
 30
0.0
 11
190023.137725
 21
115614.202145
 31
0.0
  0
LINE
  5
B183
330
B284
100
AcDbEntity
  8
2階座席
  6
Continuous
 62
     7
370
     9
100
AcDbLine
 10
191023.137725
 20
115739.202145
 30
0.0
 11
191023.137725
 21
115614.202145
 31
0.0
  0
LINE
  5
B184
330
B284
100
AcDbEntity
  8
2階座席
  6
Continuous
 62
     7
370
     9
100
AcDbLine
 10
192023.137725
 20
115739.202145
 30
0.0
 11
192023.137725
 21
115614.202145
 31
0.0
  0
LINE
  5
B185
330
B284
100
AcDbEntity
  8
2階座席
  6
Continuous
 62
     7
370
     9
100
AcDbLine
 10
193023.137725
 20
115739.202145
 30
0.0
 11
193023.137725
 21
115614.202145
 31
0.0
  0
SOLID
  5
B186
330
B284
100
AcDbEntity
  8
A733_ストリートファニチャ
 62
     7
370
     9
100
AcDbTrace
 10
-189184.875455
 20
128389.946738
 30
0.0
 11
-188687.824231
 21
128389.946738
 31
0.0
 12
-189184.875455
 22
128235.992819
 32
0.0
 13
-189184.875455
 23
128235.992819
 33
0.0
210
0.0
220
0.0
230
-1.0
  0
SOLID
  5
B189
330
B284
100
AcDbEntity
  8
A733_ストリートファニチャ
 62
     7
370
     9
100
AcDbTrace
 10
-189184.875455
 20
128205.726523
 30
0.0
 11
-188727.824231
 21
128054.946738
 31
0.0
 12
-189184.875455
 22
128054.946738
 32
0.0
 13
-189184.875455
 23
128054.946738
 33
0.0
210
0.0
220
0.0
230
-1.0
  0
SOLID
  5
B18C
330
B284
100
AcDbEntity
  8
A733_ストリートファニチャ
 62
     7
370
     9
100
AcDbTrace
 10
-189184.875455
 20
128214.946738
 30
0.0
 11
-188727.824231
 21
128214.946738
 31
0.0
 12
-189184.875455
 22
128205.726523
 32
0.0
 13
-188727.824231
 23
128054.946738
 33
0.0
210
0.0
220
0.0
230
-1.0
  0
SOLID
  5
B18F
330
B284
100
AcDbEntity
  8
A733_ストリートファニチャ
 62
     7
370
     9
100
AcDbTrace
 10
-189184.875455
 20
128235.992819
 30
0.0
 11
-188687.824231
 21
128389.946738
 31
0.0
 12
-189184.875455
 22
128224.262996
 32
0.0
 13
-189184.875455
 23
128224.262996
 33
0.0
210
0.0
220
0.0
230
-1.0
  0
SOLID
  5
B192
330
B284
100
AcDbEntity
  8
A733_ストリートファニチャ
 62
     7
370
     9
100
AcDbTrace
 10
-189184.875455
 20
128224.262996
 30
0.0
 11
-188687.824231
 21
128389.946738
 31
0.0
 12
-189184.875455
 22
128214.946738
 32
0.0
 13
-188727.824231
 23
128214.946738
 33
0.0
210
0.0
220
0.0
230
-1.0
  0
SOLID
  5
B195
330
B284
100
AcDbEntity
  8
A733_ストリートファニチャ
 62
     7
370
     9
100
AcDbTrace
 10
-189184.875455
 20
122689.446738
 30
0.0
 11
-187442.824231
 21
122689.446738
 31
0.0
 12
-189184.875455
 22
122624.446738
 32
0.0
 13
-187442.824231
 23
122624.446738
 33
0.0
210
0.0
220
0.0
230
-1.0
  0
SOLID
  5
B198
330
B284
100
AcDbEntity
  8
A733_ストリートファニチャ
 62
     7
370
     9
100
AcDbTrace
 10
181952.324231
 20
125541.946738
 30
0.0
 11
182187.324231
 21
125541.946738
 31
0.0
 12
181952.324231
 22
125741.946738
 32
0.0
 13
182187.324231
 23
125741.946738
 33
0.0
  0
LINE
  5
B19B
330
B284
100
AcDbEntity
  8
3-0通芯
  6
Continuous
 62
     7
370
    13
100
AcDbLine
 10
183856.324231
 20
119195.544806
 30
0.0
 11
185995.6279
 21
119195.544806
 31
0.0
  0
LWPOLYLINE
  5
B19C
330
B284
100
AcDbEntity
  8
3-0通芯
  6
Continuous
 62
     7
370
    13
100
AcDbPolyline
 90
        3
 70
   128
 43
0.0
 10
188704.324231
 20
119395.544806
 10
189004.324231
 20
119195.544806
 10
188704.324231
 20
118995.544806
  0
LWPOLYLINE
  5
B19D
330
B284
100
AcDbEntity
  8
3-0通芯
  6
Continuous
 62
     7
370
    13
100
AcDbPolyline
 90
        3
 70
   128
 43
0.0
 10
184156.324231
 20
119395.544806
 10
183856.324231
 20
119195.544806
 10
184156.324231
 20
118995.544806
  0
TEXT
  5
B19E
330
B284
100
AcDbEntity
  8
1階座席
  6
Continuous
 62
     7
370
    13
100
AcDbText
 10
186256.996944
 20
119095.690405
 30
0.0
 40
225.0
  1
5.1
  7
Style-HGSｺﾞｼｯｸM
 11
186256.996944
 21
119320.690405
 31
0.0
100
AcDbText
 73
     3
  0
LINE
  5
B19F
330
B284
100
AcDbEntity
  8
3-0通芯
  6
Continuous
 62
     7
370
    13
100
AcDbLine
 10
186795.238735
 20
119195.544806
 30
0.0
 11
189004.324231
 21
119195.544806
 31
0.0
  0
LINE
  5
B1A0
330
B284
100
AcDbEntity
  8
A221_記入文字
  6
Continuous
 62
     7
370
    13
100
AcDbLine
 10
188229.824231
 20
125888.946738
 30
0.0
 11
186429.824231
 21
125888.946738
 31
0.0
  0
LINE
  5
B1A1
330
B284
100
AcDbEntity
  8
A221_記入文字
  6
Continuous
 62
     7
370
    13
100
AcDbLine
 10
188229.824231
 20
124988.946738
 30
0.0
 11
186429.824231
 21
124988.946738
 31
0.0
  0
LINE
  5
B1A2
330
B284
100
AcDbEntity
  8
A221_記入文字
  6
Continuous
 62
     7
370
    13
100
AcDbLine
 10
186429.824231
 20
124988.946738
 30
0.0
 11
186429.824231
 21
125888.946738
 31
0.0
  0
LINE
  5
B1A3
330
B284
100
AcDbEntity
  8
A221_記入文字
  6
Continuous
 62
     7
370
    13
100
AcDbLine
 10
188229.824231
 20
124988.946738
 30
0.0
 11
188229.824231
 21
125888.946738
 31
0.0
  0
LINE
  5
B1A4
330
B284
100
AcDbEntity
  8
A822_別途：家具
  6
Continuous
 62
     7
370
     9
100
AcDbLine
 10
187994.824231
 20
126168.946738
 30
0.0
 11
187714.824231
 21
126168.946738
 31
0.0
  0
LINE
  5
B1A5
330
B284
100
AcDbEntity
  8
A822_別途：家具
  6
Continuous
 62
     7
370
    13
100
AcDbLine
 10
187704.824231
 20
126168.946738
 30
0.0
 11
187704.824231
 21
125888.946738
 31
0.0
  0
LINE
  5
B1A6
330
B284
100
AcDbEntity
  8
A822_別途：家具
  6
Continuous
 62
     7
370
    13
100
AcDbLine
 10
188004.824231
 20
126168.946738
 30
0.0
 11
188004.824231
 21
125888.946738
 31
0.0
  0
ELLIPSE
  5
B1A7
330
B284
100
AcDbEntity
  8
A822_別途：家具
  6
Continuous
 62
     7
370
    13
100
AcDbEllipse
 10
187854.824231
 20
126168.946738
 30
0.0
 11
-150.0000000000116
 21
0.0
 31
0.0
210
0.0
220
0.0
230
-1.0
 40
0.3333333333333075
 41
0.0
 42
3.141592653589793
  0
LINE
  5
B1A8
330
B284
100
AcDbEntity
  8
A822_別途：家具
  6
Continuous
 62
     7
370
     9
100
AcDbLine
 10
187994.824231
 20
126168.946738
 30
0.0
 11
187994.824231
 21
125888.946738
 31
0.0
  0
LINE
  5
B1A9
330
B284
100
AcDbEntity
  8
A822_別途：家具
  6
Continuous
 62
     7
370
     9
100
AcDbLine
 10
187714.824231
 20
126168.946738
 30
0.0
 11
187714.824231
 21
125888.946738
 31
0.0
  0
SPLINE
  5
B1AA
330
B284
100
AcDbEntity
  8
A822_別途：家具
  6
Continuous
 62
     7
370
     9
100
AcDbSpline
210
0.0
220
0.0
230
1.0
 70
     8
 71
     3
 72
    18
 73
    14
 74
     0
 42
0.0000000001
 43
0.0000000001
 40
0.0
 40
0.0
 40
0.0
 40
0.0
 40
0.125
 40
0.125
 40
0.25
 40
0.25
 40
0.5
 40
0.5
 40
0.75
 40
0.75
 40
0.875
 40
0.875
 40
1.0
 40
1.0
 40
1.0
 40
1.0
 10
187714.8242309422
 20
126168.9467375738
 30
0.0
 10
187714.8242309423
 20
126171.7863093351
 30
0.0
 10
187716.6022815406
 20
126175.658730015
 30
0.0
 10
187729.0112783287
 20
126185.4311227246
 30
0.0
 10
187739.0886441994
 20
126190.5240959977
 30
0.0
 10
187777.6465794838
 20
126203.3767410925
 30
0.0
 10
187814.3326865007
 20
126208.9467375738
 30
0.0
 10
187895.3157753836
 20
126208.9467375738
 30
0.0
 10
187932.0018824006
 20
126203.3767410925
 30
0.0
 10
187970.559817685
 20
126190.5240959977
 30
0.0
 10
187980.6371835558
 20
126185.4311227246
 30
0.0
 10
187993.0461803438
 20
126175.658730015
 30
0.0
 10
187994.8242309422
 20
126171.7863093351
 30
0.0
 10
187994.8242309422
 20
126168.9467375738
 30
0.0
  0
LINE
  5
B1AD
330
B284
100
AcDbEntity
  8
A822_別途：家具
  6
Continuous
 62
     7
370
     9
100
AcDbLine
 10
186944.824231
 20
126168.946738
 30
0.0
 11
186664.824231
 21
126168.946738
 31
0.0
  0
LINE
  5
B1AE
330
B284
100
AcDbEntity
  8
A822_別途：家具
  6
Continuous
 62
     7
370
    13
100
AcDbLine
 10
186654.824231
 20
126168.946738
 30
0.0
 11
186654.824231
 21
125888.946738
 31
0.0
  0
LINE
  5
B1AF
330
B284
100
AcDbEntity
  8
A822_別途：家具
  6
Continuous
 62
     7
370
    13
100
AcDbLine
 10
186954.824231
 20
126168.946738
 30
0.0
 11
186954.824231
 21
125888.946738
 31
0.0
  0
ELLIPSE
  5
B1B0
330
B284
100
AcDbEntity
  8
A822_別途：家具
  6
Continuous
 62
     7
370
    13
100
AcDbEllipse
 10
186804.824231
 20
126168.946738
 30
0.0
 11
-150.0000000000116
 21
0.0
 31
0.0
210
0.0
220
0.0
230
-1.0
 40
0.3333333333333075
 41
0.0
 42
3.141592653589793
  0
LINE
  5
B1B1
330
B284
100
AcDbEntity
  8
A822_別途：家具
  6
Continuous
 62
     7
370
     9
100
AcDbLine
 10
186944.824231
 20
126168.946738
 30
0.0
 11
186944.824231
 21
125888.946738
 31
0.0
  0
LINE
  5
B1B2
330
B284
100
AcDbEntity
  8
A822_別途：家具
  6
Continuous
 62
     7
370
     9
100
AcDbLine
 10
186664.824231
 20
126168.946738
 30
0.0
 11
186664.824231
 21
125888.946738
 31
0.0
  0
SPLINE
  5
B1B3
330
B284
100
AcDbEntity
  8
A822_別途：家具
  6
Continuous
 62
     7
370
     9
100
AcDbSpline
210
0.0
220
0.0
230
1.0
 70
     8
 71
     3
 72
    18
 73
    14
 74
     0
 42
0.0000000001
 43
0.0000000001
 40
0.0
 40
0.0
 40
0.0
 40
0.0
 40
0.125
 40
0.125
 40
0.25
 40
0.25
 40
0.5
 40
0.5
 40
0.75
 40
0.75
 40
0.875
 40
0.875
 40
1.0
 40
1.0
 40
1.0
 40
1.0
 10
186664.8242309422
 20
126168.9467375738
 30
0.0
 10
186664.8242309423
 20
126171.7863093351
 30
0.0
 10
186666.6022815406
 20
126175.658730015
 30
0.0
 10
186679.0112783287
 20
126185.4311227246
 30
0.0
 10
186689.0886441994
 20
126190.5240959977
 30
0.0
 10
186727.6465794838
 20
126203.3767410925
 30
0.0
 10
186764.3326865008
 20
126208.9467375738
 30
0.0
 10
186845.3157753836
 20
126208.9467375738
 30
0.0
 10
186882.0018824006
 20
126203.3767410925
 30
0.0
 10
186920.559817685
 20
126190.5240959977
 30
0.0
 10
186930.6371835558
 20
126185.4311227246
 30
0.0
 10
186943.0461803438
 20
126175.658730015
 30
0.0
 10
186944.8242309422
 20
126171.7863093351
 30
0.0
 10
186944.8242309422
 20
126168.9467375738
 30
0.0
  0
LINE
  5
B1B6
330
B284
100
AcDbEntity
  8
A822_別途：家具
  6
Continuous
 62
     7
370
     9
100
AcDbLine
 10
187994.824231
 20
124708.946738
 30
0.0
 11
187714.824231
 21
124708.946738
 31
0.0
  0
LINE
  5
B1B7
330
B284
100
AcDbEntity
  8
A822_別途：家具
  6
Continuous
 62
     7
370
    13
100
AcDbLine
 10
187704.824231
 20
124708.946738
 30
0.0
 11
187704.824231
 21
124988.946738
 31
0.0
  0
LINE
  5
B1B8
330
B284
100
AcDbEntity
  8
A822_別途：家具
  6
Continuous
 62
     7
370
    13
100
AcDbLine
 10
188004.824231
 20
124708.946738
 30
0.0
 11
188004.824231
 21
124988.946738
 31
0.0
  0
ELLIPSE
  5
B1B9
330
B284
100
AcDbEntity
  8
A822_別途：家具
  6
Continuous
 62
     7
370
    13
100
AcDbEllipse
 10
187854.824231
 20
124708.946738
 30
0.0
 11
-150.0000000000116
 21
0.0
 31
0.0
210
0.0
220
0.0
230
1.0
 40
0.3333333333333075
 41
0.0
 42
3.141592653589793
  0
LINE
  5
B1BA
330
B284
100
AcDbEntity
  8
A822_別途：家具
  6
Continuous
 62
     7
370
     9
100
AcDbLine
 10
187994.824231
 20
124708.946738
 30
0.0
 11
187994.824231
 21
124988.946738
 31
0.0
  0
LINE
  5
B1BB
330
B284
100
AcDbEntity
  8
A822_別途：家具
  6
Continuous
 62
     7
370
     9
100
AcDbLine
 10
187714.824231
 20
124708.946738
 30
0.0
 11
187714.824231
 21
124988.946738
 31
0.0
  0
SPLINE
  5
B1BC
330
B284
100
AcDbEntity
  8
A822_別途：家具
  6
Continuous
 62
     7
370
     9
100
AcDbSpline
210
0.0
220
0.0
230
1.0
 70
     8
 71
     3
 72
    18
 73
    14
 74
     0
 42
0.0000000001
 43
0.0000000001
 40
0.0
 40
0.0
 40
0.0
 40
0.0
 40
0.125
 40
0.125
 40
0.25
 40
0.25
 40
0.5
 40
0.5
 40
0.75
 40
0.75
 40
0.875
 40
0.875
 40
1.0
 40
1.0
 40
1.0
 40
1.0
 10
187714.8242309422
 20
124708.9467375738
 30
0.0
 10
187714.8242309423
 20
124706.1071658124
 30
0.0
 10
187716.6022815406
 20
124702.2347451326
 30
0.0
 10
187729.0112783287
 20
124692.4623524229
 30
0.0
 10
187739.0886441994
 20
124687.3693791499
 30
0.0
 10
187777.6465794838
 20
124674.516734055
 30
0.0
 10
187814.3326865007
 20
124668.9467375738
 30
0.0
 10
187895.3157753836
 20
124668.9467375738
 30
0.0
 10
187932.0018824006
 20
124674.516734055
 30
0.0
 10
187970.559817685
 20
124687.3693791499
 30
0.0
 10
187980.6371835558
 20
124692.4623524229
 30
0.0
 10
187993.0461803438
 20
124702.2347451326
 30
0.0
 10
187994.8242309422
 20
124706.1071658124
 30
0.0
 10
187994.8242309422
 20
124708.9467375738
 30
0.0
  0
LINE
  5
B1BF
330
B284
100
AcDbEntity
  8
A822_別途：家具
  6
Continuous
 62
     7
370
     9
100
AcDbLine
 10
186944.824231
 20
124708.946738
 30
0.0
 11
186664.824231
 21
124708.946738
 31
0.0
  0
LINE
  5
B1C0
330
B284
100
AcDbEntity
  8
A822_別途：家具
  6
Continuous
 62
     7
370
    13
100
AcDbLine
 10
186654.824231
 20
124708.946738
 30
0.0
 11
186654.824231
 21
124988.946738
 31
0.0
  0
LINE
  5
B1C1
330
B284
100
AcDbEntity
  8
A822_別途：家具
  6
Continuous
 62
     7
370
    13
100
AcDbLine
 10
186954.824231
 20
124708.946738
 30
0.0
 11
186954.824231
 21
124988.946738
 31
0.0
  0
ELLIPSE
  5
B1C2
330
B284
100
AcDbEntity
  8
A822_別途：家具
  6
Continuous
 62
     7
370
    13
100
AcDbEllipse
 10
186804.824231
 20
124708.946738
 30
0.0
 11
-150.0000000000116
 21
0.0
 31
0.0
210
0.0
220
0.0
230
1.0
 40
0.3333333333333075
 41
0.0
 42
3.141592653589793
  0
LINE
  5
B1C3
330
B284
100
AcDbEntity
  8
A822_別途：家具
  6
Continuous
 62
     7
370
     9
100
AcDbLine
 10
186944.824231
 20
124708.946738
 30
0.0
 11
186944.824231
 21
124988.946738
 31
0.0
  0
LINE
  5
B1C4
330
B284
100
AcDbEntity
  8
A822_別途：家具
  6
Continuous
 62
     7
370
     9
100
AcDbLine
 10
186664.824231
 20
124708.946738
 30
0.0
 11
186664.824231
 21
124988.946738
 31
0.0
  0
SPLINE
  5
B1C5
330
B284
100
AcDbEntity
  8
A822_別途：家具
  6
Continuous
 62
     7
370
     9
100
AcDbSpline
210
0.0
220
0.0
230
1.0
 70
     8
 71
     3
 72
    18
 73
    14
 74
     0
 42
0.0000000001
 43
0.0000000001
 40
0.0
 40
0.0
 40
0.0
 40
0.0
 40
0.125
 40
0.125
 40
0.25
 40
0.25
 40
0.5
 40
0.5
 40
0.75
 40
0.75
 40
0.875
 40
0.875
 40
1.0
 40
1.0
 40
1.0
 40
1.0
 10
186664.8242309422
 20
124708.9467375738
 30
0.0
 10
186664.8242309423
 20
124706.1071658124
 30
0.0
 10
186666.6022815406
 20
124702.2347451326
 30
0.0
 10
186679.0112783287
 20
124692.4623524229
 30
0.0
 10
186689.0886441994
 20
124687.3693791499
 30
0.0
 10
186727.6465794838
 20
124674.516734055
 30
0.0
 10
186764.3326865008
 20
124668.9467375738
 30
0.0
 10
186845.3157753836
 20
124668.9467375738
 30
0.0
 10
186882.0018824006
 20
124674.516734055
 30
0.0
 10
186920.559817685
 20
124687.3693791499
 30
0.0
 10
186930.6371835558
 20
124692.4623524229
 30
0.0
 10
186943.0461803438
 20
124702.2347451326
 30
0.0
 10
186944.8242309422
 20
124706.1071658124
 30
0.0
 10
186944.8242309422
 20
124708.9467375738
 30
0.0
  0
LINE
  5
B1C8
330
B284
100
AcDbEntity
  8
A221_記入文字
  6
Continuous
 62
     7
370
    13
100
AcDbLine
 10
186429.824231
 20
125888.946738
 30
0.0
 11
184629.824231
 21
125888.946738
 31
0.0
  0
LINE
  5
B1C9
330
B284
100
AcDbEntity
  8
A221_記入文字
  6
Continuous
 62
     7
370
    13
100
AcDbLine
 10
186429.824231
 20
124988.946738
 30
0.0
 11
184629.824231
 21
124988.946738
 31
0.0
  0
LINE
  5
B1CA
330
B284
100
AcDbEntity
  8
A221_記入文字
  6
Continuous
 62
     7
370
    13
100
AcDbLine
 10
184629.824231
 20
124988.946738
 30
0.0
 11
184629.824231
 21
125888.946738
 31
0.0
  0
LINE
  5
B1CB
330
B284
100
AcDbEntity
  8
A221_記入文字
  6
Continuous
 62
     7
370
    13
100
AcDbLine
 10
186429.824231
 20
124988.946738
 30
0.0
 11
186429.824231
 21
125888.946738
 31
0.0
  0
LINE
  5
B1CC
330
B284
100
AcDbEntity
  8
A822_別途：家具
  6
Continuous
 62
     7
370
     9
100
AcDbLine
 10
186194.824231
 20
126168.946738
 30
0.0
 11
185914.824231
 21
126168.946738
 31
0.0
  0
LINE
  5
B1CD
330
B284
100
AcDbEntity
  8
A822_別途：家具
  6
Continuous
 62
     7
370
    13
100
AcDbLine
 10
185904.824231
 20
126168.946738
 30
0.0
 11
185904.824231
 21
125888.946738
 31
0.0
  0
LINE
  5
B1CE
330
B284
100
AcDbEntity
  8
A822_別途：家具
  6
Continuous
 62
     7
370
    13
100
AcDbLine
 10
186204.824231
 20
126168.946738
 30
0.0
 11
186204.824231
 21
125888.946738
 31
0.0
  0
ELLIPSE
  5
B1CF
330
B284
100
AcDbEntity
  8
A822_別途：家具
  6
Continuous
 62
     7
370
    13
100
AcDbEllipse
 10
186054.824231
 20
126168.946738
 30
0.0
 11
-150.0000000000116
 21
0.0
 31
0.0
210
0.0
220
0.0
230
-1.0
 40
0.3333333333333075
 41
0.0
 42
3.141592653589793
  0
LINE
  5
B1D0
330
B284
100
AcDbEntity
  8
A822_別途：家具
  6
Continuous
 62
     7
370
     9
100
AcDbLine
 10
186194.824231
 20
126168.946738
 30
0.0
 11
186194.824231
 21
125888.946738
 31
0.0
  0
LINE
  5
B1D1
330
B284
100
AcDbEntity
  8
A822_別途：家具
  6
Continuous
 62
     7
370
     9
100
AcDbLine
 10
185914.824231
 20
126168.946738
 30
0.0
 11
185914.824231
 21
125888.946738
 31
0.0
  0
SPLINE
  5
B1D2
330
B284
100
AcDbEntity
  8
A822_別途：家具
  6
Continuous
 62
     7
370
     9
100
AcDbSpline
210
0.0
220
0.0
230
1.0
 70
     8
 71
     3
 72
    18
 73
    14
 74
     0
 42
0.0000000001
 43
0.0000000001
 40
0.0
 40
0.0
 40
0.0
 40
0.0
 40
0.125
 40
0.125
 40
0.25
 40
0.25
 40
0.5
 40
0.5
 40
0.75
 40
0.75
 40
0.875
 40
0.875
 40
1.0
 40
1.0
 40
1.0
 40
1.0
 10
185914.8242309422
 20
126168.9467375738
 30
0.0
 10
185914.8242309423
 20
126171.7863093351
 30
0.0
 10
185916.6022815406
 20
126175.658730015
 30
0.0
 10
185929.0112783287
 20
126185.4311227246
 30
0.0
 10
185939.0886441994
 20
126190.5240959977
 30
0.0
 10
185977.6465794838
 20
126203.3767410925
 30
0.0
 10
186014.3326865008
 20
126208.9467375738
 30
0.0
 10
186095.3157753836
 20
126208.9467375738
 30
0.0
 10
186132.0018824006
 20
126203.3767410925
 30
0.0
 10
186170.559817685
 20
126190.5240959977
 30
0.0
 10
186180.6371835558
 20
126185.4311227246
 30
0.0
 10
186193.0461803438
 20
126175.658730015
 30
0.0
 10
186194.8242309422
 20
126171.7863093351
 30
0.0
 10
186194.8242309422
 20
126168.9467375738
 30
0.0
  0
LINE
  5
B1D5
330
B284
100
AcDbEntity
  8
A822_別途：家具
  6
Continuous
 62
     7
370
     9
100
AcDbLine
 10
185144.824231
 20
126168.946738
 30
0.0
 11
184864.824231
 21
126168.946738
 31
0.0
  0
LINE
  5
B1D6
330
B284
100
AcDbEntity
  8
A822_別途：家具
  6
Continuous
 62
     7
370
    13
100
AcDbLine
 10
184854.824231
 20
126168.946738
 30
0.0
 11
184854.824231
 21
125888.946738
 31
0.0
  0
LINE
  5
B1D7
330
B284
100
AcDbEntity
  8
A822_別途：家具
  6
Continuous
 62
     7
370
    13
100
AcDbLine
 10
185154.824231
 20
126168.946738
 30
0.0
 11
185154.824231
 21
125888.946738
 31
0.0
  0
ELLIPSE
  5
B1D8
330
B284
100
AcDbEntity
  8
A822_別途：家具
  6
Continuous
 62
     7
370
    13
100
AcDbEllipse
 10
185004.824231
 20
126168.946738
 30
0.0
 11
-150.0000000000116
 21
0.0
 31
0.0
210
0.0
220
0.0
230
-1.0
 40
0.3333333333333075
 41
0.0
 42
3.141592653589793
  0
LINE
  5
B1D9
330
B284
100
AcDbEntity
  8
A822_別途：家具
  6
Continuous
 62
     7
370
     9
100
AcDbLine
 10
185144.824231
 20
126168.946738
 30
0.0
 11
185144.824231
 21
125888.946738
 31
0.0
  0
LINE
  5
B1DA
330
B284
100
AcDbEntity
  8
A822_別途：家具
  6
Continuous
 62
     7
370
     9
100
AcDbLine
 10
184864.824231
 20
126168.946738
 30
0.0
 11
184864.824231
 21
125888.946738
 31
0.0
  0
SPLINE
  5
B1DB
330
B284
100
AcDbEntity
  8
A822_別途：家具
  6
Continuous
 62
     7
370
     9
100
AcDbSpline
210
0.0
220
0.0
230
1.0
 70
     8
 71
     3
 72
    18
 73
    14
 74
     0
 42
0.0000000001
 43
0.0000000001
 40
0.0
 40
0.0
 40
0.0
 40
0.0
 40
0.125
 40
0.125
 40
0.25
 40
0.25
 40
0.5
 40
0.5
 40
0.75
 40
0.75
 40
0.875
 40
0.875
 40
1.0
 40
1.0
 40
1.0
 40
1.0
 10
184864.8242309422
 20
126168.9467375738
 30
0.0
 10
184864.8242309423
 20
126171.7863093351
 30
0.0
 10
184866.6022815406
 20
126175.658730015
 30
0.0
 10
184879.0112783287
 20
126185.4311227246
 30
0.0
 10
184889.0886441994
 20
126190.5240959977
 30
0.0
 10
184927.6465794838
 20
126203.3767410925
 30
0.0
 10
184964.3326865007
 20
126208.9467375738
 30
0.0
 10
185045.3157753836
 20
126208.9467375738
 30
0.0
 10
185082.0018824006
 20
126203.3767410925
 30
0.0
 10
185120.559817685
 20
126190.5240959977
 30
0.0
 10
185130.6371835558
 20
126185.4311227246
 30
0.0
 10
185143.0461803438
 20
126175.658730015
 30
0.0
 10
185144.8242309422
 20
126171.7863093351
 30
0.0
 10
185144.8242309422
 20
126168.9467375738
 30
0.0
  0
LINE
  5
B1DE
330
B284
100
AcDbEntity
  8
A822_別途：家具
  6
Continuous
 62
     7
370
     9
100
AcDbLine
 10
186194.824231
 20
124708.946738
 30
0.0
 11
185914.824231
 21
124708.946738
 31
0.0
  0
LINE
  5
B1DF
330
B284
100
AcDbEntity
  8
A822_別途：家具
  6
Continuous
 62
     7
370
    13
100
AcDbLine
 10
185904.824231
 20
124708.946738
 30
0.0
 11
185904.824231
 21
124988.946738
 31
0.0
  0
LINE
  5
B1E0
330
B284
100
AcDbEntity
  8
A822_別途：家具
  6
Continuous
 62
     7
370
    13
100
AcDbLine
 10
186204.824231
 20
124708.946738
 30
0.0
 11
186204.824231
 21
124988.946738
 31
0.0
  0
ELLIPSE
  5
B1E1
330
B284
100
AcDbEntity
  8
A822_別途：家具
  6
Continuous
 62
     7
370
    13
100
AcDbEllipse
 10
186054.824231
 20
124708.946738
 30
0.0
 11
-150.0000000000116
 21
0.0
 31
0.0
210
0.0
220
0.0
230
1.0
 40
0.3333333333333075
 41
0.0
 42
3.141592653589793
  0
LINE
  5
B1E2
330
B284
100
AcDbEntity
  8
A822_別途：家具
  6
Continuous
 62
     7
370
     9
100
AcDbLine
 10
186194.824231
 20
124708.946738
 30
0.0
 11
186194.824231
 21
124988.946738
 31
0.0
  0
LINE
  5
B1E3
330
B284
100
AcDbEntity
  8
A822_別途：家具
  6
Continuous
 62
     7
370
     9
100
AcDbLine
 10
185914.824231
 20
124708.946738
 30
0.0
 11
185914.824231
 21
124988.946738
 31
0.0
  0
SPLINE
  5
B1E4
330
B284
100
AcDbEntity
  8
A822_別途：家具
  6
Continuous
 62
     7
370
     9
100
AcDbSpline
210
0.0
220
0.0
230
1.0
 70
     8
 71
     3
 72
    18
 73
    14
 74
     0
 42
0.0000000001
 43
0.0000000001
 40
0.0
 40
0.0
 40
0.0
 40
0.0
 40
0.125
 40
0.125
 40
0.25
 40
0.25
 40
0.5
 40
0.5
 40
0.75
 40
0.75
 40
0.875
 40
0.875
 40
1.0
 40
1.0
 40
1.0
 40
1.0
 10
185914.8242309422
 20
124708.9467375738
 30
0.0
 10
185914.8242309423
 20
124706.1071658124
 30
0.0
 10
185916.6022815406
 20
124702.2347451326
 30
0.0
 10
185929.0112783287
 20
124692.4623524229
 30
0.0
 10
185939.0886441994
 20
124687.3693791499
 30
0.0
 10
185977.6465794838
 20
124674.516734055
 30
0.0
 10
186014.3326865008
 20
124668.9467375738
 30
0.0
 10
186095.3157753836
 20
124668.9467375738
 30
0.0
 10
186132.0018824006
 20
124674.516734055
 30
0.0
 10
186170.559817685
 20
124687.3693791499
 30
0.0
 10
186180.6371835558
 20
124692.4623524229
 30
0.0
 10
186193.0461803438
 20
124702.2347451326
 30
0.0
 10
186194.8242309422
 20
124706.1071658124
 30
0.0
 10
186194.8242309422
 20
124708.9467375738
 30
0.0
  0
LINE
  5
B1E7
330
B284
100
AcDbEntity
  8
A822_別途：家具
  6
Continuous
 62
     7
370
     9
100
AcDbLine
 10
185144.824231
 20
124708.946738
 30
0.0
 11
184864.824231
 21
124708.946738
 31
0.0
  0
LINE
  5
B1E8
330
B284
100
AcDbEntity
  8
A822_別途：家具
  6
Continuous
 62
     7
370
    13
100
AcDbLine
 10
184854.824231
 20
124708.946738
 30
0.0
 11
184854.824231
 21
124988.946738
 31
0.0
  0
LINE
  5
B1E9
330
B284
100
AcDbEntity
  8
A822_別途：家具
  6
Continuous
 62
     7
370
    13
100
AcDbLine
 10
185154.824231
 20
124708.946738
 30
0.0
 11
185154.824231
 21
124988.946738
 31
0.0
  0
ELLIPSE
  5
B1EA
330
B284
100
AcDbEntity
  8
A822_別途：家具
  6
Continuous
 62
     7
370
    13
100
AcDbEllipse
 10
185004.824231
 20
124708.946738
 30
0.0
 11
-150.0000000000116
 21
0.0
 31
0.0
210
0.0
220
0.0
230
1.0
 40
0.3333333333333075
 41
0.0
 42
3.141592653589793
  0
LINE
  5
B1EB
330
B284
100
AcDbEntity
  8
A822_別途：家具
  6
Continuous
 62
     7
370
     9
100
AcDbLine
 10
185144.824231
 20
124708.946738
 30
0.0
 11
185144.824231
 21
124988.946738
 31
0.0
  0
LINE
  5
B1EC
330
B284
100
AcDbEntity
  8
A822_別途：家具
  6
Continuous
 62
     7
370
     9
100
AcDbLine
 10
184864.824231
 20
124708.946738
 30
0.0
 11
184864.824231
 21
124988.946738
 31
0.0
  0
SPLINE
  5
B1ED
330
B284
100
AcDbEntity
  8
A822_別途：家具
  6
Continuous
 62
     7
370
     9
100
AcDbSpline
210
0.0
220
0.0
230
1.0
 70
     8
 71
     3
 72
    18
 73
    14
 74
     0
 42
0.0000000001
 43
0.0000000001
 40
0.0
 40
0.0
 40
0.0
 40
0.0
 40
0.125
 40
0.125
 40
0.25
 40
0.25
 40
0.5
 40
0.5
 40
0.75
 40
0.75
 40
0.875
 40
0.875
 40
1.0
 40
1.0
 40
1.0
 40
1.0
 10
184864.8242309422
 20
124708.9467375738
 30
0.0
 10
184864.8242309423
 20
124706.1071658124
 30
0.0
 10
184866.6022815406
 20
124702.2347451326
 30
0.0
 10
184879.0112783287
 20
124692.4623524229
 30
0.0
 10
184889.0886441994
 20
124687.3693791499
 30
0.0
 10
184927.6465794838
 20
124674.516734055
 30
0.0
 10
184964.3326865007
 20
124668.9467375738
 30
0.0
 10
185045.3157753836
 20
124668.9467375738
 30
0.0
 10
185082.0018824006
 20
124674.516734055
 30
0.0
 10
185120.559817685
 20
124687.3693791499
 30
0.0
 10
185130.6371835558
 20
124692.4623524229
 30
0.0
 10
185143.0461803438
 20
124702.2347451326
 30
0.0
 10
185144.8242309422
 20
124706.1071658124
 30
0.0
 10
185144.8242309422
 20
124708.9467375738
 30
0.0
  0
ENDSEC
  0
SECTION
  2
OBJECTS
  0
DICTIONARY
  5
B289
330
0
100
AcDbDictionary
281
     1
  3
ACAD_COLOR
350
B2C5
  3
ACAD_GROUP
350
B2B2
  3
ACAD_LAYOUT
350
B296
  3
ACAD_MATERIAL
350
B28B
  3
ACAD_MLEADERSTYLE
350
B2C8
  3
ACAD_MLINESTYLE
350
B2B3
  3
ACAD_PLOTSETTINGS
350
B2B4
  3
ACAD_PLOTSTYLENAME
350
B288
  3
ACAD_SCALELIST
350
B2C6
  3
ACAD_TABLESTYLE
350
B2C7
  3
ACAD_VISUALSTYLE
350
B2AC
  3
ACDB_RECOMPOSE_DATA
350
B2F1
  3
AcDbVariableDictionary
350
B2EA
  3
MicroStation
350
B2E0
  0
DICTIONARY
  5
B29F
330
B29E
100
AcDbDictionary
280
     1
281
     1
  3
ACAD_LAYERSTATES
360
B2A0
  0
DICTIONARY
  5
B2C5
102
{ACAD_REACTORS
330
B289
102
}
330
B289
100
AcDbDictionary
281
     1
  0
DICTIONARY
  5
B2B2
102
{ACAD_REACTORS
330
B289
102
}
330
B289
100
AcDbDictionary
281
     1
  0
DICTIONARY
  5
B296
102
{ACAD_REACTORS
330
B289
102
}
330
B289
100
AcDbDictionary
281
     1
  3
Layout1
350
B29B
  3
Model
350
B295
  0
DICTIONARY
  5
B28B
102
{ACAD_REACTORS
330
B289
102
}
330
B289
100
AcDbDictionary
281
     1
  3
ByBlock
350
B2BD
  3
ByLayer
350
B2B5
  3
Global
350
B28A
  0
DICTIONARY
  5
B2C8
102
{ACAD_REACTORS
330
B289
102
}
330
B289
100
AcDbDictionary
281
     1
  0
DICTIONARY
  5
B2B3
102
{ACAD_REACTORS
330
B289
102
}
330
B289
100
AcDbDictionary
281
     1
  3
Standard
350
B2C9
  0
DICTIONARY
  5
B2B4
102
{ACAD_REACTORS
330
B289
102
}
330
B289
100
AcDbDictionary
281
     1
  0
ACDBDICTIONARYWDFLT
  5
B288
102
{ACAD_REACTORS
330
B289
102
}
330
B289
100
AcDbDictionary
281
     1
  3
Normal
350
B287
100
AcDbDictionaryWithDefault
340
B287
  0
DICTIONARY
  5
B2C6
102
{ACAD_REACTORS
330
B289
102
}
330
B289
100
AcDbDictionary
281
     1
  3
A0
350
B2CD
  3
A1
350
B2CE
  3
A2
350
B2CF
  3
A3
350
B2D0
  3
A4
350
B2D1
  3
A5
350
B2D2
  3
A6
350
B2D3
  3
A7
350
B2D4
  3
A8
350
B2D5
  3
A9
350
B2D6
  3
B0
350
B2D7
  3
B1
350
B2D8
  3
B2
350
B2D9
  3
B3
350
B2DA
  3
B4
350
B2DB
  3
B5
350
B2DC
  3
B6
350
B2DD
  0
DICTIONARY
  5
B2C7
102
{ACAD_REACTORS
330
B289
102
}
330
B289
100
AcDbDictionary
281
     1
  3
Standard
350
B2CA
  0
DICTIONARY
  5
B2AC
102
{ACAD_REACTORS
330
B289
102
}
330
B289
100
AcDbDictionary
281
     1
  3
2dWireframe
350
B2AB
  3
3dWireframe
350
B2CC
  3
Realistic
350
B2CB
  0
XRECORD
  5
B2F1
102
{ACAD_REACTORS
330
B289
102
}
330
B289
100
AcDbXrecord
280
     1
 90
        1
330
B2CA
  0
DICTIONARY
  5
B2EA
102
{ACAD_REACTORS
330
B289
102
}
330
B289
100
AcDbDictionary
281
     1
  3
CANNOSCALE
350
B2ED
  3
CMLEADERSTYLE
350
B2EC
  3
CTABLESTYLE
350
B2EB
  0
DICTIONARY
  5
B2E0
102
{ACAD_REACTORS
330
B289
102
}
330
B289
100
AcDbDictionary
281
     1
  3
Header
350
5B
  0
DICTIONARY
  5
B2A0
102
{ACAD_REACTORS
330
B29F
102
}
330
B29F
100
AcDbDictionary
281
     1
  0
LAYOUT
  5
B29B
102
{ACAD_XDICTIONARY
360
B29C
102
}
102
{ACAD_REACTORS
330
B296
102
}
330
B296
100
AcDbPlotSettings
  1

  2
none_device
  4
ISO_A4_(210.00_x_297.00_MM)
  6

 40
7.5
 41
20.0
 42
7.5
 43
20.0
 44
210.0
 45
297.0
 46
0.0
 47
0.0
 48
0.0
 49
0.0
140
0.0
141
0.0
142
1.0
143
1.0
 70
   688
 72
     1
 73
     1
 74
     5
  7

 75
    16
147
1.0
 76
     0
 77
     2
 78
   300
148
0.0
149
0.0
100
AcDbLayout
  1
Layout1
 70
     1
 71
     1
 10
-20.0
 20
-7.5
 11
277.0
 21
202.5
 12
0.0
 22
0.0
 32
0.0
 14
25.7
 24
19.5
 34
0.0
 15
231.3
 25
175.5
 35
0.0
146
0.0
 13
0.0
 23
0.0
 33
0.0
 16
1.0
 26
0.0
 36
0.0
 17
0.0
 27
1.0
 37
0.0
 76
     0
330
B298
1001
ACAD_PSEXT
1000
None
1000
None
1000
Not applicable
1000
The layout will not be plotted unless a new plotter configuration name is selected.
1070
     0
  0
LAYOUT
  5
B295
102
{ACAD_REACTORS
330
B296
102
}
330
B296
100
AcDbPlotSettings
  1

  2
none_device
  4
ISO_A4_(210.00_x_297.00_MM)
  6

 40
7.5
 41
20.0
 42
7.5
 43
20.0
 44
210.0
 45
297.0
 46
11.549999
 47
-13.65
 48
0.0
 49
0.0
140
0.0
141
0.0
142
1.0
143
8.704085
 70
 11952
 72
     1
 73
     0
 74
     0
  7

 75
     0
147
0.114889
 76
     0
 77
     2
 78
   300
148
0.0
149
0.0
100
AcDbLayout
  1
Model
 70
     1
 71
     0
 10
0.0
 20
0.0
 11
12.0
 21
9.0
 12
0.0
 22
0.0
 32
0.0
 14
0.0
 24
0.0
 34
0.0
 15
0.0
 25
0.0
 35
0.0
146
0.0
 13
0.0
 23
0.0
 33
0.0
 16
1.0
 26
0.0
 36
0.0
 17
0.0
 27
1.0
 37
0.0
 76
     0
330
B284
1001
ACAD_PSEXT
1000
None
1000
None
1000
Not applicable
1000
The layout will not be plotted unless a new plotter configuration name is selected.
1070
     0
  0
MATERIAL
  5
B2BD
102
{ACAD_XDICTIONARY
360
B2BE
102
}
102
{ACAD_REACTORS
330
B28B
102
}
330
B28B
100
AcDbMaterial
  1
ByBlock
 72
     0
 43
0.00082
 43
0.0
 43
0.0
 43
0.0
 43
0.0
 43
0.00082
 43
0.0
 43
0.0
 43
0.0
 43
0.0
 43
1.0
 43
0.0
 43
0.0
 43
0.0
 43
0.0
 43
1.0
 77
     0
 47
0.00082
 47
0.0
 47
0.0
 47
0.0
 47
0.0
 47
0.00082
 47
0.0
 47
0.0
 47
0.0
 47
0.0
 47
1.0
 47
0.0
 47
0.0
 47
0.0
 47
0.0
 47
1.0
171
     0
 49
0.00082
 49
0.0
 49
0.0
 49
0.0
 49
0.0
 49
0.00082
 49
0.0
 49
0.0
 49
0.0
 49
0.0
 49
1.0
 49
0.0
 49
0.0
 49
0.0
 49
0.0
 49
1.0
175
     0
142
0.00082
142
0.0
142
0.0
142
0.0
142
0.0
142
0.00082
142
0.0
142
0.0
142
0.0
142
0.0
142
1.0
142
0.0
142
0.0
142
0.0
142
0.0
142
1.0
179
     0
144
0.00082
144
0.0
144
0.0
144
0.0
144
0.0
144
0.00082
144
0.0
144
0.0
144
0.0
144
0.0
144
1.0
144
0.0
144
0.0
144
0.0
144
0.0
144
1.0
147
0.00082
147
0.0
147
0.0
147
0.0
147
0.0
147
0.00082
147
0.0
147
0.0
147
0.0
147
0.0
147
1.0
147
0.0
147
0.0
147
0.0
147
0.0
147
1.0
  0
MATERIAL
  5
B2B5
102
{ACAD_XDICTIONARY
360
B2B6
102
}
102
{ACAD_REACTORS
330
B28B
102
}
330
B28B
100
AcDbMaterial
  1
ByLayer
 72
     0
 43
0.00082
 43
0.0
 43
0.0
 43
0.0
 43
0.0
 43
0.00082
 43
0.0
 43
0.0
 43
0.0
 43
0.0
 43
1.0
 43
0.0
 43
0.0
 43
0.0
 43
0.0
 43
1.0
 77
     0
 47
0.00082
 47
0.0
 47
0.0
 47
0.0
 47
0.0
 47
0.00082
 47
0.0
 47
0.0
 47
0.0
 47
0.0
 47
1.0
 47
0.0
 47
0.0
 47
0.0
 47
0.0
 47
1.0
171
     0
 49
0.00082
 49
0.0
 49
0.0
 49
0.0
 49
0.0
 49
0.00082
 49
0.0
 49
0.0
 49
0.0
 49
0.0
 49
1.0
 49
0.0
 49
0.0
 49
0.0
 49
0.0
 49
1.0
175
     0
142
0.00082
142
0.0
142
0.0
142
0.0
142
0.0
142
0.00082
142
0.0
142
0.0
142
0.0
142
0.0
142
1.0
142
0.0
142
0.0
142
0.0
142
0.0
142
1.0
179
     0
144
0.00082
144
0.0
144
0.0
144
0.0
144
0.0
144
0.00082
144
0.0
144
0.0
144
0.0
144
0.0
144
1.0
144
0.0
144
0.0
144
0.0
144
0.0
144
1.0
147
0.00082
147
0.0
147
0.0
147
0.0
147
0.0
147
0.00082
147
0.0
147
0.0
147
0.0
147
0.0
147
1.0
147
0.0
147
0.0
147
0.0
147
0.0
147
1.0
  0
MATERIAL
  5
B28A
102
{ACAD_XDICTIONARY
360
B28C
102
}
102
{ACAD_REACTORS
330
B28B
102
}
330
B28B
100
AcDbMaterial
  1
Global
 72
     0
 43
0.00082
 43
0.0
 43
0.0
 43
0.0
 43
0.0
 43
0.00082
 43
0.0
 43
0.0
 43
0.0
 43
0.0
 43
1.0
 43
0.0
 43
0.0
 43
0.0
 43
0.0
 43
1.0
 77
     0
 47
0.00082
 47
0.0
 47
0.0
 47
0.0
 47
0.0
 47
0.00082
 47
0.0
 47
0.0
 47
0.0
 47
0.0
 47
1.0
 47
0.0
 47
0.0
 47
0.0
 47
0.0
 47
1.0
171
     0
 49
0.00082
 49
0.0
 49
0.0
 49
0.0
 49
0.0
 49
0.00082
 49
0.0
 49
0.0
 49
0.0
 49
0.0
 49
1.0
 49
0.0
 49
0.0
 49
0.0
 49
0.0
 49
1.0
175
     0
142
0.00082
142
0.0
142
0.0
142
0.0
142
0.0
142
0.00082
142
0.0
142
0.0
142
0.0
142
0.0
142
1.0
142
0.0
142
0.0
142
0.0
142
0.0
142
1.0
179
     0
144
0.00082
144
0.0
144
0.0
144
0.0
144
0.0
144
0.00082
144
0.0
144
0.0
144
0.0
144
0.0
144
1.0
144
0.0
144
0.0
144
0.0
144
0.0
144
1.0
147
0.00082
147
0.0
147
0.0
147
0.0
147
0.0
147
0.00082
147
0.0
147
0.0
147
0.0
147
0.0
147
1.0
147
0.0
147
0.0
147
0.0
147
0.0
147
1.0
  0
MLINESTYLE
  5
B2C9
102
{ACAD_REACTORS
330
B2B3
102
}
330
B2B3
100
AcDbMlineStyle
  2
STANDARD
 70
     0
  3

 62
   256
 51
90.0
 52
90.0
 71
     2
 49
0.5
 62
   256
  6
BYLAYER
 49
-0.5
 62
   256
  6
BYLAYER
  0
ACDBPLACEHOLDER
  5
B287
102
{ACAD_REACTORS
330
B288
102
}
330
B288
  0
SCALE
  5
B2CD
102
{ACAD_REACTORS
330
B2C6
102
}
330
B2C6
100
AcDbScale
 70
     0
300
1:1
140
1.0
141
1.0
290
     1
  0
SCALE
  5
B2CE
102
{ACAD_REACTORS
330
B2C6
102
}
330
B2C6
100
AcDbScale
 70
     0
300
1:2
140
1.0
141
2.0
290
     0
  0
SCALE
  5
B2CF
102
{ACAD_REACTORS
330
B2C6
102
}
330
B2C6
100
AcDbScale
 70
     0
300
1:4
140
1.0
141
4.0
290
     0
  0
SCALE
  5
B2D0
102
{ACAD_REACTORS
330
B2C6
102
}
330
B2C6
100
AcDbScale
 70
     0
300
1:5
140
1.0
141
5.0
290
     0
  0
SCALE
  5
B2D1
102
{ACAD_REACTORS
330
B2C6
102
}
330
B2C6
100
AcDbScale
 70
     0
300
1:8
140
1.0
141
8.0
290
     0
  0
SCALE
  5
B2D2
102
{ACAD_REACTORS
330
B2C6
102
}
330
B2C6
100
AcDbScale
 70
     0
300
1:10
140
1.0
141
10.0
290
     0
  0
SCALE
  5
B2D3
102
{ACAD_REACTORS
330
B2C6
102
}
330
B2C6
100
AcDbScale
 70
     0
300
1:16
140
1.0
141
16.0
290
     0
  0
SCALE
  5
B2D4
102
{ACAD_REACTORS
330
B2C6
102
}
330
B2C6
100
AcDbScale
 70
     0
300
1:20
140
1.0
141
20.0
290
     0
  0
SCALE
  5
B2D5
102
{ACAD_REACTORS
330
B2C6
102
}
330
B2C6
100
AcDbScale
 70
     0
300
1:30
140
1.0
141
30.0
290
     0
  0
SCALE
  5
B2D6
102
{ACAD_REACTORS
330
B2C6
102
}
330
B2C6
100
AcDbScale
 70
     0
300
1:40
140
1.0
141
40.0
290
     0
  0
SCALE
  5
B2D7
102
{ACAD_REACTORS
330
B2C6
102
}
330
B2C6
100
AcDbScale
 70
     0
300
1:50
140
1.0
141
50.0
290
     0
  0
SCALE
  5
B2D8
102
{ACAD_REACTORS
330
B2C6
102
}
330
B2C6
100
AcDbScale
 70
     0
300
1:100
140
1.0
141
100.0
290
     0
  0
SCALE
  5
B2D9
102
{ACAD_REACTORS
330
B2C6
102
}
330
B2C6
100
AcDbScale
 70
     0
300
2:1
140
2.0
141
1.0
290
     0
  0
SCALE
  5
B2DA
102
{ACAD_REACTORS
330
B2C6
102
}
330
B2C6
100
AcDbScale
 70
     0
300
4:1
140
4.0
141
1.0
290
     0
  0
SCALE
  5
B2DB
102
{ACAD_REACTORS
330
B2C6
102
}
330
B2C6
100
AcDbScale
 70
     0
300
8:1
140
8.0
141
1.0
290
     0
  0
SCALE
  5
B2DC
102
{ACAD_REACTORS
330
B2C6
102
}
330
B2C6
100
AcDbScale
 70
     0
300
10:1
140
10.0
141
1.0
290
     0
  0
SCALE
  5
B2DD
102
{ACAD_REACTORS
330
B2C6
102
}
330
B2C6
100
AcDbScale
 70
     0
300
100:1
140
100.0
141
1.0
290
     0
  0
TABLESTYLE
  5
B2CA
102
{ACAD_XDICTIONARY
360
B2EF
102
}
102
{ACAD_REACTORS
330
B2C7
102
}
330
B2C7
100
AcDbTableStyle
  3
Standard
 70
     0
 71
     0
 40
1.5
 41
1.5
280
     0
281
     0
  7
Standard
140
4.5
170
     2
 62
     0
 63
     7
283
     0
274
    -2
284
     1
 64
     0
275
    -2
285
     1
 65
     0
276
    -2
286
     1
 66
     0
277
    -2
287
     1
 67
     0
278
    -2
288
     1
 68
     0
279
    -2
289
     1
 69
     0
  7
Standard
140
6.0
170
     5
 62
     0
 63
     7
283
     0
274
    -2
284
     1
 64
     0
275
    -2
285
     1
 65
     0
276
    -2
286
     1
 66
     0
277
    -2
287
     1
 67
     0
278
    -2
288
     1
 68
     0
279
    -2
289
     1
 69
     0
  7
Standard
140
4.5
170
     5
 62
     0
 63
     7
283
     0
274
    -2
284
     1
 64
     0
275
    -2
285
     1
 65
     0
276
    -2
286
     1
 66
     0
277
    -2
287
     1
 67
     0
278
    -2
288
     1
 68
     0
279
    -2
289
     1
 69
     0
  0
VISUALSTYLE
  5
B2AB
102
{ACAD_XDICTIONARY
360
B2F3
102
}
102
{ACAD_REACTORS
330
B2AC
102
}
330
B2AC
100
AcDbVisualStyle
  2
2dWireframe
 70
     4
 71
     0
 72
     2
 73
     0
 90
        0
 40
-0.6
 41
-30.0
 62
     5
 63
     7
421
 16777215
 74
     1
 91
        4
 64
     7
 65
   257
 75
     1
175
     1
 42
1.0
 92
        0
 66
   257
 43
1.0
 76
     1
 77
     6
 78
     2
 67
     7
 79
     5
170
     0
171
     0
290
     0
174
     0
 93
        1
 44
0.0
173
     0
291
     0
 45
0.0
1001
ACAD
1000
AcDbSavedByObjectVersion
1070
     0
  0
VISUALSTYLE
  5
B2CC
102
{ACAD_XDICTIONARY
360
B2FA
102
}
102
{ACAD_REACTORS
330
B2AC
102
}
330
B2AC
100
AcDbVisualStyle
  2
3dWireframe
 70
     5
 71
     0
 72
     2
 73
     0
 90
        0
 40
-0.6
 41
-30.0
 62
     5
 63
     7
421
 16777215
 74
     1
 91
        4
 64
     7
 65
   257
 75
     1
175
     1
 42
1.0
 92
        0
 66
   257
 43
1.0
 76
     1
 77
     6
 78
     2
 67
     7
 79
     5
170
     0
171
     0
290
     0
174
     0
 93
        1
 44
0.0
173
     0
291
     0
 45
0.0
1001
ACAD
1000
AcDbSavedByObjectVersion
1070
     0
  0
VISUALSTYLE
  5
B2CB
102
{ACAD_XDICTIONARY
360
B2F8
102
}
102
{ACAD_REACTORS
330
B2AC
102
}
330
B2AC
100
AcDbVisualStyle
  2
Realistic
 70
     8
 71
     2
 72
     2
 73
     0
 90
        0
 40
-0.6
 41
-30.0
 62
     5
 63
     7
421
 16777215
 74
     1
 91
        0
 64
     7
 65
   257
 75
     1
175
     1
 42
1.0
 92
        8
 66
     8
424
  7895160
 43
1.0
 76
     1
 77
     6
 78
     2
 67
     7
 79
     5
170
     0
171
     0
290
     0
174
     0
 93
       13
 44
0.0
173
     0
291
     0
 45
0.0
1001
ACAD
1000
AcDbSavedByObjectVersion
1070
     0
  0
DICTIONARYVAR
  5
B2ED
102
{ACAD_REACTORS
330
B2EA
102
}
330
B2EA
100
DictionaryVariables
280
     0
  1
1:1
  0
DICTIONARYVAR
  5
B2EC
102
{ACAD_REACTORS
330
B2EA
102
}
330
B2EA
100
DictionaryVariables
280
     0
  1
STANDARD
  0
DICTIONARYVAR
  5
B2EB
102
{ACAD_REACTORS
330
B2EA
102
}
330
B2EA
100
DictionaryVariables
280
     0
  1
STANDARD
  0
XRECORD
  5
5B
102
{ACAD_REACTORS
330
B2E0
102
}
330
B2E0
100
AcDbXrecord
280
     1
310
0800000000000000000000000600100200060030000000000000000000408F40E80300000A000000000000000000F03F000000000088C3400000000000805640000000000000F03F000000000000F03F000000000000F03F000000000000F03F000000000000F03F0000000000000000000000000000000000000000000000
310
000000000000000000000000000000000000000000CD065FC1000000807A914DC1000000000000000000000000E0A1094100000000A003EE4000000000000000006500000000000000010000002400000000000000000000000000000001000000000000000000000000000000000000000000000000004940000000000000
310
000000000000000000000000000000000000000000000000000000000000000000000000000000000000000000000000000000000000000000000004000000000000000000000094A140000000000094A140000000000000000000000000000000000000000000000000000000000000000000000000000000000000000000
310
00000000000000000000000000000000000000000000000000000000000000000000000000000000000000000000000000000000000000000000000000000000000000000000000000000000000000000000000000000000000000000000000000000000000000000000000000000000000000000000000000000000000000
310
00000000000000000000000000000000000000000000000000000000000000000000000000000000000000004A00000000000000000000000000090000000000020000400100000000000500070101000000000000000000000000000000000000000000000000000000000000000000000000000000000000000000000000
310
00000000000000000000000000000000000000000000000000000000000000000000000000000000000000000000000000000000000000000000000000000000000000000001000000000000000000000000000000000075006E006B0000000000000000000000000000000000000000000000000000000000000000000000
310
00000000000000000000000000000000000000000000000000000000000000000000000000000000000000000000000000000000000000000000000000000000000000000000000000000000000000000000000000000000000000000000000000000000000000000000000000000000000000000000000000000000000000
310
00000000000000000000000000000000000000000000000000000000000000000000000000000000000000000000000000000000000000000000000000000000000000000000000000000000000000000000000000000000000000000000000000000000000000000000000000000000000000000000000000000000000000
310
00000000000000000000000000000000000000000000000000000000000000000000000000000000000000000000000000000000000000000000000000000000000000000000000000000000000000000000000000000000000000000000000000000000000000000000000000000000000000000000000000000000000000
310
00000000000000000000000000000000000000000000000000000000000000000000000000000000000000000000000000000000000000000000000000000000000000000000000000000000000000000000000000000000000000000000000000000000000000000000000000000000000000000000000000000000000000
310
00000000000000000000000000000000000000000000000000000000000000000000000000000000000000000000000000000000000000000000000000000000000000000000000000000000000000000000000000000000000000000000000000000000000000000000000000000000000000000000000000000000000000
310
00000000000000000000000000000000000000000000000000000000000000000000000000000000000000000000000000000000000000000000000000000000000000000000000000000000000000000000000000000000000000000000000000000000000000000000000000000000000000000000000000000000000000
310
00000000000000000000000000000000000000000000000000000000000000000000000000000000000000000000000000000000000000000000000000000000000000000000000000000000000000000000000000000000000000000000000000000000000000000000000000000000000000000000000000000000000000
310
000000000000000000000000000000000000000000000000000000000000000000000000000000000000000000000000000000000000000000000000000000000000000000000000000000000000000000000000000000000000000000000075006E006B000000000000000000000000000000000000000000000000000000
310
00000000000000000000000000000000000000000000000000000000000000000000000000000000000000000000000000000000000000000000000000000000000000000000000000000000000000000000000000000000000000000000000000000000000000000000000000000000000000000000000000000000000000
310
00000000000000000000000000000000000000000000000000000000000000000000000000000000000000000000000000000000000000000000000000000000000000000000000000000000000000000000000000000000000000000000000000000000000000000000000000000000000000000000000000000000000000
310
00000000000000000000000000000000000000000000000000000000000000000000000000000000000000000000000000000000000000000000000000000000000000000000000000000000000000000000000000000000000000000000000000000000000000000000000000000000000000000000000000000000000000
310
00000000000000000000000000000000000000000000000000000000000000000000000000000000000000000000000000000000000000000000000000000000000000000000000000000000000000000000000000000000000000000000000000000000000000000000000000000000000000000000000000000000000000
310
00000000000000000000000000000000000000000000000000000000000000000000000000000000000000000000000000000000000000000000000000000000000000000000000000000000000000000000000000000000000000000000000000000000000000000000000000000000000000000000000000000000000000
310
00000000000000000000000000000000000000000000000000000000000000000000000000000000000000000000000000000000000000000000000000000000000000000000000000000000000000000000000000000000000000000000000000000000000000000000000000000000000000000000000000000000000000
310
00000000000000000000000000000000000000000000000000000000000000000000000000000000000000000000000000000000000000000000000000000000000000000000000000000000000000000000000000000000000000000000000000000000000000000000000000000000000000000000000000000000000000
310
0000000000000000000000000000000000000000000000000000000000000000000000000000000000000000000000000000000000000000000000000000000000000000000000000000000000000000000000000000000000000000000000000000000000000000000000F03F000075006E006B0000000000000000000000
310
00000000000000000000000000000000000000000000000000000000000000000000000000000000000000000000000000000000000000000000000000000000000000000000000000000000000000000000000000000000000000000000000000000000000000000000000000000000000000000000000000000000000000
310
00000000000000000000000000000000000000000000000000000000000000000000000000000000000000000000000000000000000000000000000000000000000000000000000000000000000000000000000000000000000000000000000000000000000000000000000000000000000000000000000000000000000000
310
00000000000000000000000000000000000000000000000000000000000000000000000000000000000000000000000000000000000000000000000000000000000000000000000000000000000000000000000000000000000000000000000000000000000000000000000000000000000000000000000000000000000000
310
00000000000000000000000000000000000000000000000000000000000000000000000000000000000000000000000000000000000000000000000000000000000000000000000000000000000000000000000000000000000000000000000000000000000000000000000000000000000000000000000000000000000000
310
00000000000000000000000000000000000000000000000000000000000000000000000000000000000000000000000000000000000000000000000000000000000000000000000000000000000000000000000000000000000000000000000000000000000000000000000000000000000000000000000000000000000000
310
00000000000000000000000000000000000000000000000000000000000000000000000000000000000000000000000000000000000000000000000000000000000000000000000000000000000000000000000000000000000000000000000000000000000000000000000000000000000000000000000000000000000000
310
00000000000000000000000000000000000000000000000000000000000000000000000000000000000000000000000000000000000000000000000000000000000000000000000000000000000000000000000000000000000000000000000000000000000000000000000000000000000000000000000000000000000000
310
000000000000000000000000000000000000000000000000000000000000000000000000000000000000000000000000000000000000000000000000000000000000000000000000000000000000000000000000000000000000000000000000000000000000000000000000000000000000000000000000000000F03F0000
310
00000080464000000000008046C0000000000088C340000000000088C3400000000000000000000000000000000075006E006B00000000000000000000000000000000000000000000000000000000000000000000000000000000000000000000000000000000000000000000000000000000000000000000000000000000
310
00000000000000000000000000000000000000000000000000000000000000000000000000000000000000000000000000000000000000000000000000000000000000000000000000000000000000000000000000000000000000000000000000000000000000000000000000000000000000000000000000000000000000
310
00000000000000000000000000000000000000000000000000000000000000000000000000000000000000000000000000000000000000000000000000000000000000000000000000000000000000000000000000000000000000000000000000000000000000000000000000000000000000000000000000000000000000
310
00000000000000000000000000000000000000000000000000000000000000000000000000000000000000000000000000000000000000000000000000000000000000000000000000000000000000000000000000000000000000000000000000000000000000000000000000000000000000000000000000000000000000
310
00000000000000000000000000000000000000000000000000000000000000000000000000000000000000000000000000000000000000000000000000000000000000000000000000000000000000000000000000000000000000000000000000000000000000000000000000000000000000000000000000000000000000
310
00000000000000000000000000000000000000000000000000000000000000000000000000000000000000000000000000000000000000000000000000000000000000000000000000000000000000000000000000000000000000000000000000000000000000000000000000000000000000000000000000000000000000
310
00000000000000000000000000000000000000000000000000000000000000000000000000000000000000000000000000000000000000000000000000000000000000000000000000000000000000000000000000000000000000000000000000000000000000000000000000000000000000000000000000000000000000
310
00000000000000000000000000000000000000000000000000000000000000000000000000000000000000000000000000000000000000000000000000000000000000000000000000000000000000000000000000000000000000000000000000000000000000000000000000000000000000000000000000000000000000
310
00000000000000000000000000000000000000000000000000000000000000000000000000000000000000000000000000000000000000000000000000000000000000000000000000000000000000000000000000000000000000000000000000000000000000000000000000000000000000000000000000000000000000
310
00000000000000000000000000000000000000000000000000000000000000000000000000000000000000000000000000000000000000000000000000000000000000000000000000000000408F400000000000409F4000000000000000000000000000000000000000000000000000000000000000000000000000000000
310
080000000700000000000000008046400000000000000000000000000088C340000000000088C3400000000000002440000000000088C340000000000088C3400000000000000000000000000088C340000000000088C34000000000000000000000000000003E40000000000088C340000000000088C340000000000088C3
310
40000000000088A3C000000000000000000000000000805640000000000088C34006000300040014000100000301010100000000000000000000000000000000000000000000000000000000000000F03F000000000000000000000000000000000000000000000000000000000000F03F0000000000000000000000000000
310
00000000000000000000000000000000F03F00000000000000000000000000000000000000000000000000000000000000000000000000000000000000000000000000000000000000000000000000000000000000000000000000000000000000000000000000000000000000000000000000000000000000000000000000
310
00000000000000000000000000000000000000152100000002000027003800B5FF0900010A0066D107000000000000000014C000000000000000000000000000000000000000000000000000000000000000000000000000000000000000000000F03F000000000000F03F000000000000F03F000000000000F03F00000000
310
0000F03F000000000000F03F000000000000F03F000000000000F03F333333333333D33F000000000000F03F000000000000F03F000000000000F03F333333333333D33F0000000000000000000000000000E83F0000000000000000000000000000F03F000000000000F03F000000000000F03F7B14AE47E17A943F000000
310
000000E03F00000700D0070000000000000000000000000000000000000000000000000000000000000000000000000000000000000000000000000000000000000000000000000000000000000000000000000000000000000000000000000000000000000000000000000000000000000000000000000000000000000000
310
0000000000000000000000000000000000000000000000000000000000000000000000000000000000000000000000000000000000000000000008000000003A5C756E6F5C563843454C4C5C574F4F442E43454C00000000000000000000000000000000000000000000000000000000000000000000000000000000000000
310
00000000000000000000000000000000000000000000000000000000000000000000000000000000000000000000000000000000000000000000000000000000000000000000000000000000000000000000000000000000000000000000000000000000000000000000000000000000000000000000000000000000000000
310
00000000000000000000000000000000000000000000000000000000000000000000000000000000000000000000000000000000000000000000000000000000000000000000000000000000000000000000000000000000000000000000000000000000000000000000000000000000000000000000000000000000000000
310
00000000000000000000000000000000000000000000000000000000000000000000000000000000000000000000000000000000000000000000000000000000000000000000000000000000000000000000000000000000000000000000000000000000000000000000000000000000000000000000000000000000000000
310
00000000000000000000000000000000000000000000000000000000000000000000000000000000000000000000000000000000000000000000000000000000000001000000000000000000000000000000000000000000000001000000000000000000000000000000000000000000000000000000140000000000000000
310
00000000000000000000000000000000000000000000000000000006000000000000004000000000000000000000000000F03F000000000000F03F000000000000F03F000000000000F03F000000000F00000000000000000000000000000006200000000000000000000000000000A00000000F0A00000000000000000000
310
00000000000000000088C34000000000000000000000000000000000000000000000000000000000000000000000000000000000000000000000000000000000000000000000000000000000000000000000000000000000000000000000000000000000000000000000000000000000000000000000000000000000000000
310
00000000000000000000000000000000000000000000000000000000000000000000000000000000000000000000000000000000000000000000000000000000000000000000000000000000000000000000000000000000000000000000000000000000000000000000000000000000000000000000000000000000000000
310
00000000000000000000000000000000000000000000000000000000000000000000000000000000000000000000000000000000000000000000000000000000000000000000000000000000000000000000000000000000000000000000000000000000000000000000000059400100000004000000000000000400000000
310
000000000000000000000001000000000000000000000000000000000000000000000000000000000000000000E83F000000000000D03F00000000000000000000000000000000000000000000000000000000000000000000000000000000000000000000000000000000000000000000000000000000FCA9F1D24D62503F
310
00000000000000000000000000002440000000000000000000000000008066400000000000000000000000000000000000840000000000000000000000000000000000000000000000000000000000000000000000000000000000000000000000000000000000000000000000000000000000000000000000000000000000
310
000000000000000000000000000000E03F0000000000000000000000000000000000000000000000000000000000000000000000000000000000000000000000000000000000000000000000000000000000000000000000000000000000000000000000000000000000000000000000000000000000000000000000000000
310
00000000000000000000100400000000000000000000000000000000000000000000000000000000000000000000000000000000000000000000000000000000000000000000000000000000000000000000000000000000000000000000000000000000000000000000000000000000000000000000000000000000000000
310
00000000000000000000000000000000000000000000000000000000000000000000000000000000000000000000000000000000000000000000000000000000000000000000000000000000000000000000000000000000000000000000000000000000000000000000000000000000000000000000000000F03F00000000
310
00000000000000000000F03F00000000000000000000000000000000000000000080564001020000040000000000000004000000000000000A000000040000000000000004000000000000000A0000000000000001000000000000000000000000000000000000000000000000000000000000000000000000000000000000
310
00000000000000000000000000000000000000000000000000000000000000000000000000000000000000000000000000000000000000000000000000000000000000000000000000000000000000000000000000000000000000000000000000000000000000000000000000000000000088C34000000000000000000000
310
00000088C3400000000000000000000000000088C3400000000000000000000000000088C340000000000000000000000000000000000000000000000000000000000000000000000000000000000000000000000000000000000000000041000000000000009A9999999999B93F9A9999999999B93F01000000000000009A
310
9999999999B93F9A9999999999B93F40010000000000000000000000000000000000000000000013030000000000000000000000000000000000000000000000000000000000000000000000000000000000000000000000000000000000000100000000000000000000000000000000000000000000000100000000000000
310
7B14AE47E17A843F0100000000000000000000000000E03F0100000000000000000000000000E03F000000000000000000000000000000000000000000000000000000000000000000000000000000000000000000000000000000000000000000000000000000000000000000000000000000000088C34000000000000000
310
00000000000088C3400000000000000000000000000088C34038000000000000000000000000000000000000000088C340FFFFFFFF00000000000000000088B34000000000000000000000000000000000000000000088C3400000000000000000000000000088C3400000000000000000000000000000000000000000006A
310
E840010000000000000000000000006AE840010000000000000000000000006AF840000000000000000000000000006AE840000000000000000028000000000000000000000000002440000000000000000000000000006AF84000000000000000000000000000000000000000000000000000000000000024400000000000
310
0000000100000000000000000000000000244040000800000000000000000000002440048000000000000000000000000024408800000014000000000000000000000000000000000000009A9999999999B93F9A9999999999B93F000000000088C34088808000140000001400000000000000000000000000000000000000
310
0000000000000000000000000000000000000000000000000000F03F9A9999999999B93F0000000000000000000000000A0000000A0000000000000000000000000000000000000000000000000000000000000000000000000000000000000000000000C00000000000000000000000000000009A9999999999B93F000000
310
0000000000000000000000000000000000000000000000000000000000000000000000000000000000000000000400000000000000000000000088C340000000000088C34000000000008036408DEDB5A0F7C6B03E000000004000000002000000010000000800000000000000000000000000F03F00000000000000000000
310
00000000F03F1000000000000000000000000000F03F9001000000000000000000000000F03F0000000000000000000000000000000000000000000000000000000000000000000000000000000000000000000000000100000000000000000000000000000000000000010000000000002000000000000000000000000000
310
00000000000000000100000000000000000000000000000000000000002440000000000000000000000000000000000000000000000000000000000000000000000000000000000000000000000000000000000000000000000000000000000000000000000000000000000000000000000000000000000000000000000000
310
00000000000000000000000000000000000000000000000000000000000000000000000000000000000000000000000000000000000000000000000000000000000000000000000000000000000000000000000000000000000000000000000000000000000000000000000000000000000000000000000000000000000000
310
00000000000000F03F000000000000F03F00000000000000000000000000000000000000000000F03F000000000000000000000000000000000000000000000000000000000000000000000000000000000000000000000000000000000000F03F000000000000F03F00000000008056400000000000000000000000000000
310
00000000000000002440000000000000444000000000000000000000000000000000000000000000000000000000000000000000000000000000000000000000000000000000000000000000000000000000000000000000000014000005010000000000000000000000000000000000000001000000000000000200000000
310
00000004000000E80300000010000000000000040000000000000000000000000000000000000000000000000000000000000000000000000000000000000000000000000000000000000000000000000000000000000000000000000000000000000000000000000000000000000000000000000000000000000000000000
310
00000000000000000000000000000000000000000000000000000000000000000000000000000000000000000000000000000000000000000000000000000000000000000000000000000000000000000000000000000000000000000000000000000000000000000000000000000000000000000000000000000000000000
310
00000000000000000000000000000000000000000000000000000000000000000000000000000000000000000000000000000000000000000000000000000000000000000000000000000000000000000000000000000000000000000000000000000000000000000000000000000000000000000000000000000000000000
310
00000000000000000000000000000000000000000000000000000000000000000000000000000000000000000000000000000000000000000000000000000000000000000000000000000000000000000000000000000000000000000000000000000000000000000000000000000000000000000000000000000000000000
310
00000000000000000000000000000000000000000000000000000000000000000000000000000000000000000000000000000000000000000000000000000000000000000000000000000000000000000000000000000000000000000000000000000000000000000000000000000000000000000000000000000000000000
310
00000000000000000000000000000000000000000000000000000000000000000000000000000000000000000000000000000000000000000000000000000000000000000000000000000000000000000000000000000000000000000000000000000000000000000000000000000000000000000000000000000000000000
310
00000000000000000000000000000000000000000000000000
  0
DICTIONARY
  5
B29C
330
B29B
100
AcDbDictionary
280
     1
281
     1
  3
ADSK_XREC_LAYOUTTHUMBNAIL
360
B29D
  0
DICTIONARY
  5
B2BE
330
B2BD
100
AcDbDictionary
280
     1
281
     1
  3
ACAD_XREC_ROUNDTRIP
360
B2F6
  3
BUMPTILE
360
B2BF
  3
DIFFUSETILE
360
B2C0
  3
OPACITYTILE
360
B2C1
  3
REFLECTIONTILE
360
B2C2
  3
REFRACTIONTILE
360
B2C3
  3
SPECULARTILE
360
B2C4
  0
DICTIONARY
  5
B2B6
330
B2B5
100
AcDbDictionary
280
     1
281
     1
  3
ACAD_XREC_ROUNDTRIP
360
B2F5
  3
BUMPTILE
360
B2B7
  3
DIFFUSETILE
360
B2B8
  3
OPACITYTILE
360
B2B9
  3
REFLECTIONTILE
360
B2BA
  3
REFRACTIONTILE
360
B2BB
  3
SPECULARTILE
360
B2BC
  0
DICTIONARY
  5
B28C
330
B28A
100
AcDbDictionary
280
     1
281
     1
  3
ACAD_XREC_ROUNDTRIP
360
B2F2
  3
BUMPTILE
360
B28D
  3
DIFFUSETILE
360
B28E
  3
OPACITYTILE
360
B28F
  3
REFLECTIONTILE
360
B290
  3
REFRACTIONTILE
360
B291
  3
SPECULARTILE
360
B292
  0
DICTIONARY
  5
B2EF
330
B2CA
100
AcDbDictionary
280
     1
281
     1
  3
ACAD_ROUNDTRIP_2008_TABLESTYLE_CELLSTYLEMAP
360
B2F0
  3
ACAD_XREC_ROUNDTRIP
360
B2F7
  0
DICTIONARY
  5
B2F3
330
B2AB
100
AcDbDictionary
280
     1
281
     1
  3
ACAD_XREC_ROUNDTRIP
360
B2F4
  0
DICTIONARY
  5
B2FA
330
B2CC
100
AcDbDictionary
280
     1
281
     1
  3
ACAD_XREC_ROUNDTRIP
360
B2FB
  0
DICTIONARY
  5
B2F8
330
B2CB
100
AcDbDictionary
280
     1
281
     1
  3
ACAD_XREC_ROUNDTRIP
360
B2F9
  0
XRECORD
  5
B29D
102
{ACAD_REACTORS
330
B29C
102
}
330
B29C
100
AcDbXrecord
280
     1
310
28000000B40000007F00000001000800000000004C59000000000000000000000001000000000000FFFFFF0000000000FFFFFF000000000000000000000000000000000000000000000000000000000000000000330000006600000099000000CC000000FF00000000330000333300006633000099330000CC330000FF3300
310
0000660000336600006666000099660000CC660000FF66000000990000339900006699000099990000CC990000FF99000000CC000033CC000066CC000099CC0000CCCC0000FFCC000000FF000033FF000066FF000099FF0000CCFF0000FFFF000000003300330033006600330099003300CC003300FF003300003333003333
310
33006633330099333300CC333300FF33330000663300336633006666330099663300CC663300FF66330000993300339933006699330099993300CC993300FF99330000CC330033CC330066CC330099CC3300CCCC3300FFCC330000FF330033FF330066FF330099FF3300CCFF3300FFFF330000006600330066006600660099
310
006600CC006600FF00660000336600333366006633660099336600CC336600FF33660000666600336666006666660099666600CC666600FF66660000996600339966006699660099996600CC996600FF99660000CC660033CC660066CC660099CC6600CCCC6600FFCC660000FF660033FF660066FF660099FF6600CCFF6600
310
FFFF660000009900330099006600990099009900CC009900FF00990000339900333399006633990099339900CC339900FF33990000669900336699006666990099669900CC669900FF66990000999900339999006699990099999900CC999900FF99990000CC990033CC990066CC990099CC9900CCCC9900FFCC990000FF99
310
0033FF990066FF990099FF9900CCFF9900FFFF99000000CC003300CC006600CC009900CC00CC00CC00FF00CC000033CC003333CC006633CC009933CC00CC33CC00FF33CC000066CC003366CC006666CC009966CC00CC66CC00FF66CC000099CC003399CC006699CC009999CC00CC99CC00FF99CC0000CCCC0033CCCC0066CC
310
CC0099CCCC00CCCCCC00FFCCCC0000FFCC0033FFCC0066FFCC0099FFCC00CCFFCC00FFFFCC000000FF003300FF006600FF009900FF00CC00FF00FF00FF000033FF003333FF006633FF009933FF00CC33FF00FF33FF000066FF003366FF006666FF009966FF00CC66FF00FF66FF000099FF003399FF006699FF009999FF00CC
310
99FF00FF99FF0000CCFF0033CCFF0066CCFF0099CCFF00CCCCFF00FFCCFF0000FFFF0033FFFF0066FFFF0099FFFF00CCFFFF00FFFFFF00000000000D0D0D001A1A1A00282828003535350043434300505050005D5D5D006B6B6B00787878008686860093939300A1A1A100AEAEAE00BBBBBB00C9C9C900D6D6D600E4E4E400
310
F1F1F100FFFFFF0000000000000000000000000000000000000000000000000000000000000000000000000000000000E2E2E2E2E2E2E2E2E2E2E2E2E2E2E2E2E2E2E2E2E2E2E2E2E2E2E2E2E2E2E2E2E2E2E2E2E2E2E2E2E2E2E2E2E2E2E2E2E2E2E2E2E2E2E2E2E2E2E2E2E2E2E2E2E2E2E2E2E2E2E2E2E2E2E2E2E2E2E2
310
E2E2E2E2E2E2E2E2E2E2E2E2E2E2E2E2E2E2E2E2E2E2E2E2E2E2E2E2E2E2E2E2E2E2E2E2E2E2E2E2E2E2E2E2E2E2E2E2E2E2E2E2E2E2E2E2E2E2E2E2E2E2E2E2E2E2E2E2E2E2E2E2E2E2E2E2E2E2E2E2E2E2E2E2E2E2E2E2E2E2E2E2E2E2E2E2E2E2E2E2E2E2F5F5F5F5F5F5F5F5F5F5F5F5F5F5F5F5F5F5F5F5F5F5F5F5F5
310
F5F5F5F5F5F5F5F5F5F5F5F5F5F5F5F5F5F5F5F5F5F5F5F5F5F5F5F5F5F5F5F5F5F5F5F5F5F5F5F5F5F5F5F5F5F5F5F5F5F5F5F5F5F5F5F5F5F5F5F5F5F5F5F5F5F5F5F5F5F5F5F5F5F5F5F5F5F5F5F5F5F5F5F5F5F5F5F5F5F5F5F5F5F5F5F5F5F5F5F5F5F5F5F5F5F5F5F5F5F5F5F5F5F5F5F5F5F5F5F5F5F5F5F5F5F5F5
310
F5F5F5F5F5F5F5F5F5F5F5F5F5F5F5F5F5F5F5F5F5F5F5F5F5E2E2E2F5F5F5F5F5F5F5F5F5F5F5F5F5F5F5F5F5F5F5F5F5F5F5F5F5F5F5F5F5F5F5F5F5F5F5F5F5F5F5F5F5F5F5F5F5F5F5F5F5F5F5F5F5F5F5F5F5F5F5F5F5F5F5F5F5F5F5F5F5F5F5F5F5F5F5F5F5F5F5F5F5F5F5F5F5F5F5F5F5F5F5F5F5F5F5F5F5F5F5
310
F5F5F5F5F5F5F5F5F5F5F5F5F5F5F5F5F5F5F5F5F5F5F5F5F5F5F5F5F5F5F5F5F5F5F5F5F5F5F5F5F5F5F5F5F5F5F5F5F5F5F5F5F5F5F5F5F5F5F5F5F5F5F5F5F5F5F5F5F5F5F5F5F5F5F5F5F5F5E2E2E2F5F5F5F5F5F5F5F5F5F5F5F5F5F5F5F5F5F5F5F5F5F5F5F5F5F5F5F5F5F5F5F5F5F5F5F5F5F5F5F5F5F5F5F5F5F5
310
F5F5F5F5F5F5F5F5F5F5F5F5F5F5F5F5F5F5F5F5F5F5F5F5F5F5F5F5F5F5F5F5F5F5F5F5F5F5F5F5F5F5F5F5F5F5F5F5F5F5F5F5F5F5F5F5F5F5F5F5F5F5F5F5F5F5F5F5F5F5F5F5F5F5F5F5F5F5F5F5F5F5F5F5F5F5F5F5F5F5F5F5F5F5F5F5F5F5F5F5F5F5F5F5F5F5F5F5F5F5F5F5F5F5F5F5F5F5F5F5F5F5F5F5F5F5F5
310
F5F5F5F5E2E2E2F5F5F5F5F5F5F5F5F5F5F5F5F5F5F5F5F5F5F5F5F5F5F5F5F5F5F5F5F5F5F5F5F5F5F5F5F5F5F5F5F5F5F5F5F5F5F5F5F5F5F5F5F5F5F5F5F5F5F5F5F5F5F5F5F5F5F5F5F5F5F5F5F5F5F5F5F5F5F5F5F5F5F5F5F5F5F5F5F5F5F5F5F5F5F5F5F5F5F5F5F5F5F5F5F5F5F5F5F5F5F5F5F5F5F5F5F5F5F5F5
310
F5F5F5F5F5F5F5F5F5F5F5F5F5F5F5F5F5F5F5F5F5F5F5F5F5F5F5F5F5F5F5F5F5F5F5F5F5F5F5F5F5F5F5F5F5F5F5F5F5F5F5F5F5F5F5F5F5E2E2E2F5F5F5F5F5F5F5F5F5F5F5E2E2E2E2E2E2E2E2E2F5F5F5F5F5F5F5F5F5E2E2E2E2E2E2E2E2E2E2E2E2E2E2E2E2F5F5F5F5F5F5F5F5F5F5E2E2E2E2E2E2E2E2E2E2E2E2
310
E2E2E2E2F5F5F5F5F5F5F5F5F5E2E2E2E2E2E2E2E2E2E2E2E2E2E2E2E2E2F5F5F5F5F5F5F5F5F5E2E2E2E2E2E2E2E2E2E2E2E2E2E2E2E2F5F5F5F5F5F5F5F5F5F5E2E2E2E2E2E2E2E2E2E2E2E2E2E2E2E2F5F5F5F5F5F5F5F5F5E2E2E2E2E2E2E2E2E2F5F5F5F5F5F5F5F5F5F5F5E2E2E2F5F5F5F5F5F5F5F5F5F5F5E2F5F5
310
F5F5F5F5F5F5F5F5F5F5F5F5F5F5F5F5F5F5F5F5F5F5F5F5F5F5F5F5F5F5F5F5F5F5F5F5F5F5F5F5F5F5F5F5F5F5F5F5F5F5F5F5F5F5F5F5F5F5F5F5F5F5F5F5F5F5F5F5F5F5F5F5F5F5F5F5F5F5F5F5F5F5F5F5F5F5F5F5F5F5F5F5F5F5F5F5F5F5F5F5F5F5F5F5F5F5F5F5F5F5F5F5F5F5F5F5F5F5F5F5F5F5F5F5F5F5F5
310
F5F5F5F5F5F5F5F5F5F5F5F5F5F5F5F5F5F5F5F5F5F5F5F5E2F5F5F5F5F5F5F5F5F5F5F5E2E2E2F5F5F5F5F5F5F5F5F5F5F5E2F5F5F5F5F5F5F5F5F5F5F5F5F5F5F5F5F5F5F5F5F5F5F5F5F5F5F5F5F5F5F5F5F5F5F5F5F5F5F5F5F5F5F5F5F5F5F5F5F5F5F5F5F5F5F5F5F5F5F5F5F5F5F5F5F5F5F5F5F5F5F5F5F5F5F5F5
310
F5F5F5F5F5F5F5F5F5F5F5F5F5F5F5F5F5F5F5F5F5F5F5F5F5F5F5F5F5F5F5F5F5F5F5F5F5F5F5F5F5F5F5F5F5F5F5F5F5F5F5F5F5F5F5F5F5F5F5F5F5F5F5F5F5F5F5F5F5F5F5F5F5F5F5F5F5E2F5F5F5F5F5F5F5F5F5F5F5E2E2E2F5F5F5F5F5F5F5F5F5F5F5E2F5F5F5F5F5F5F5F5F5F5F5F5F5F5F5F5F5F5F5F5F5F5F5
310
F5F5F5F5F5F5F5F5F5F5F5F5F5F5F5F5F5F5F5F5F5F5F5F5F5F5F5F5F5F5F5F5F5F5F5F5F5F5F5F5F5F5F5F5F5F5F5F5F5F5F5F5F5F5F5F5F5F5F5F5F5F5F5F5F5F5F5F5F5F5F5F5F5F5F5F5F5F5F5F5F5F5F5F5F5F5F5F5F5F5F5F5F5F5F5F5F5F5F5F5F5F5F5F5F5F5F5F5F5F5F5F5F5F5F5F5F5F5F5F5F5F5F5F5F5F5F5
310
F5F5F5E2F5F5F5F5F5F5F5F5F5F5F5E2E2E2F5F5F5F5F5F5F5F5F5F5F5E2F5F5F5F5F5F5F5F5F5F5F5F5F5F5F5F5F5F5F5F5F5F5F5F5F5F5F5F5F5F5F5F5F5F5F5F5F5F5F5F5F5F5F5F5F5F5F5F5F5F5F5F5F5F5F5F5F5F5F5F5F5F5F5F5F5F5F5F5F5F5F5F5F5F5F5F5F5F5F5F5F5F5F5F5F5F5F5F5F5F5F5F5F5F5F5F5F5
310
F5F5F5F5F5F5F5F5F5F5F5F5F5F5F5F5F5F5F5F5F5F5F5F5F5F5F5F5F5F5F5F5F5F5F5F5F5F5F5F5F5F5F5F5F5F5F5F5F5F5F5F5F5F5F5F5E2F5F5F5F5F5F5F5F5F5F5F5E2E2E2F5F5F5F5F5F5F5F5F5F5F5E2F5F5F5F5F5F5F5F5F5F5F5F5F5F5F5F5F5F5F5F5F5F5F5F5F5F5F5F5F5F5F5F5F5F5F5F5F5F5F5F5F5F5F5F5
310
F5F5F5F5F5F5F5F5F5F5F5F5F5F5F5F5F5F5F5F5F5F5F5F5F5F5F5F5F5F5F5F5F5F5F5F5F5F5F5F5F5F5F5F5F5F5F5F5F5F5F5F5F5F5F5F5F5F5F5F5F5F5F5F5F5F5F5F5F5F5F5F5F5F5F5F5F5F5F5F5F5F5F5F5F5F5F5F5F5F5F5F5F5F5F5F5F5F5F5F5F5F5F5F5F5F5F5F5F5E2F5F5F5F5F5F5F5F5F5F5F5E2E2E2F5F5F5
310
F5F5F5F5F5F5F5F5E2F5F5F5F5F5F5F5F5F5F5F5F5F5F5F5F5F5F5F5F5F5F5F5F5F5F5F5F5F5F5F5F5F5F5F5F5F5F5F5F5F5F5F5F5F5F5F5F5F5F5F5F5F5F5F5F5F5F5F5F5F5F5F5F5F5F5F5F5F5F5F5F5F5F5F5F5F5F5F5F5F5F5F5F5F5F5F5F5F5F5F5F5F5F5F5F5F5F5F5F5F5F5F5F5F5F5F5F5F5F5F5F5F5F5F5F5F5F5
310
F5F5F5F5F5F5F5F5F5F5F5F5F5F5F5F5F5F5F5F5F5F5F5F5F5F5F5F5F5F5F5F5F5F5F5E2F5F5F5F5F5F5F5F5F5F5F5E2E2E2F5F5F5F5F5F5F5F5F5F5F5E2F5F5F5F5F5F5F5F5F5F5F5F5F5F5F5F5F5F5F5F5F5F5F5F5F5F5F5F5F5F5F5F5F5F5F5F5F5F5F5F5F5F5F5F5F5F5F5F5F5F5F5F5F5F5F5F5F5F5F5F5F5F5F5F5F5
310
F5F5F5F5F5F5F5F5F5F5F5F5F5F5F5F5F5F5F5F5F5F5F5F5F5F5F5F5F5F5F5F5F5F5F5F5F5F5F5F5F5F5F5F5F5F5F5F5F5F5F5F5F5F5F5F5F5F5F5F5F5F5F5F5F5F5F5F5F5F5F5F5F5F5F5F5F5F5F5F5F5F5F5F5F5F5F5F5E2F5F5F5F5F5F5F5F5F5F5F5E2E2E2F5F5F5F5F5F5F5F5F5F5F5F5F5F5F5F5F5F5F5F5F5F5F5F5
310
F5F5F5F5F5F5F5F5F5F5F5F5F5F5F5F5F5F5F5F5F5F5F5F5F5F5F5F5F5F5F5F5F5F5F5F5F5F5F5F5F5F5F5F5F5F5F5F5F5F5F5F5F5F5F5F5F5F5F5F5F5F5F5F5F5F5F5F5F5F5F5F5F5F5F5F5F5F5F5F5F5F5F5F5F5F5F5F5F5F5F5F5F5F5F5F5F5F5F5F5F5F5F5F5F5F5F5F5F5F5F5F5F5F5F5F5F5F5F5F5F5F5F5F5F5F5F5
310
F5F5F5F5F5F5F5F5F5F5F5F5F5F5F5F5F5F5F5F5F5F5F5F5F5F5E2E2E2F5F5F5F5F5F5F5F5F5F5F5F5F5F5F5F5F5F5F5F5F5F5F5F5F5F5F5F5F5F5F5F5F5F5F5F5F5F5F5F5F5F5F5F5F5F5F5F5F5F5F5F5F5F5F5F5F5F5F5F5F5F5F5F5F5F5F5F5F5F5F5F5F5F5F5F5F5F5F5F5F5F5F5F5F5F5F5F5F5F5F5F5F5F5F5F5F5F5
310
F5F5F5F5F5F5F5F5F5F5F5F5F5F5F5F5F5F5F5F5F5F5F5F5F5F5F5F5F5F5F5F5F5F5F5F5F5F5F5F5F5F5F5F5F5F5F5F5F5F5F5F5F5F5F5F5F5F5F5F5F5F5F5F5F5F5F5F5F5F5F5F5F5F5F5F5F5F5F5E2E2E2F5F5F5F5F5F5F5F5F5F5F5F5F5F5F5F5F5F5F5F5F5F5F5F5F5F5F5F5F5F5F5F5F5F5F5F5F5F5F5F5F5F5F5F5F5
310
F5F5F5F5F5F5F5F5F5F5F5F5F5F5F5F5F5F5F5F5F5F5F5F5F5F5F5F5F5F5F5F5F5F5F5F5F5F5F5F5F5F5F5F5F5F5F5F5F5F5F5F5F5F5F5F5F5F5F5F5F5F5F5F5F5F5F5F5F5F5F5F5F5F5F5F5F5F5F5F5F5F5F5F5F5F5F5F5F5F5F5F5F5F5F5F5F5F5F5F5F5F5F5F5F5F5F5F5F5F5F5F5F5F5F5F5F5F5F5F5F5F5F5F5F5F5F5
310
F5F5F5F5F5E2E2E2F5F5F5F5F5F5F5F5F5F5F5F5F5F5F5F5F5F5F5F5F5F5F5F5F5F5E2E2E2E2E2E2E2E2E2E2E2E2E2E2E2E2E2E2E2E2E2E2E2E2E2E2E2E2E2E2E2E2E2E2E2E2E2E2E2E2E2E2E2E2E2E2E2E2E2E2E2E2E2E2E2E2E2E2E2E2E2E2E2E2E2E2E2E2E2E2E2E2E2E2E2E2E2E2E2E2E2E2E2E2E2E2E2E2E2E2E2E2E2
310
E2E2E2E2E2E2E2E2E2E2E2E2E2E2E2E2E2E2E2E2E2E2E2E2E2E2E2E2E2E2E2E2F5F5F5F5F5F5F5F5F5F5F5F5F5F5F5F5F5F5F5F5F5F5F5F5F5F5E2E2E2F5F5F5F5F5F5F5F5F5F5F5F5F5F5F5F5F5F5F5F5F5F5F5F5F5F5E2F5F5F5F5F5F5F5F5F5F5F5F5F5F5F5F5F5F5F5F5F5F5F5F5F5F5F5F5F5F5F5F5F5F5F5F5F5F5F5
310
F5F5F5F5F5F5F5F5F5F5F5F5F5F5F5F5F5F5F5F5F5F5F5F5F5F5F5F5F5F5F5F5F5F5F5F5F5F5F5F5F5F5F5F5F5F5F5F5F5F5F5F5F5F5F5F5F5F5F5F5F5F5F5F5F5F5F5F5F5F5F5F5F5F5F5F5F5F5F5F5F5F5F5F5E2F5F5F5F5F5F5F5F5F5F5F5F5F5F5F5F5F5F5F5F5F5F5F5F5F5F5E2E2E2F5F5F5F5F5F5F5F5F5F5F5F5F5
310
F5F5F5F5F5F5F5F5F5F5F5F5F5E2F5F5F5F5F5F5F5F5F5F5F5F5F5F5F5F5F5F5F5F5F5F5F5F5F5F5F5F5F5F5F5F5F5F5F5F5F5F5F5F5F5F5F5F5F5F5F5F5F5F5F5F5F5F5F5F5F5F5F5F5F5F5F5F5F5F5F5F5F5F5F5F5F5F5F5F5F5F5F5F5F5F5F5F5F5F5F5F5F5F5F5F5F5F5F5F5F5F5F5F5F5F5F5F5F5F5F5F5F5F5F5F5F5
310
F5F5F5F5F5F5F5F5F5F5E2F5F5F5F5F5F5F5F5F5F5F5F5F5F5F5F5F5F5F5F5F5F5F5F5F5F5E2E2E2F5F5F5F5F5F5F5F5F5F5F5F5F5F5F5F5F5F5F5F5F5F5F5F5F5F5E2F5F5F5F5F5F5F5F5F5F5F5F5F5F5F5F5F5F5F5F5F5F5F5F5F5F5F5F5F5F5F5F5F5F5F5F5F5F5F5F5F5F5F5F5F5F5F5F5F5F5F5F5F5F5F5F5F5F5F5F5
310
F5F5F5F5F5F5F5F5F5F5F5F5F5F5F5F5F5F5F5F5F5F5F5F5F5F5F5F5F5F5F5F5F5F5F5F5F5F5F5F5F5F5F5F5F5F5F5F5F5F5F5F5F5F5F5F5F5F5F5F5F5F5F5E2F5F5F5F5F5F5F5F5F5F5F5F5F5F5F5F5F5F5F5F5F5F5F5F5F5F5E2E2E2F5F5F5F5F5F5F5F5F5F5F5F5F5F5F5F5F5F5F5F5F5F5F5F5F5F5E2F5F5F5F5F5F5F5
310
F5F5F5F5F5F5F5F5F5F5F5F5F5F5F5F5F5F5F5F5F5F5F5F5F5F5F5F5F5F5F5F5F5F5F5F5F5F5F5F5F5F5F5F5F5F5F5F5F5F5F5F5F5F5F5F5F5F5F5F5F5F5F5F5F5F5F5F5F5F5F5F5F5F5F5F5F5F5F5F5F5F5F5F5F5F5F5F5F5F5F5F5F5F5F5F5F5F5F5F5F5F5F5F5F5F5F5F5F5F5F5F5F5F5F5F5E2F5F5F5F5F5F5F5F5F5F5
310
F5F5F5F5F5F5F5F5F5F5F5F5F5F5F5F5E2E2E2F5F5F5F5F5F5F5F5F5F5F5E2F5F5F5F5F5F5F5F5F5F5F5F5F5F5E2F5F5F5F5F5F5F5F5F5F5F5F5F5F5F5F5F5F5F5F5F5F5F5F5F5F5F5F5F5F5F5F5F5F5F5F5F5F5F5F5F5F5F5F5F5F5F5F5F5F5F5F5F5F5F5F5F5F5F5F5F5F5F5F5F5F5F5F5F5F5F5F5F5F5F5F5F5F5F5F5F5
310
F5F5F5F5F5F5F5F5F5F5F5F5F5F5F5F5F5F5F5F5F5F5F5F5F5F5F5F5F5F5F5F5F5F5F5F5F5F5F5F5F5F5E2F5F5F5F5F5F5F5F5F5F5F5F5F5F5E2F5F5F5F5F5F5F5F5F5F5F5E2E2E2F5F5F5F5F5F5F5F5F5F5F5E2F5F5F5F5F5F5F5F5F5F5F5F5F5F5E2F5F5F5F5F5F5F5F5F5F5F5F5F5F5F5F5F5F5F5F5F5F5F5F5F5F5F5F5
310
F5F5F5F5F5F5F5F5F5F5F5F5F5F5F5F5F5F5F5F5F5F5F5F5F5F5F5F5F5F5F5F5F5F5F5F5F5F5F5F5F5F5F5F5F5F5F5F5F5F5F5F5F5F5F5F5F5F5F5F5F5F5F5F5F5F5F5F5F5F5F5F5F5F5F5F5F5F5F5F5F5F5F5F5F5F5F5F5F5F5F5F5F5F5F5E2F5F5F5F5F5F5F5F5F5F5F5F5F5F5E2F5F5F5F5F5F5F5F5F5F5F5E2E2E2F5F5
310
F5F5F5F5F5F5F5F5F5E2F5F5F5F5F5F5F5F5F5F5F5F5F5F5E2F5F5F5F5F5F5F5F5F5F5F5F5F5F5F5F5F5F5F5F5F5F5F5F5F5F5F5F5F5F5F5F5F5F5F5F5F5F5F5F5F5F5F5F5F5F5F5F5F5F5F5F5F5F5F5F5F5F5F5F5F5F5F5F5F5F5F5F5F5F5F5F5F5F5F5F5F5F5F5F5F5F5F5F5F5F5F5F5F5F5F5F5F5F5F5F5F5F5F5F5F5F5
310
F5F5F5F5F5F5F5F5F5F5F5F5F5F5F5F5F5F5F5F5F5E2F5F5F5F5F5F5F5F5F5F5F5F5F5F5E2F5F5F5F5F5F5F5F5F5F5F5E2E2E2F5F5F5F5F5F5F5F5F5F5F5E2F5F5F5F5F5F5F5F5F5F5F5F5F5F5E2F5F5F5F5F5F5F5F5F5F5F5F5F5F5F5F5F5F5F5F5F5F5F5F5F5F5F5F5F5F5F5F5F5F5F5F5F5F5F5F5F5F5F5F5F5F5F5F5F5
310
F5F5F5F5F5F5F5F5F5F5F5F5F5F5F5F5F5F5F5F5F5F5F5F5F5F5F5F5F5F5F5F5F5F5F5F5F5F5F5F5F5F5F5F5F5F5F5F5F5F5F5F5F5F5F5F5F5F5F5F5F5F5F5F5F5F5F5F5F5F5F5F5F5F5E2F5F5F5F5F5F5F5F5F5F5F5F5F5F5E2F5F5F5F5F5F5F5F5F5F5F5E2E2E2F5F5F5F5F5F5F5F5F5F5F5E2F5F5F5F5F5F5F5F5F5F5F5
310
F5F5F5E2F5F5F5F5F5F5F5F5F5F5F5F5F5F5F5F5F5F5F5F5F5F5F5F5F5F5F5F5F5F5F5F5F5F5F5F5F5F5F5F5F5F5F5F5F5F5F5F5F5F5F5F5F5F5F5F5F5F5F5F5F5F5F5F5F5F5F5F5F5F5F5F5F5F5F5F5F5F5F5F5F5F5F5F5F5F5F5F5F5F5F5F5F5F5F5F5F5F5F5F5F5F5F5F5F5F5F5F5F5F5F5F5F5F5F5F5F5F5F5F5F5F5F5
310
E2F5F5F5F5F5F5F5F5F5F5F5F5F5F5E2F5F5F5F5F5F5F5F5F5F5F5E2E2E2F5F5F5F5F5F5F5F5F5F5F5E2F5F5F5F5F5F5F5F5F5F5F5F5F5F5E2F5F5F5F5F5F5F5F5F5F5F5F5F5F5F5F5F5F5F5F5F5F5F5F5F5F5F5F5F5F5F5F5F5F5F5F5F5F5F5F5F5F5F5F5F5F5F5F5F5F5F5F5F5F5F5F5F5F5F5F5F5F5F5F5F5F5F5F5F5F5
310
F5F5F5F5F5F5F5F5F5F5F5F5F5F5F5F5F5F5F5F5F5F5F5F5F5F5F5F5F5F5F5F5F5F5F5F5F5F5F5F5F5F5F5F5F5F5F5F5F5F5F5F5F5E2F5F5F5F5F5F5F5F5F5F5F5F5F5F5E2F5F5F5F5F5F5F5F5F5F5F5E2E2E2F5F5F5F5F5F5F5F5F5F5F5E2F5F5F5F5F5F5F5F5F5F5F5F5F5F5E2F5F5F5F5F5F5F5F5F5F5F5F5F5F5F5F5F5
310
F5F5F5F5F5F5F5F5F5F5F5F5F5F5F5F5F5F5F5F5F5F5F5F5F5F5F5F5F5F5F5F5F5F5F5F5F5F5F5F5F5F5F5F5F5F5F5F5F5F5F5F5F5F5F5F5F5F5F5F5F5F5F5F5F5F5F5F5F5F5F5F5F5F5F5F5F5F5F5F5F5F5F5F5F5F5F5F5F5F5F5F5F5F5F5F5F5F5F5F5F5F5F5F5F5F5E2F5F5F5F5F5F5F5F5F5F5F5F5F5F5E2F5F5F5F5F5
310
F5F5F5F5F5F5E2E2E2F5F5F5F5F5F5F5F5F5F5F5E2F5F5F5F5F5F5F5F5F5F5F5F5F5F5E2F5F5F5F5F5F5F5F5F5F5F5F5F5F5F5F5F5F5F5F5F5F5F5F5F5F5F5F5F5F5F5F5F5F5F5F5F5F5F5F5F5F5F5F5F5F5F5F5F5F5F5F5F5F5F5F5F5F5F5F5F5F5F5F5F5F5F5F5F5F5F5F5F5F5F5F5F5F5F5F5F5F5F5F5F5F5F5F5F5F5F5
310
F5F5F5F5F5F5F5F5F5F5F5F5F5F5F5F5F5F5F5F5F5F5F5F5F5F5F5F5F5F5F5F5E2F5F5F5F5F5F5F5F5F5F5F5F5F5F5E2F5F5F5F5F5F5F5F5F5F5F5E2E2E2F5F5F5F5F5F5F5F5F5F5F5E2F5F5F5F5F5F5F5F5F5F5F5F5F5F5E2F5F5F5F5F5F5F5F5F5F5F5F5F5F5F5F5F5F5F5F5F5F5F5F5F5F5F5F5F5F5F5F5F5F5F5F5F5F5
310
F5F5F5F5F5F5F5F5F5F5F5F5F5F5F5F5F5F5F5F5F5F5F5F5F5F5F5F5F5F5F5F5F5F5F5F5F5F5F5F5F5F5F5F5F5F5F5F5F5F5F5F5F5F5F5F5F5F5F5F5F5F5F5F5F5F5F5F5F5F5F5F5F5F5F5F5F5F5F5F5F5F5F5F5F5E2F5F5F5F5F5F5F5F5F5F5F5F5F5F5E2F5F5F5F5F5F5F5F5F5F5F5E2E2E2F5F5F5F5F5F5F5F5F5F5F5E2
310
F5F5F5F5F5F5F5F5F5F5F5F5F5F5E2F5F5F5F5F5F5F5F5F5F5F5F5F5F5F5F5F5F5F5F5F5F5F5F5F5F5F5F5F5F5F5F5F5F5F5F5F5F5F5F5F5F5F5F5F5F5F5F5F5F5F5F5F5F5F5F5F5F5F5F5F5F5F5F5F5F5F5F5F5F5F5F5F5F5F5F5F5F5F5F5F5F5F5F5F5F5F5F5F5F5F5F5F5F5F5F5F5F5F5F5F5F5F5F5F5F5F5F5F5F5F5F5
310
F5F5F5F5F5F5F5F5F5F5F5E2F5F5F5F5F5F5F5F5F5F5F5F5F5F5E2F5F5F5F5F5F5F5F5F5F5F5E2E2E2F5F5F5F5F5F5F5F5F5F5F5E2F5F5F5F5F5F5F5F5F5F5F5F5F5F5E2F5F5F5F5F5F5F5F5F5F5F5F5F5F5F5F5F5F5F5F5F5F5F5F5F5F5F5F5F5F5F5F5F5F5F5F5F5F5F5F5F5F5F5F5F5F5F5F5F5F5F5F5F5F5F5F5F5F5F5
310
F5F5F5F5F5F5F5F5F5F5F5F5F5F5F5F5F5F5F5F5F5F5F5F5F5F5F5F5F5F5F5F5F5F5F5F5F5F5F5F5F5F5F5F5F5F5F5F5F5F5F5F5F5F5F5F5F5F5F5F5F5F5F5F5E2F5F5F5F5F5F5F5F5F5F5F5F5F5F5E2F5F5F5F5F5F5F5F5F5F5F5E2E2E2F5F5F5F5F5F5F5F5F5F5F5E2F5F5F5F5F5F5F5F5F5F5F5F5F5F5E2F5F5F5F5F5F5
310
F5F5F5F5F5F5F5F5F5F5F5F5F5F5F5F5F5F5F5F5F5F5F5F5F5F5F5F5F5F5F5F5F5F5F5F5F5F5F5F5F5F5F5F5F5F5F5F5F5F5F5F5F5F5F5F5F5F5F5F5F5F5F5F5F5F5F5F5F5F5F5F5F5F5F5F5F5F5F5F5F5F5F5F5F5F5F5F5F5F5F5F5F5F5F5F5F5F5F5F5F5F5F5F5F5F5F5F5F5F5F5F5F5F5F5F5F5E2F5F5F5F5F5F5F5F5F5
310
F5F5F5F5F5E2F5F5F5F5F5F5F5F5F5F5F5E2E2E2F5F5F5F5F5F5F5F5F5F5F5E2F5F5F5F5F5F5F5F5F5F5F5F5F5F5E2F5F5F5F5F5F5F5F5F5F5F5F5F5F5F5F5F5F5F5F5F5F5F5F5F5F5F5F5F5F5F5F5F5F5F5F5F5F5F5F5F5F5F5F5F5F5F5F5F5F5F5F5F5F5F5F5F5F5F5F5F5F5F5F5F5F5F5F5F5F5F5F5F5F5F5F5F5F5F5F5
310
F5F5F5F5F5F5F5F5F5F5F5F5F5F5F5F5F5F5F5F5F5F5F5F5F5F5F5F5F5F5F5F5F5F5F5F5F5F5F5F5F5F5F5E2F5F5F5F5F5F5F5F5F5F5F5F5F5F5E2F5F5F5F5F5F5F5F5F5F5F5E2E2E2F5F5F5F5F5F5F5F5F5F5F5E2F5F5F5F5F5F5F5F5F5F5F5F5F5F5E2F5F5F5F5F5F5F5F5F5F5F5F5F5F5F5F5F5F5F5F5F5F5F5F5F5F5F5
310
F5F5F5F5F5F5F5F5F5F5F5F5F5F5F5F5F5F5F5F5F5F5F5F5F5F5F5F5F5F5F5F5F5F5F5F5F5F5F5F5F5F5F5F5F5F5F5F5F5F5F5F5F5F5F5F5F5F5F5F5F5F5F5F5F5F5F5F5F5F5F5F5F5F5F5F5F5F5F5F5F5F5F5F5F5F5F5F5F5F5F5F5F5F5F5F5E2F5F5F5F5F5F5F5F5F5F5F5F5F5F5E2F5F5F5F5F5F5F5F5F5F5F5E2E2E2F5
310
F5F5F5F5F5F5F5F5F5F5E2F5F5F5F5F5F5F5F5F5F5F5F5F5F5E2F5F5F5F5F5F5F5F5F5F5F5F5F5F5F5F5F5F5F5F5F5F5F5F5F5F5F5F5F5F5F5F5F5F5F5F5F5F5F5F5F5F5F5F5F5F5F5F5F5F5F5F5F5F5F5F5F5F5F5F5F5F5F5F5F5F5F5F5F5F5F5F5F5F5F5F5F5F5F5F5F5F5F5F5F5F5F5F5F5F5F5F5F5F5F5F5F5F5F5F5F5
310
F5F5F5F5F5F5F5F5F5F5F5F5F5F5F5F5F5F5F5F5F5F5E2F5F5F5F5F5F5F5F5F5F5F5F5F5F5E2F5F5F5F5F5F5F5F5F5F5F5E2E2E2F5F5F5F5F5F5F5F5F5F5F5F5F5F5F5F5F5F5F5F5F5F5F5F5F5F5E2F5F5F5F5F5F5F5F5F5F5F5F5F5F5F5F5F5F5F5F5F5F5F5F5F5F5F5F5F5F5F5F5F5F5F5F5F5F5F5F5F5F5F5F5F5F5F5F5
310
F5F5F5F5F5F5F5F5F5F5F5F5F5F5F5F5F5F5F5F5F5F5F5F5F5F5F5F5F5F5F5F5F5F5F5F5F5F5F5F5F5F5F5F5F5F5F5F5F5F5F5F5F5F5F5F5F5F5F5F5F5F5F5F5F5F5F5F5F5F5F5F5F5F5F5E2F5F5F5F5F5F5F5F5F5F5F5F5F5F5F5F5F5F5F5F5F5F5F5F5F5F5E2E2E2F5F5F5F5F5F5F5F5F5F5F5F5F5F5F5F5F5F5F5F5F5F5
310
F5F5F5F5E2F5F5F5F5F5F5F5F5F5F5F5F5F5F5F5F5F5F5F5F5F5F5F5F5F5F5F5F5F5F5F5F5F5F5F5F5F5F5F5F5F5F5F5F5F5F5F5F5F5F5F5F5F5F5F5F5F5F5F5F5F5F5F5F5F5F5F5F5F5F5F5F5F5F5F5F5F5F5F5F5F5F5F5F5F5F5F5F5F5F5F5F5F5F5F5F5F5F5F5F5F5F5F5F5F5F5F5F5F5F5F5F5F5F5F5F5F5F5F5F5F5F5
310
F5E2F5F5F5F5F5F5F5F5F5F5F5F5F5F5F5F5F5F5F5F5F5F5F5F5F5F5E2E2E2F5F5F5F5F5F5F5F5F5F5F5F5F5F5F5F5F5F5F5F5F5F5F5F5F5F5E2F5F5F5F5F5F5F5F5F5F5F5F5F5F5F5F5F5F5F5F5F5F5F5F5F5F5F5F5F5F5F5F5F5F5F5F5F5F5F5F5F5F5F5F5F5F5F5F5F5F5F5F5F5F5F5F5F5F5F5F5F5F5F5F5F5F5F5F5F5
310
F5F5F5F5F5F5F5F5F5F5F5F5F5F5F5F5F5F5F5F5F5F5F5F5F5F5F5F5F5F5F5F5F5F5F5F5F5F5F5F5F5F5F5F5F5F5F5F5F5F5F5F5F5F5E2F5F5F5F5F5F5F5F5F5F5F5F5F5F5F5F5F5F5F5F5F5F5F5F5F5F5E2E2E2F5F5F5F5F5F5F5F5F5F5F5F5F5F5F5F5F5F5F5F5F5F5F5F5F5F5E2F5F5F5F5F5F5F5F5F5F5F5F5F5F5F5F5
310
F5F5F5F5F5F5F5F5F5F5F5F5F5F5F5F5F5F5F5F5F5F5F5F5F5F5F5F5F5F5F5F5F5F5F5F5F5F5F5F5F5F5F5F5F5F5F5F5F5F5F5F5F5F5F5F5F5F5F5F5F5F5F5F5F5F5F5F5F5F5F5F5F5F5F5F5F5F5F5F5F5F5F5F5F5F5F5F5F5F5F5F5F5F5F5F5F5F5F5F5F5F5F5F5F5F5F5E2F5F5F5F5F5F5F5F5F5F5F5F5F5F5F5F5F5F5F5
310
F5F5F5F5F5F5F5E2E2E2F5F5F5F5F5F5F5F5F5F5F5F5F5F5F5F5F5F5F5F5F5F5F5F5F5F5E2F5F5F5F5F5F5F5F5F5F5F5F5F5F5F5F5F5F5F5F5F5F5F5F5F5F5F5F5F5F5F5F5F5F5F5F5F5F5F5F5F5F5F5F5F5F5F5F5F5F5F5F5F5F5F5F5F5F5F5F5F5F5F5F5F5F5F5F5F5F5F5F5F5F5F5F5F5F5F5F5F5F5F5F5F5F5F5F5F5F5
310
F5F5F5F5F5F5F5F5F5F5F5F5F5F5F5F5F5F5F5F5F5F5F5F5F5F5F5F5F5F5F5F5F5E2F5F5F5F5F5F5F5F5F5F5F5F5F5F5F5F5F5F5F5F5F5F5F5F5F5F5E2E2E2F5F5F5F5F5F5F5F5F5F5F5F5F5F5F5F5F5F5F5F5F5F5F5F5F5F5E2F5F5F5F5F5F5F5F5F5F5F5F5F5F5F5F5F5F5F5F5F5F5F5F5F5F5F5F5F5F5F5F5F5F5F5F5F5
310
F5F5F5F5F5F5F5F5F5F5F5F5F5F5F5F5F5F5F5F5F5F5F5F5F5F5F5F5F5F5F5F5F5F5F5F5F5F5F5F5F5F5F5F5F5F5F5F5F5F5F5F5F5F5F5F5F5F5F5F5F5F5F5F5F5F5F5F5F5F5F5F5F5F5F5F5F5F5F5F5F5F5F5F5F5F5E2F5F5F5F5F5F5F5F5F5F5F5F5F5F5F5F5F5F5F5F5F5F5F5F5F5F5E2E2E2F5F5F5F5F5F5F5F5F5F5F5
310
F5F5F5F5F5F5F5F5F5F5F5F5F5F5F5E2F5F5F5F5F5F5F5F5F5F5F5F5F5F5F5F5F5F5F5F5F5F5F5F5F5F5F5F5F5F5F5F5F5F5F5F5F5F5F5F5F5F5F5F5F5F5F5F5F5F5F5F5F5F5F5F5F5F5F5F5F5F5F5F5F5F5F5F5F5F5F5F5F5F5F5F5F5F5F5F5F5F5F5F5F5F5F5F5F5F5F5F5F5F5F5F5F5F5F5F5F5F5F5F5F5F5F5F5F5F5F5
310
F5F5F5F5F5F5F5F5F5F5F5F5E2F5F5F5F5F5F5F5F5F5F5F5F5F5F5F5F5F5F5F5F5F5F5F5F5F5F5E2E2E2F5F5F5F5F5F5F5F5F5F5F5F5F5F5F5F5F5F5F5F5F5F5F5F5F5F5E2F5F5F5F5F5F5F5F5F5F5F5F5F5F5F5F5F5F5F5F5F5F5F5F5F5F5F5F5F5F5F5F5F5F5F5F5F5F5F5F5F5F5F5F5F5F5F5F5F5F5F5F5F5F5F5F5F5F5
310
F5F5F5F5F5F5F5F5F5F5F5F5F5F5F5F5F5F5F5F5F5F5F5F5F5F5F5F5F5F5F5F5F5F5F5F5F5F5F5F5F5F5F5F5F5F5F5F5F5F5F5F5F5F5F5F5F5F5F5F5F5F5F5F5F5E2F5F5F5F5F5F5F5F5F5F5F5F5F5F5F5F5F5F5F5F5F5F5F5F5F5F5E2E2E2F5F5F5F5F5F5F5F5F5F5F5E2F5F5F5F5F5F5F5F5F5F5F5F5F5F5E2F5F5F5F5F5
310
F5F5F5F5F5F5F5F5F5F5F5F5F5F5F5F5F5F5F5F5F5F5F5F5F5F5F5F5F5F5F5F5F5F5F5F5F5F5F5F5F5F5F5F5F5F5F5F5F5F5F5F5F5F5F5F5F5F5F5F5F5F5F5F5F5F5F5F5F5F5F5F5F5F5F5F5F5F5F5F5F5F5F5F5F5F5F5F5F5F5F5F5F5F5F5F5F5F5F5F5F5F5F5F5F5F5F5F5F5F5F5F5F5F5F5F5F5F5E2F5F5F5F5F5F5F5F5
310
F5F5F5F5F5F5E2F5F5F5F5F5F5F5F5F5F5F5E2E2E2F5F5F5F5F5F5F5F5F5F5F5E2F5F5F5F5F5F5F5F5F5F5F5F5F5F5E2F5F5F5F5F5F5F5F5F5F5F5F5F5F5F5F5F5F5F5F5F5F5F5F5F5F5F5F5F5F5F5F5F5F5F5F5F5F5F5F5F5F5F5F5F5F5F5F5F5F5F5F5F5F5F5F5F5F5F5F5F5F5F5F5F5F5F5F5F5F5F5F5F5F5F5F5F5F5F5
310
F5F5F5F5F5F5F5F5F5F5F5F5F5F5F5F5F5F5F5F5F5F5F5F5F5F5F5F5F5F5F5F5F5F5F5F5F5F5F5F5F5F5F5F5E2F5F5F5F5F5F5F5F5F5F5F5F5F5F5E2F5F5F5F5F5F5F5F5F5F5F5E2E2E2F5F5F5F5F5F5F5F5F5F5F5E2F5F5F5F5F5F5F5F5F5F5F5F5F5F5E2F5F5F5F5F5F5F5F5F5F5F5F5F5F5F5F5F5F5F5F5F5F5F5F5F5F5
310
F5F5F5F5F5F5F5F5F5F5F5F5F5F5F5F5F5F5F5F5F5F5F5F5F5F5F5F5F5F5F5F5F5F5F5F5F5F5F5F5F5F5F5F5F5F5F5F5F5F5F5F5F5F5F5F5F5F5F5F5F5F5F5F5F5F5F5F5F5F5F5F5F5F5F5F5F5F5F5F5F5F5F5F5F5F5F5F5F5F5F5F5F5F5F5F5F5E2F5F5F5F5F5F5F5F5F5F5F5F5F5F5E2F5F5F5F5F5F5F5F5F5F5F5E2E2E2
310
F5F5F5F5F5F5F5F5F5F5F5E2F5F5F5F5F5F5F5F5F5F5F5F5F5F5E2F5F5F5F5F5F5F5F5F5F5F5F5F5F5F5F5F5F5F5F5F5F5F5F5F5F5F5F5F5F5F5F5F5F5F5F5F5F5F5F5F5F5F5F5F5F5F5F5F5F5F5F5F5F5F5F5F5F5F5F5F5F5F5F5F5F5F5F5F5F5F5F5F5F5F5F5F5F5F5F5F5F5F5F5F5F5F5F5F5F5F5F5F5F5F5F5F5F5F5F5
310
F5F5F5F5F5F5F5F5F5F5F5F5F5F5F5F5F5F5F5F5F5F5F5E2F5F5F5F5F5F5F5F5F5F5F5F5F5F5E2F5F5F5F5F5F5F5F5F5F5F5E2E2E2F5F5F5F5F5F5F5F5F5F5F5E2F5F5F5F5F5F5F5F5F5F5F5F5F5F5E2F5F5F5F5F5F5F5F5F5F5F5F5F5F5F5F5F5F5F5F5F5F5F5F5F5F5F5F5F5F5F5F5F5F5F5F5F5F5F5F5F5F5F5F5F5F5F5
310
F5F5F5F5F5F5F5F5F5F5F5F5F5F5F5F5F5F5F5F5F5F5F5F5F5F5F5F5F5F5F5F5F5F5F5F5F5F5F5F5F5F5F5F5F5F5F5F5F5F5F5F5F5F5F5F5F5F5F5F5F5F5F5F5F5F5F5F5F5F5F5F5F5F5F5F5E2F5F5F5F5F5F5F5F5F5F5F5F5F5F5E2F5F5F5F5F5F5F5F5F5F5F5E2E2E2F5F5F5F5F5F5F5F5F5F5F5E2F5F5F5F5F5F5F5F5F5
310
F5F5F5F5F5E2F5F5F5F5F5F5F5F5F5F5F5F5F5F5F5F5F5F5F5F5F5F5F5F5F5F5F5F5F5F5F5F5F5F5F5F5F5F5F5F5F5F5F5F5F5F5F5F5F5F5F5F5F5F5F5F5F5F5F5F5F5F5F5F5F5F5F5F5F5F5F5F5F5F5F5F5F5F5F5F5F5F5F5F5F5F5F5F5F5F5F5F5F5F5F5F5F5F5F5F5F5F5F5F5F5F5F5F5F5F5F5F5F5F5F5F5F5F5F5F5F5
310
F5F5E2F5F5F5F5F5F5F5F5F5F5F5F5F5F5E2F5F5F5F5F5F5F5F5F5F5F5E2E2E2F5F5F5F5F5F5F5F5F5F5F5E2F5F5F5F5F5F5F5F5F5F5F5F5F5F5E2F5F5F5F5F5F5F5F5F5F5F5F5F5F5F5F5F5F5F5F5F5F5F5F5F5F5F5F5F5F5F5F5F5F5F5F5F5F5F5F5F5F5F5F5F5F5F5F5F5F5F5F5F5F5F5F5F5F5F5F5F5F5F5F5F5F5F5F5
310
F5F5F5F5F5F5F5F5F5F5F5F5F5F5F5F5F5F5F5F5F5F5F5F5F5F5F5F5F5F5F5F5F5F5F5F5F5F5F5F5F5F5F5F5F5F5F5F5F5F5F5F5F5F5F5E2F5F5F5F5F5F5F5F5F5F5F5F5F5F5E2F5F5F5F5F5F5F5F5F5F5F5E2E2E2F5F5F5F5F5F5F5F5F5F5F5E2F5F5F5F5F5F5F5F5F5F5F5F5F5F5E2F5F5F5F5F5F5F5F5F5F5F5F5F5F5F5
310
F5F5F5F5F5F5F5F5F5F5F5F5F5F5F5F5F5F5F5F5F5F5F5F5F5F5F5F5F5F5F5F5F5F5F5F5F5F5F5F5F5F5F5F5F5F5F5F5F5F5F5F5F5F5F5F5F5F5F5F5F5F5F5F5F5F5F5F5F5F5F5F5F5F5F5F5F5F5F5F5F5F5F5F5F5F5F5F5F5F5F5F5F5F5F5F5F5F5F5F5F5F5F5F5F5F5F5F5E2F5F5F5F5F5F5F5F5F5F5F5F5F5F5E2F5F5F5
310
F5F5F5F5F5F5F5F5E2E2E2F5F5F5F5F5F5F5F5F5F5F5E2F5F5F5F5F5F5F5F5F5F5F5F5F5F5E2F5F5F5F5F5F5F5F5F5F5F5F5F5F5F5F5F5F5F5F5F5F5F5F5F5F5F5F5F5F5F5F5F5F5F5F5F5F5F5F5F5F5F5F5F5F5F5F5F5F5F5F5F5F5F5F5F5F5F5F5F5F5F5F5F5F5F5F5F5F5F5F5F5F5F5F5F5F5F5F5F5F5F5F5F5F5F5F5F5
310
F5F5F5F5F5F5F5F5F5F5F5F5F5F5F5F5F5F5F5F5F5F5F5F5F5F5F5F5F5F5F5F5F5F5E2F5F5F5F5F5F5F5F5F5F5F5F5F5F5E2F5F5F5F5F5F5F5F5F5F5F5E2E2E2F5F5F5F5F5F5F5F5F5F5F5E2F5F5F5F5F5F5F5F5F5F5F5F5F5F5E2F5F5F5F5F5F5F5F5F5F5F5F5F5F5F5F5F5F5F5F5F5F5F5F5F5F5F5F5F5F5F5F5F5F5F5F5
310
F5F5F5F5F5F5F5F5F5F5F5F5F5F5F5F5F5F5F5F5F5F5F5F5F5F5F5F5F5F5F5F5F5F5F5F5F5F5F5F5F5F5F5F5F5F5F5F5F5F5F5F5F5F5F5F5F5F5F5F5F5F5F5F5F5F5F5F5F5F5F5F5F5F5F5F5F5F5F5F5F5F5F5F5F5F5F5E2F5F5F5F5F5F5F5F5F5F5F5F5F5F5E2F5F5F5F5F5F5F5F5F5F5F5E2E2E2F5F5F5F5F5F5F5F5F5F5
310
F5E2F5F5F5F5F5F5F5F5F5F5F5F5F5F5E2F5F5F5F5F5F5F5F5F5F5F5F5F5F5F5F5F5F5F5F5F5F5F5F5F5F5F5F5F5F5F5F5F5F5F5F5F5F5F5F5F5F5F5F5F5F5F5F5F5F5F5F5F5F5F5F5F5F5F5F5F5F5F5F5F5F5F5F5F5F5F5F5F5F5F5F5F5F5F5F5F5F5F5F5F5F5F5F5F5F5F5F5F5F5F5F5F5F5F5F5F5F5F5F5F5F5F5F5F5F5
310
F5F5F5F5F5F5F5F5F5F5F5F5F5E2F5F5F5F5F5F5F5F5F5F5F5F5F5F5E2F5F5F5F5F5F5F5F5F5F5F5E2E2E2F5F5F5F5F5F5F5F5F5F5F5E2F5F5F5F5F5F5F5F5F5F5F5F5F5F5E2F5F5F5F5F5F5F5F5F5F5F5F5F5F5F5F5F5F5F5F5F5F5F5F5F5F5F5F5F5F5F5F5F5F5F5F5F5F5F5F5F5F5F5F5F5F5F5F5F5F5F5F5F5F5F5F5F5
310
F5F5F5F5F5F5F5F5F5F5F5F5F5F5F5F5F5F5F5F5F5F5F5F5F5F5F5F5F5F5F5F5F5F5F5F5F5F5F5F5F5F5F5F5F5F5F5F5F5F5F5F5F5F5F5F5F5F5F5F5F5F5F5F5F5F5E2F5F5F5F5F5F5F5F5F5F5F5F5F5F5E2F5F5F5F5F5F5F5F5F5F5F5E2E2E2F5F5F5F5F5F5F5F5F5F5F5E2F5F5F5F5F5F5F5F5F5F5F5F5F5F5E2F5F5F5F5
310
F5F5F5F5F5F5F5F5F5F5F5F5F5F5F5F5F5F5F5F5F5F5F5F5F5F5F5F5F5F5F5F5F5F5F5F5F5F5F5F5F5F5F5F5F5F5F5F5F5F5F5F5F5F5F5F5F5F5F5F5F5F5F5F5F5F5F5F5F5F5F5F5F5F5F5F5F5F5F5F5F5F5F5F5F5F5F5F5F5F5F5F5F5F5F5F5F5F5F5F5F5F5F5F5F5F5F5F5F5F5F5F5F5F5F5F5F5F5F5E2F5F5F5F5F5F5F5
310
F5F5F5F5F5F5F5E2F5F5F5F5F5F5F5F5F5F5F5E2E2E2F5F5F5F5F5F5F5F5F5F5F5E2F5F5F5F5F5F5F5F5F5F5F5F5F5F5E2F5F5F5F5F5F5F5F5F5F5F5F5F5F5F5F5F5F5F5F5F5F5F5F5F5F5F5F5F5F5F5F5F5F5F5F5F5F5F5F5F5F5F5F5F5F5F5F5F5F5F5F5F5F5F5F5F5F5F5F5F5F5F5F5F5F5F5F5F5F5F5F5F5F5F5F5F5F5
310
F5F5F5F5F5F5F5F5F5F5F5F5F5F5F5F5F5F5F5F5F5F5F5F5F5F5F5F5F5F5F5F5F5F5F5F5F5F5F5F5F5F5F5F5F5E2F5F5F5F5F5F5F5F5F5F5F5F5F5F5E2F5F5F5F5F5F5F5F5F5F5F5E2E2E2F5F5F5F5F5F5F5F5F5F5F5E2F5F5F5F5F5F5F5F5F5F5F5F5F5F5E2F5F5F5F5F5F5F5F5F5F5F5F5F5F5F5F5F5F5F5F5F5F5F5F5F5
310
F5F5F5F5F5F5F5F5F5F5F5F5F5F5F5F5F5F5F5F5F5F5F5F5F5F5F5F5F5F5F5F5F5F5F5F5F5F5F5F5F5F5F5F5F5F5F5F5F5F5F5F5F5F5F5F5F5F5F5F5F5F5F5F5F5F5F5F5F5F5F5F5F5F5F5F5F5F5F5F5F5F5F5F5F5F5F5F5F5F5F5F5F5F5F5F5F5F5E2F5F5F5F5F5F5F5F5F5F5F5F5F5F5E2F5F5F5F5F5F5F5F5F5F5F5E2E2
310
E2F5F5F5F5F5F5F5F5F5F5F5F5F5F5F5F5F5F5F5F5F5F5F5F5F5F5E2F5F5F5F5F5F5F5F5F5F5F5F5F5F5F5F5F5F5F5F5F5F5F5F5F5F5F5F5F5F5F5F5F5F5F5F5F5F5F5F5F5F5F5F5F5F5F5F5F5F5F5F5F5F5F5F5F5F5F5F5F5F5F5F5F5F5F5F5F5F5F5F5F5F5F5F5F5F5F5F5F5F5F5F5F5F5F5F5F5F5F5F5F5F5F5F5F5F5F5
310
F5F5F5F5F5F5F5F5F5F5F5F5F5F5F5F5F5F5F5F5F5F5F5F5E2F5F5F5F5F5F5F5F5F5F5F5F5F5F5F5F5F5F5F5F5F5F5F5F5F5F5E2E2E2F5F5F5F5F5F5F5F5F5F5F5F5F5F5F5F5F5F5F5F5F5F5F5F5F5F5E2F5F5F5F5F5F5F5F5F5F5F5F5F5F5F5F5F5F5F5F5F5F5F5F5F5F5F5F5F5F5F5F5F5F5F5F5F5F5F5F5F5F5F5F5F5F5
310
F5F5F5F5F5F5F5F5F5F5F5F5F5F5F5F5F5F5F5F5F5F5F5F5F5F5F5F5F5F5F5F5F5F5F5F5F5F5F5F5F5F5F5F5F5F5F5F5F5F5F5F5F5F5F5F5F5F5F5F5F5F5F5F5F5F5F5F5F5F5F5F5F5F5F5F5F5E2F5F5F5F5F5F5F5F5F5F5F5F5F5F5F5F5F5F5F5F5F5F5F5F5F5F5E2E2E2F5F5F5F5F5F5F5F5F5F5F5F5F5F5F5F5F5F5F5F5
310
F5F5F5F5F5F5E2F5F5F5F5F5F5F5F5F5F5F5F5F5F5F5F5F5F5F5F5F5F5F5F5F5F5F5F5F5F5F5F5F5F5F5F5F5F5F5F5F5F5F5F5F5F5F5F5F5F5F5F5F5F5F5F5F5F5F5F5F5F5F5F5F5F5F5F5F5F5F5F5F5F5F5F5F5F5F5F5F5F5F5F5F5F5F5F5F5F5F5F5F5F5F5F5F5F5F5F5F5F5F5F5F5F5F5F5F5F5F5F5F5F5F5F5F5F5F5F5
310
F5F5F5E2F5F5F5F5F5F5F5F5F5F5F5F5F5F5F5F5F5F5F5F5F5F5F5F5F5F5E2E2E2F5F5F5F5F5F5F5F5F5F5F5F5F5F5F5F5F5F5F5F5F5F5F5F5F5F5E2F5F5F5F5F5F5F5F5F5F5F5F5F5F5F5F5F5F5F5F5F5F5F5F5F5F5F5F5F5F5F5F5F5F5F5F5F5F5F5F5F5F5F5F5F5F5F5F5F5F5F5F5F5F5F5F5F5F5F5F5F5F5F5F5F5F5F5
310
F5F5F5F5F5F5F5F5F5F5F5F5F5F5F5F5F5F5F5F5F5F5F5F5F5F5F5F5F5F5F5F5F5F5F5F5F5F5F5F5F5F5F5F5F5F5F5F5F5F5F5F5F5F5F5F5E2F5F5F5F5F5F5F5F5F5F5F5F5F5F5F5F5F5F5F5F5F5F5F5F5F5F5E2E2E2F5F5F5F5F5F5F5F5F5F5F5F5F5F5F5F5F5F5F5F5F5F5F5F5F5F5E2F5F5F5F5F5F5F5F5F5F5F5F5F5F5
310
F5F5F5F5F5F5F5F5F5F5F5F5F5F5F5F5F5F5F5F5F5F5F5F5F5F5F5F5F5F5F5F5F5F5F5F5F5F5F5F5F5F5F5F5F5F5F5F5F5F5F5F5F5F5F5F5F5F5F5F5F5F5F5F5F5F5F5F5F5F5F5F5F5F5F5F5F5F5F5F5F5F5F5F5F5F5F5F5F5F5F5F5F5F5F5F5F5F5F5F5F5F5F5F5F5F5F5F5F5E2F5F5F5F5F5F5F5F5F5F5F5F5F5F5F5F5F5
310
F5F5F5F5F5F5F5F5F5E2E2E2F5F5F5F5F5F5F5F5F5F5F5F5F5F5F5F5F5F5F5F5F5F5F5F5F5F5E2F5F5F5F5F5F5F5F5F5F5F5F5F5F5F5F5F5F5F5F5F5F5F5F5F5F5F5F5F5F5F5F5F5F5F5F5F5F5F5F5F5F5F5F5F5F5F5F5F5F5F5F5F5F5F5F5F5F5F5F5F5F5F5F5F5F5F5F5F5F5F5F5F5F5F5F5F5F5F5F5F5F5F5F5F5F5F5F5
310
F5F5F5F5F5F5F5F5F5F5F5F5F5F5F5F5F5F5F5F5F5F5F5F5F5F5F5F5F5F5F5F5F5F5F5E2F5F5F5F5F5F5F5F5F5F5F5F5F5F5F5F5F5F5F5F5F5F5F5F5F5F5E2E2E2F5F5F5F5F5F5F5F5F5F5F5F5F5F5F5F5F5F5F5F5F5F5F5F5F5F5E2F5F5F5F5F5F5F5F5F5F5F5F5F5F5F5F5F5F5F5F5F5F5F5F5F5F5F5F5F5F5F5F5F5F5F5
310
F5F5F5F5F5F5F5F5F5F5F5F5F5F5F5F5F5F5F5F5F5F5F5F5F5F5F5F5F5F5F5F5F5F5F5F5F5F5F5F5F5F5F5F5F5F5F5F5F5F5F5F5F5F5F5F5F5F5F5F5F5F5F5F5F5F5F5F5F5F5F5F5F5F5F5F5F5F5F5F5F5F5F5F5F5F5F5F5E2F5F5F5F5F5F5F5F5F5F5F5F5F5F5F5F5F5F5F5F5F5F5F5F5F5F5E2E2E2F5F5F5F5F5F5F5F5F5
310
F5F5F5F5F5F5F5F5F5F5F5F5F5F5F5F5F5E2F5F5F5F5F5F5F5F5F5F5F5F5F5F5F5F5F5F5F5F5F5F5F5F5F5F5F5F5F5F5F5F5F5F5F5F5F5F5F5F5F5F5F5F5F5F5F5F5F5F5F5F5F5F5F5F5F5F5F5F5F5F5F5F5F5F5F5F5F5F5F5F5F5F5F5F5F5F5F5F5F5F5F5F5F5F5F5F5F5F5F5F5F5F5F5F5F5F5F5F5F5F5F5F5F5F5F5F5F5
310
F5F5F5F5F5F5F5F5F5F5F5F5F5F5E2F5F5F5F5F5F5F5F5F5F5F5F5F5F5F5F5F5F5F5F5F5F5F5F5F5F5E2E2E2F5F5F5F5F5F5F5F5F5F5F5F5F5F5F5F5F5F5F5F5F5F5F5F5F5F5E2F5F5F5F5F5F5F5F5F5F5F5F5F5F5F5F5F5F5F5F5F5F5F5F5F5F5F5F5F5F5F5F5F5F5F5F5F5F5F5F5F5F5F5F5F5F5F5F5F5F5F5F5F5F5F5F5
310
F5F5F5F5F5F5F5F5F5F5F5F5F5F5F5F5F5F5F5F5F5F5F5F5F5F5F5F5F5F5F5F5F5F5F5F5F5F5F5F5F5F5F5F5F5F5F5F5F5F5F5F5F5F5F5F5F5F5F5F5F5F5F5F5F5F5F5E2F5F5F5F5F5F5F5F5F5F5F5F5F5F5F5F5F5F5F5F5F5F5F5F5F5F5E2E2E2F5F5F5F5F5F5F5F5F5F5F5E2F5F5F5F5F5F5F5F5F5F5F5F5F5F5E2F5F5F5
310
F5F5F5F5F5F5F5F5F5F5F5F5F5F5F5F5F5F5F5F5F5F5F5F5F5F5F5F5F5F5F5F5F5F5F5F5F5F5F5F5F5F5F5F5F5F5F5F5F5F5F5F5F5F5F5F5F5F5F5F5F5F5F5F5F5F5F5F5F5F5F5F5F5F5F5F5F5F5F5F5F5F5F5F5F5F5F5F5F5F5F5F5F5F5F5F5F5F5F5F5F5F5F5F5F5F5F5F5F5F5F5F5F5F5F5F5F5F5F5F5E2F5F5F5F5F5F5
310
F5F5F5F5F5F5F5F5E2F5F5F5F5F5F5F5F5F5F5F5E2E2E2F5F5F5F5F5F5F5F5F5F5F5E2F5F5F5F5F5F5F5F5F5F5F5F5F5F5E2F5F5F5F5F5F5F5F5F5F5F5F5F5F5F5F5F5F5F5F5F5F5F5F5F5F5F5F5F5F5F5F5F5F5F5F5F5F5F5F5F5F5F5F5F5F5F5F5F5F5F5F5F5F5F5F5F5F5F5F5F5F5F5F5F5F5F5F5F5F5F5F5F5F5F5F5F5
310
F5F5F5F5F5F5F5F5F5F5F5F5F5F5F5F5F5F5F5F5F5F5F5F5F5F5F5F5F5F5F5F5F5F5F5F5F5F5F5F5F5F5F5F5F5F5E2F5F5F5F5F5F5F5F5F5F5F5F5F5F5E2F5F5F5F5F5F5F5F5F5F5F5E2E2E2F5F5F5F5F5F5F5F5F5F5F5E2F5F5F5F5F5F5F5F5F5F5F5F5F5F5E2F5F5F5F5F5F5F5F5F5F5F5F5F5F5F5F5F5F5F5F5F5F5F5F5
310
F5F5F5F5F5F5F5F5F5F5F5F5F5F5F5F5F5F5F5F5F5F5F5F5F5F5F5F5F5F5F5F5F5F5F5F5F5F5F5F5F5F5F5F5F5F5F5F5F5F5F5F5F5F5F5F5F5F5F5F5F5F5F5F5F5F5F5F5F5F5F5F5F5F5F5F5F5F5F5F5F5F5F5F5F5F5F5F5F5F5F5F5F5F5F5F5F5F5F5E2F5F5F5F5F5F5F5F5F5F5F5F5F5F5E2F5F5F5F5F5F5F5F5F5F5F5E2
310
E2E2F5F5F5F5F5F5F5F5F5F5F5E2F5F5F5F5F5F5F5F5F5F5F5F5F5F5E2F5F5F5F5F5F5F5F5F5F5F5F5F5F5F5F5F5F5F5F5F5F5F5F5F5F5F5F5F5F5F5F5F5F5F5F5F5F5F5F5F5F5F5F5F5F5F5F5F5F5F5F5F5F5F5F5F5F5F5F5F5F5F5F5F5F5F5F5F5F5F5F5F5F5F5F5F5F5F5F5F5F5F5F5F5F5F5F5F5F5F5F5F5F5F5F5F5F5
310
F5F5F5F5F5F5F5F5F5F5F5F5F5F5F5F5F5F5F5F5F5F5F5F5F5E2F5F5F5F5F5F5F5F5F5F5F5F5F5F5E2F5F5F5F5F5F5F5F5F5F5F5E2E2E2F5F5F5F5F5F5F5F5F5F5F5E2F5F5F5F5F5F5F5F5F5F5F5F5F5F5E2F5F5F5F5F5F5F5F5F5F5F5F5F5F5F5F5F5F5F5F5F5F5F5F5F5F5F5F5F5F5F5F5F5F5F5F5F5F5F5F5F5F5F5F5F5
310
F5F5F5F5F5F5F5F5F5F5F5F5F5F5F5F5F5F5F5F5F5F5F5F5F5F5F5F5F5F5F5F5F5F5F5F5F5F5F5F5F5F5F5F5F5F5F5F5F5F5F5F5F5F5F5F5F5F5F5F5F5F5F5F5F5F5F5F5F5F5F5F5F5F5F5F5F5F5E2F5F5F5F5F5F5F5F5F5F5F5F5F5F5E2F5F5F5F5F5F5F5F5F5F5F5E2E2E2F5F5F5F5F5F5F5F5F5F5F5E2F5F5F5F5F5F5F5
310
F5F5F5F5F5F5F5E2F5F5F5F5F5F5F5F5F5F5F5F5F5F5F5F5F5F5F5F5F5F5F5F5F5F5F5F5F5F5F5F5F5F5F5F5F5F5F5F5F5F5F5F5F5F5F5F5F5F5F5F5F5F5F5F5F5F5F5F5F5F5F5F5F5F5F5F5F5F5F5F5F5F5F5F5F5F5F5F5F5F5F5F5F5F5F5F5F5F5F5F5F5F5F5F5F5F5F5F5F5F5F5F5F5F5F5F5F5F5F5F5F5F5F5F5F5F5F5
310
F5F5F5F5E2F5F5F5F5F5F5F5F5F5F5F5F5F5F5E2F5F5F5F5F5F5F5F5F5F5F5E2E2E2F5F5F5F5F5F5F5F5F5F5F5E2F5F5F5F5F5F5F5F5F5F5F5F5F5F5E2F5F5F5F5F5F5F5F5F5F5F5F5F5F5F5F5F5F5F5F5F5F5F5F5F5F5F5F5F5F5F5F5F5F5F5F5F5F5F5F5F5F5F5F5F5F5F5F5F5F5F5F5F5F5F5F5F5F5F5F5F5F5F5F5F5F5
310
F5F5F5F5F5F5F5F5F5F5F5F5F5F5F5F5F5F5F5F5F5F5F5F5F5F5F5F5F5F5F5F5F5F5F5F5F5F5F5F5F5F5F5F5F5F5F5F5F5F5F5F5F5F5F5F5F5E2F5F5F5F5F5F5F5F5F5F5F5F5F5F5E2F5F5F5F5F5F5F5F5F5F5F5E2E2E2F5F5F5F5F5F5F5F5F5F5F5E2F5F5F5F5F5F5F5F5F5F5F5F5F5F5E2F5F5F5F5F5F5F5F5F5F5F5F5F5
310
F5F5F5F5F5F5F5F5F5F5F5F5F5F5F5F5F5F5F5F5F5F5F5F5F5F5F5F5F5F5F5F5F5F5F5F5F5F5F5F5F5F5F5F5F5F5F5F5F5F5F5F5F5F5F5F5F5F5F5F5F5F5F5F5F5F5F5F5F5F5F5F5F5F5F5F5F5F5F5F5F5F5F5F5F5F5F5F5F5F5F5F5F5F5F5F5F5F5F5F5F5F5F5F5F5F5F5F5F5F5E2F5F5F5F5F5F5F5F5F5F5F5F5F5F5E2F5
310
F5F5F5F5F5F5F5F5F5F5E2E2E2F5F5F5F5F5F5F5F5F5F5F5E2F5F5F5F5F5F5F5F5F5F5F5F5F5F5E2F5F5F5F5F5F5F5F5F5F5F5F5F5F5F5F5F5F5F5F5F5F5F5F5F5F5F5F5F5F5F5F5F5F5F5F5F5F5F5F5F5F5F5F5F5F5F5F5F5F5F5F5F5F5F5F5F5F5F5F5F5F5F5F5F5F5F5F5F5F5F5F5F5F5F5F5F5F5F5F5F5F5F5F5F5F5F5
310
F5F5F5F5F5F5F5F5F5F5F5F5F5F5F5F5F5F5F5F5F5F5F5F5F5F5F5F5F5F5F5F5F5F5F5F5E2F5F5F5F5F5F5F5F5F5F5F5F5F5F5E2F5F5F5F5F5F5F5F5F5F5F5E2E2E2F5F5F5F5F5F5F5F5F5F5F5E2F5F5F5F5F5F5F5F5F5F5F5F5F5F5E2F5F5F5F5F5F5F5F5F5F5F5F5F5F5F5F5F5F5F5F5F5F5F5F5F5F5F5F5F5F5F5F5F5F5
310
F5F5F5F5F5F5F5F5F5F5F5F5F5F5F5F5F5F5F5F5F5F5F5F5F5F5F5F5F5F5F5F5F5F5F5F5F5F5F5F5F5F5F5F5F5F5F5F5F5F5F5F5F5F5F5F5F5F5F5F5F5F5F5F5F5F5F5F5F5F5F5F5F5F5F5F5F5F5F5F5F5F5F5F5F5F5F5F5F5E2F5F5F5F5F5F5F5F5F5F5F5F5F5F5E2F5F5F5F5F5F5F5F5F5F5F5E2E2E2F5F5F5F5F5F5F5F5
310
F5F5F5E2F5F5F5F5F5F5F5F5F5F5F5F5F5F5E2F5F5F5F5F5F5F5F5F5F5F5F5F5F5F5F5F5F5F5F5F5F5F5F5F5F5F5F5F5F5F5F5F5F5F5F5F5F5F5F5F5F5F5F5F5F5F5F5F5F5F5F5F5F5F5F5F5F5F5F5F5F5F5F5F5F5F5F5F5F5F5F5F5F5F5F5F5F5F5F5F5F5F5F5F5F5F5F5F5F5F5F5F5F5F5F5F5F5F5F5F5F5F5F5F5F5F5F5
310
F5F5F5F5F5F5F5F5F5F5F5F5F5F5F5E2F5F5F5F5F5F5F5F5F5F5F5F5F5F5E2F5F5F5F5F5F5F5F5F5F5F5E2E2E2F5F5F5F5F5F5F5F5F5F5F5E2F5F5F5F5F5F5F5F5F5F5F5F5F5F5E2F5F5F5F5F5F5F5F5F5F5F5F5F5F5F5F5F5F5F5F5F5F5F5F5F5F5F5F5F5F5F5F5F5F5F5F5F5F5F5F5F5F5F5F5F5F5F5F5F5F5F5F5F5F5F5
310
F5F5F5F5F5F5F5F5F5F5F5F5F5F5F5F5F5F5F5F5F5F5F5F5F5F5F5F5F5F5F5F5F5F5F5F5F5F5F5F5F5F5F5F5F5F5F5F5F5F5F5F5F5F5F5F5F5F5F5F5F5F5F5F5F5F5F5F5E2F5F5F5F5F5F5F5F5F5F5F5F5F5F5E2F5F5F5F5F5F5F5F5F5F5F5E2E2E2F5F5F5F5F5F5F5F5F5F5F5E2F5F5F5F5F5F5F5F5F5F5F5F5F5F5E2F5F5
310
F5F5F5F5F5F5F5F5F5F5F5F5F5F5F5F5F5F5F5F5F5F5F5F5F5F5F5F5F5F5F5F5F5F5F5F5F5F5F5F5F5F5F5F5F5F5F5F5F5F5F5F5F5F5F5F5F5F5F5F5F5F5F5F5F5F5F5F5F5F5F5F5F5F5F5F5F5F5F5F5F5F5F5F5F5F5F5F5F5F5F5F5F5F5F5F5F5F5F5F5F5F5F5F5F5F5F5F5F5F5F5F5F5F5F5F5F5F5F5F5F5E2F5F5F5F5F5
310
F5F5F5F5F5F5F5F5F5E2F5F5F5F5F5F5F5F5F5F5F5E2E2E2F5F5F5F5F5F5F5F5F5F5F5E2F5F5F5F5F5F5F5F5F5F5F5F5F5F5E2F5F5F5F5F5F5F5F5F5F5F5F5F5F5F5F5F5F5F5F5F5F5F5F5F5F5F5F5F5F5F5F5F5F5F5F5F5F5F5F5F5F5F5F5F5F5F5F5F5F5F5F5F5F5F5F5F5F5F5F5F5F5F5F5F5F5F5F5F5F5F5F5F5F5F5F5
310
F5F5F5F5F5F5F5F5F5F5F5F5F5F5F5F5F5F5F5F5F5F5F5F5F5F5F5F5F5F5F5F5F5F5F5F5F5F5F5F5F5F5F5F5F5F5F5E2F5F5F5F5F5F5F5F5F5F5F5F5F5F5E2F5F5F5F5F5F5F5F5F5F5F5E2E2E2F5F5F5F5F5F5F5F5F5F5F5E2F5F5F5F5F5F5F5F5F5F5F5F5F5F5E2F5F5F5F5F5F5F5F5F5F5F5F5F5F5F5F5F5F5F5F5F5F5F5
310
F5F5F5F5F5F5F5F5F5F5F5F5F5F5F5F5F5F5F5F5F5F5F5F5F5F5F5F5F5F5F5F5F5F5F5F5F5F5F5F5F5F5F5F5F5F5F5F5F5F5F5F5F5F5F5F5F5F5F5F5F5F5F5F5F5F5F5F5F5F5F5F5F5F5F5F5F5F5F5F5F5F5F5F5F5F5F5F5F5F5F5F5F5F5F5F5F5F5F5F5E2F5F5F5F5F5F5F5F5F5F5F5F5F5F5E2F5F5F5F5F5F5F5F5F5F5F5
310
E2E2E2F5F5F5F5F5F5F5F5F5F5F5F5F5F5F5F5F5F5F5F5F5F5F5F5F5F5E2F5F5F5F5F5F5F5F5F5F5F5F5F5F5F5F5F5F5F5F5F5F5F5F5F5F5F5F5F5F5F5F5F5F5F5F5F5F5F5F5F5F5F5F5F5F5F5F5F5F5F5F5F5F5F5F5F5F5F5F5F5F5F5F5F5F5F5F5F5F5F5F5F5F5F5F5F5F5F5F5F5F5F5F5F5F5F5F5F5F5F5F5F5F5F5F5F5
310
F5F5F5F5F5F5F5F5F5F5F5F5F5F5F5F5F5F5F5F5F5F5F5F5F5F5E2F5F5F5F5F5F5F5F5F5F5F5F5F5F5F5F5F5F5F5F5F5F5F5F5F5F5E2E2E2F5F5F5F5F5F5F5F5F5F5F5F5F5F5F5F5F5F5F5F5F5F5F5F5F5F5E2F5F5F5F5F5F5F5F5F5F5F5F5F5F5F5F5F5F5F5F5F5F5F5F5F5F5F5F5F5F5F5F5F5F5F5F5F5F5F5F5F5F5F5F5
310
F5F5F5F5F5F5F5F5F5F5F5F5F5F5F5F5F5F5F5F5F5F5F5F5F5F5F5F5F5F5F5F5F5F5F5F5F5F5F5F5F5F5F5F5F5F5F5F5F5F5F5F5F5F5F5F5F5F5F5F5F5F5F5F5F5F5F5F5F5F5F5F5F5F5F5F5F5F5F5E2F5F5F5F5F5F5F5F5F5F5F5F5F5F5F5F5F5F5F5F5F5F5F5F5F5F5E2E2E2F5F5F5F5F5F5F5F5F5F5F5F5F5F5F5F5F5F5
310
F5F5F5F5F5F5F5F5E2F5F5F5F5F5F5F5F5F5F5F5F5F5F5F5F5F5F5F5F5F5F5F5F5F5F5F5F5F5F5F5F5F5F5F5F5F5F5F5F5F5F5F5F5F5F5F5F5F5F5F5F5F5F5F5F5F5F5F5F5F5F5F5F5F5F5F5F5F5F5F5F5F5F5F5F5F5F5F5F5F5F5F5F5F5F5F5F5F5F5F5F5F5F5F5F5F5F5F5F5F5F5F5F5F5F5F5F5F5F5F5F5F5F5F5F5F5F5
310
F5F5F5F5F5E2F5F5F5F5F5F5F5F5F5F5F5F5F5F5F5F5F5F5F5F5F5F5F5F5F5F5E2E2E2F5F5F5F5F5F5F5F5F5F5F5F5F5F5F5F5F5F5F5F5F5F5F5F5F5F5E2F5F5F5F5F5F5F5F5F5F5F5F5F5F5F5F5F5F5F5F5F5F5F5F5F5F5F5F5F5F5F5F5F5F5F5F5F5F5F5F5F5F5F5F5F5F5F5F5F5F5F5F5F5F5F5F5F5F5F5F5F5F5F5F5F5
310
F5F5F5F5F5F5F5F5F5F5F5F5F5F5F5F5F5F5F5F5F5F5F5F5F5F5F5F5F5F5F5F5F5F5F5F5F5F5F5F5F5F5F5F5F5F5F5F5F5F5F5F5F5F5F5F5F5F5E2F5F5F5F5F5F5F5F5F5F5F5F5F5F5F5F5F5F5F5F5F5F5F5F5F5F5E2E2E2F5F5F5F5F5F5F5F5F5F5F5F5F5F5F5F5F5F5F5F5F5F5F5F5F5F5E2F5F5F5F5F5F5F5F5F5F5F5F5
310
F5F5F5F5F5F5F5F5F5F5F5F5F5F5F5F5F5F5F5F5F5F5F5F5F5F5F5F5F5F5F5F5F5F5F5F5F5F5F5F5F5F5F5F5F5F5F5F5F5F5F5F5F5F5F5F5F5F5F5F5F5F5F5F5F5F5F5F5F5F5F5F5F5F5F5F5F5F5F5F5F5F5F5F5F5F5F5F5F5F5F5F5F5F5F5F5F5F5F5F5F5F5F5F5F5F5F5F5F5F5F5E2F5F5F5F5F5F5F5F5F5F5F5F5F5F5F5
310
F5F5F5F5F5F5F5F5F5F5F5E2E2E2F5F5F5F5F5F5F5F5F5F5F5F5F5F5F5F5F5F5F5F5F5F5F5F5F5F5E2F5F5F5F5F5F5F5F5F5F5F5F5F5F5F5F5F5F5F5F5F5F5F5F5F5F5F5F5F5F5F5F5F5F5F5F5F5F5F5F5F5F5F5F5F5F5F5F5F5F5F5F5F5F5F5F5F5F5F5F5F5F5F5F5F5F5F5F5F5F5F5F5F5F5F5F5F5F5F5F5F5F5F5F5F5F5
310
F5F5F5F5F5F5F5F5F5F5F5F5F5F5F5F5F5F5F5F5F5F5F5F5F5F5F5F5F5F5F5F5F5F5F5F5F5E2F5F5F5F5F5F5F5F5F5F5F5F5F5F5F5F5F5F5F5F5F5F5F5F5F5F5E2E2E2F5F5F5F5F5F5F5F5F5F5F5F5F5F5F5F5F5F5F5F5F5F5F5F5F5F5E2F5F5F5F5F5F5F5F5F5F5F5F5F5F5F5F5F5F5F5F5F5F5F5F5F5F5F5F5F5F5F5F5F5
310
F5F5F5F5F5F5F5F5F5F5F5F5F5F5F5F5F5F5F5F5F5F5F5F5F5F5F5F5F5F5F5F5F5F5F5F5F5F5F5F5F5F5F5F5F5F5F5F5F5F5F5F5F5F5F5F5F5F5F5F5F5F5F5F5F5F5F5F5F5F5F5F5F5F5F5F5F5F5F5F5F5F5F5F5F5F5F5F5F5F5E2F5F5F5F5F5F5F5F5F5F5F5F5F5F5F5F5F5F5F5F5F5F5F5F5F5F5E2E2E2F5F5F5F5F5F5F5
310
F5F5F5F5F5F5F5F5F5F5F5F5F5F5F5F5F5F5F5E2F5F5F5F5F5F5F5F5F5F5F5F5F5F5F5F5F5F5F5F5F5F5F5F5F5F5F5F5F5F5F5F5F5F5F5F5F5F5F5F5F5F5F5F5F5F5F5F5F5F5F5F5F5F5F5F5F5F5F5F5F5F5F5F5F5F5F5F5F5F5F5F5F5F5F5F5F5F5F5F5F5F5F5F5F5F5F5F5F5F5F5F5F5F5F5F5F5F5F5F5F5F5F5F5F5F5F5
310
F5F5F5F5F5F5F5F5F5F5F5F5F5F5F5F5E2F5F5F5F5F5F5F5F5F5F5F5F5F5F5F5F5F5F5F5F5F5F5F5F5F5F5E2E2E2F5F5F5F5F5F5F5F5F5F5F5E2F5F5F5F5F5F5F5F5F5F5F5F5F5F5E2F5F5F5F5F5F5F5F5F5F5F5F5F5F5F5F5F5F5F5F5F5F5F5F5F5F5F5F5F5F5F5F5F5F5F5F5F5F5F5F5F5F5F5F5F5F5F5F5F5F5F5F5F5F5
310
F5F5F5F5F5F5F5F5F5F5F5F5F5F5F5F5F5F5F5F5F5F5F5F5F5F5F5F5F5F5F5F5F5F5F5F5F5F5F5F5F5F5F5F5F5F5F5F5F5F5F5F5F5F5F5F5F5F5F5F5F5F5F5F5F5F5F5F5F5E2F5F5F5F5F5F5F5F5F5F5F5F5F5F5E2F5F5F5F5F5F5F5F5F5F5F5E2E2E2F5F5F5F5F5F5F5F5F5F5F5E2F5F5F5F5F5F5F5F5F5F5F5F5F5F5E2F5
310
F5F5F5F5F5F5F5F5F5F5F5F5F5F5F5F5F5F5F5F5F5F5F5F5F5F5F5F5F5F5F5F5F5F5F5F5F5F5F5F5F5F5F5F5F5F5F5F5F5F5F5F5F5F5F5F5F5F5F5F5F5F5F5F5F5F5F5F5F5F5F5F5F5F5F5F5F5F5F5F5F5F5F5F5F5F5F5F5F5F5F5F5F5F5F5F5F5F5F5F5F5F5F5F5F5F5F5F5F5F5F5F5F5F5F5F5F5F5F5F5F5F5E2F5F5F5F5
310
F5F5F5F5F5F5F5F5F5F5E2F5F5F5F5F5F5F5F5F5F5F5E2E2E2F5F5F5F5F5F5F5F5F5F5F5E2F5F5F5F5F5F5F5F5F5F5F5F5F5F5E2F5F5F5F5F5F5F5F5F5F5F5F5F5F5F5F5F5F5F5F5F5F5F5F5F5F5F5F5F5F5F5F5F5F5F5F5F5F5F5F5F5F5F5F5F5F5F5F5F5F5F5F5F5F5F5F5F5F5F5F5F5F5F5F5F5F5F5F5F5F5F5F5F5F5F5
310
F5F5F5F5F5F5F5F5F5F5F5F5F5F5F5F5F5F5F5F5F5F5F5F5F5F5F5F5F5F5F5F5F5F5F5F5F5F5F5F5F5F5F5F5F5F5F5F5E2F5F5F5F5F5F5F5F5F5F5F5F5F5F5E2F5F5F5F5F5F5F5F5F5F5F5E2E2E2F5F5F5F5F5F5F5F5F5F5F5E2F5F5F5F5F5F5F5F5F5F5F5F5F5F5E2F5F5F5F5F5F5F5F5F5F5F5F5F5F5F5F5F5F5F5F5F5F5
310
F5F5F5F5F5F5F5F5F5F5F5F5F5F5F5F5F5F5F5F5F5F5F5F5F5F5F5F5F5F5F5F5F5F5F5F5F5F5F5F5F5F5F5F5F5F5F5F5F5F5F5F5F5F5F5F5F5F5F5F5F5F5F5F5F5F5F5F5F5F5F5F5F5F5F5F5F5F5F5F5F5F5F5F5F5F5F5F5F5F5F5F5F5F5F5F5F5F5F5F5F5E2F5F5F5F5F5F5F5F5F5F5F5F5F5F5E2F5F5F5F5F5F5F5F5F5F5
310
F5E2E2E2F5F5F5F5F5F5F5F5F5F5F5E2F5F5F5F5F5F5F5F5F5F5F5F5F5F5E2F5F5F5F5F5F5F5F5F5F5F5F5F5F5F5F5F5F5F5F5F5F5F5F5F5F5F5F5F5F5F5F5F5F5F5F5F5F5F5F5F5F5F5F5F5F5F5F5F5F5F5F5F5F5F5F5F5F5F5F5F5F5F5F5F5F5F5F5F5F5F5F5F5F5F5F5F5F5F5F5F5F5F5F5F5F5F5F5F5F5F5F5F5F5F5F5
310
F5F5F5F5F5F5F5F5F5F5F5F5F5F5F5F5F5F5F5F5F5F5F5F5F5F5F5E2F5F5F5F5F5F5F5F5F5F5F5F5F5F5E2F5F5F5F5F5F5F5F5F5F5F5E2E2E2F5F5F5F5F5F5F5F5F5F5F5E2F5F5F5F5F5F5F5F5F5F5F5F5F5F5E2F5F5F5F5F5F5F5F5F5F5F5F5F5F5F5F5F5F5F5F5F5F5F5F5F5F5F5F5F5F5F5F5F5F5F5F5F5F5F5F5F5F5F5
310
F5F5F5F5F5F5F5F5F5F5F5F5F5F5F5F5F5F5F5F5F5F5F5F5F5F5F5F5F5F5F5F5F5F5F5F5F5F5F5F5F5F5F5F5F5F5F5F5F5F5F5F5F5F5F5F5F5F5F5F5F5F5F5F5F5F5F5F5F5F5F5F5F5F5F5F5F5F5F5F5E2F5F5F5F5F5F5F5F5F5F5F5F5F5F5E2F5F5F5F5F5F5F5F5F5F5F5E2E2E2F5F5F5F5F5F5F5F5F5F5F5E2F5F5F5F5F5
310
F5F5F5F5F5F5F5F5F5E2F5F5F5F5F5F5F5F5F5F5F5F5F5F5F5F5F5F5F5F5F5F5F5F5F5F5F5F5F5F5F5F5F5F5F5F5F5F5F5F5F5F5F5F5F5F5F5F5F5F5F5F5F5F5F5F5F5F5F5F5F5F5F5F5F5F5F5F5F5F5F5F5F5F5F5F5F5F5F5F5F5F5F5F5F5F5F5F5F5F5F5F5F5F5F5F5F5F5F5F5F5F5F5F5F5F5F5F5F5F5F5F5F5F5F5F5F5
310
F5F5F5F5F5F5E2F5F5F5F5F5F5F5F5F5F5F5F5F5F5E2F5F5F5F5F5F5F5F5F5F5F5E2E2E2F5F5F5F5F5F5F5F5F5F5F5E2F5F5F5F5F5F5F5F5F5F5F5F5F5F5E2F5F5F5F5F5F5F5F5F5F5F5F5F5F5F5F5F5F5F5F5F5F5F5F5F5F5F5F5F5F5F5F5F5F5F5F5F5F5F5F5F5F5F5F5F5F5F5F5F5F5F5F5F5F5F5F5F5F5F5F5F5F5F5F5
310
F5F5F5F5F5F5F5F5F5F5F5F5F5F5F5F5F5F5F5F5F5F5F5F5F5F5F5F5F5F5F5F5F5F5F5F5F5F5F5F5F5F5F5F5F5F5F5F5F5F5F5F5F5F5F5F5F5F5F5E2F5F5F5F5F5F5F5F5F5F5F5F5F5F5E2F5F5F5F5F5F5F5F5F5F5F5E2E2E2F5F5F5F5F5F5F5F5F5F5F5E2F5F5F5F5F5F5F5F5F5F5F5F5F5F5E2F5F5F5F5F5F5F5F5F5F5F5
310
F5F5F5F5F5F5F5F5F5F5F5F5F5F5F5F5F5F5F5F5F5F5F5F5F5F5F5F5F5F5F5F5F5F5F5F5F5F5F5F5F5F5F5F5F5F5F5F5F5F5F5F5F5F5F5F5F5F5F5F5F5F5F5F5F5F5F5F5F5F5F5F5F5F5F5F5F5F5F5F5F5F5F5F5F5F5F5F5F5F5F5F5F5F5F5F5F5F5F5F5F5F5F5F5F5F5F5F5F5F5F5F5E2F5F5F5F5F5F5F5F5F5F5F5F5F5F5
310
E2F5F5F5F5F5F5F5F5F5F5F5E2E2E2F5F5F5F5F5F5F5F5F5F5F5E2F5F5F5F5F5F5F5F5F5F5F5F5F5F5E2F5F5F5F5F5F5F5F5F5F5F5F5F5F5F5F5F5F5F5F5F5F5F5F5F5F5F5F5F5F5F5F5F5F5F5F5F5F5F5F5F5F5F5F5F5F5F5F5F5F5F5F5F5F5F5F5F5F5F5F5F5F5F5F5F5F5F5F5F5F5F5F5F5F5F5F5F5F5F5F5F5F5F5F5F5
310
F5F5F5F5F5F5F5F5F5F5F5F5F5F5F5F5F5F5F5F5F5F5F5F5F5F5F5F5F5F5F5F5F5F5F5F5F5F5E2F5F5F5F5F5F5F5F5F5F5F5F5F5F5E2F5F5F5F5F5F5F5F5F5F5F5E2E2E2F5F5F5F5F5F5F5F5F5F5F5E2F5F5F5F5F5F5F5F5F5F5F5F5F5F5E2F5F5F5F5F5F5F5F5F5F5F5F5F5F5F5F5F5F5F5F5F5F5F5F5F5F5F5F5F5F5F5F5
310
F5F5F5F5F5F5F5F5F5F5F5F5F5F5F5F5F5F5F5F5F5F5F5F5F5F5F5F5F5F5F5F5F5F5F5F5F5F5F5F5F5F5F5F5F5F5F5F5F5F5F5F5F5F5F5F5F5F5F5F5F5F5F5F5F5F5F5F5F5F5F5F5F5F5F5F5F5F5F5F5F5F5F5F5F5F5F5F5F5F5F5E2F5F5F5F5F5F5F5F5F5F5F5F5F5F5E2F5F5F5F5F5F5F5F5F5F5F5E2E2E2F5F5F5F5F5F5
310
F5F5F5F5F5E2F5F5F5F5F5F5F5F5F5F5F5F5F5F5E2F5F5F5F5F5F5F5F5F5F5F5F5F5F5F5F5F5F5F5F5F5F5F5F5F5F5F5F5F5F5F5F5F5F5F5F5F5F5F5F5F5F5F5F5F5F5F5F5F5F5F5F5F5F5F5F5F5F5F5F5F5F5F5F5F5F5F5F5F5F5F5F5F5F5F5F5F5F5F5F5F5F5F5F5F5F5F5F5F5F5F5F5F5F5F5F5F5F5F5F5F5F5F5F5F5F5
310
F5F5F5F5F5F5F5F5F5F5F5F5F5F5F5F5F5E2F5F5F5F5F5F5F5F5F5F5F5F5F5F5E2F5F5F5F5F5F5F5F5F5F5F5E2E2E2F5F5F5F5F5F5F5F5F5F5F5E2F5F5F5F5F5F5F5F5F5F5F5F5F5F5E2F5F5F5F5F5F5F5F5F5F5F5F5F5F5F5F5F5F5F5F5F5F5F5F5F5F5F5F5F5F5F5F5F5F5F5F5F5F5F5F5F5F5F5F5F5F5F5F5F5F5F5F5F5
310
F5F5F5F5F5F5F5F5F5F5F5F5F5F5F5F5F5F5F5F5F5F5F5F5F5F5F5F5F5F5F5F5F5F5F5F5F5F5F5F5F5F5F5F5F5F5F5F5F5F5F5F5F5F5F5F5F5F5F5F5F5F5F5F5F5F5F5F5F5F5E2F5F5F5F5F5F5F5F5F5F5F5F5F5F5E2F5F5F5F5F5F5F5F5F5F5F5E2E2E2F5F5F5F5F5F5F5F5F5F5F5E2F5F5F5F5F5F5F5F5F5F5F5F5F5F5E2
310
F5F5F5F5F5F5F5F5F5F5F5F5F5F5F5F5F5F5F5F5F5F5F5F5F5F5F5F5F5F5F5F5F5F5F5F5F5F5F5F5F5F5F5F5F5F5F5F5F5F5F5F5F5F5F5F5F5F5F5F5F5F5F5F5F5F5F5F5F5F5F5F5F5F5F5F5F5F5F5F5F5F5F5F5F5F5F5F5F5F5F5F5F5F5F5F5F5F5F5F5F5F5F5F5F5F5F5F5F5F5F5F5F5F5F5F5F5F5F5F5F5F5F5E2F5F5F5
310
F5F5F5F5F5F5F5F5F5F5F5E2F5F5F5F5F5F5F5F5F5F5F5E2E2E2F5F5F5F5F5F5F5F5F5F5F5E2F5F5F5F5F5F5F5F5F5F5F5F5F5F5E2F5F5F5F5F5F5F5F5F5F5F5F5F5F5F5F5F5F5F5F5F5F5F5F5F5F5F5F5F5F5F5F5F5F5F5F5F5F5F5F5F5F5F5F5F5F5F5F5F5F5F5F5F5F5F5F5F5F5F5F5F5F5F5F5F5F5F5F5F5F5F5F5F5F5
310
F5F5F5F5F5F5F5F5F5F5F5F5F5F5F5F5F5F5F5F5F5F5F5F5F5F5F5F5F5F5F5F5F5F5F5F5F5F5F5F5F5F5F5F5F5F5F5F5F5E2F5F5F5F5F5F5F5F5F5F5F5F5F5F5E2F5F5F5F5F5F5F5F5F5F5F5E2E2E2F5F5F5F5F5F5F5F5F5F5F5F5F5F5F5F5F5F5F5F5F5F5F5F5F5F5E2F5F5F5F5F5F5F5F5F5F5F5F5F5F5F5F5F5F5F5F5F5
310
F5F5F5F5F5F5F5F5F5F5F5F5F5F5F5F5F5F5F5F5F5F5F5F5F5F5F5F5F5F5F5F5F5F5F5F5F5F5F5F5F5F5F5F5F5F5F5F5F5F5F5F5F5F5F5F5F5F5F5F5F5F5F5F5F5F5F5F5F5F5F5F5F5F5F5F5F5F5F5F5F5F5F5F5F5F5F5F5F5F5F5F5F5F5F5F5F5F5F5F5F5F5E2F5F5F5F5F5F5F5F5F5F5F5F5F5F5F5F5F5F5F5F5F5F5F5F5
310
F5F5E2E2E2F5F5F5F5F5F5F5F5F5F5F5F5F5F5F5F5F5F5F5F5F5F5F5F5F5F5E2F5F5F5F5F5F5F5F5F5F5F5F5F5F5F5F5F5F5F5F5F5F5F5F5F5F5F5F5F5F5F5F5F5F5F5F5F5F5F5F5F5F5F5F5F5F5F5F5F5F5F5F5F5F5F5F5F5F5F5F5F5F5F5F5F5F5F5F5F5F5F5F5F5F5F5F5F5F5F5F5F5F5F5F5F5F5F5F5F5F5F5F5F5F5F5
310
F5F5F5F5F5F5F5F5F5F5F5F5F5F5F5F5F5F5F5F5F5F5F5F5F5F5F5F5E2F5F5F5F5F5F5F5F5F5F5F5F5F5F5F5F5F5F5F5F5F5F5F5F5F5F5E2E2E2F5F5F5F5F5F5F5F5F5F5F5F5F5F5F5F5F5F5F5F5F5F5F5F5F5F5E2F5F5F5F5F5F5F5F5F5F5F5F5F5F5F5F5F5F5F5F5F5F5F5F5F5F5F5F5F5F5F5F5F5F5F5F5F5F5F5F5F5F5
310
F5F5F5F5F5F5F5F5F5F5F5F5F5F5F5F5F5F5F5F5F5F5F5F5F5F5F5F5F5F5F5F5F5F5F5F5F5F5F5F5F5F5F5F5F5F5F5F5F5F5F5F5F5F5F5F5F5F5F5F5F5F5F5F5F5F5F5F5F5F5F5F5F5F5F5F5F5F5F5F5F5E2F5F5F5F5F5F5F5F5F5F5F5F5F5F5F5F5F5F5F5F5F5F5F5F5F5F5E2E2E2F5F5F5F5F5F5F5F5F5F5F5F5F5F5F5F5
310
F5F5F5F5F5F5F5F5F5F5E2F5F5F5F5F5F5F5F5F5F5F5F5F5F5F5F5F5F5F5F5F5F5F5F5F5F5F5F5F5F5F5F5F5F5F5F5F5F5F5F5F5F5F5F5F5F5F5F5F5F5F5F5F5F5F5F5F5F5F5F5F5F5F5F5F5F5F5F5F5F5F5F5F5F5F5F5F5F5F5F5F5F5F5F5F5F5F5F5F5F5F5F5F5F5F5F5F5F5F5F5F5F5F5F5F5F5F5F5F5F5F5F5F5F5F5F5
310
F5F5F5F5F5F5F5E2F5F5F5F5F5F5F5F5F5F5F5F5F5F5F5F5F5F5F5F5F5F5F5F5F5F5E2E2E2F5F5F5F5F5F5F5F5F5F5F5F5F5F5F5F5F5F5F5F5F5F5F5F5F5F5E2E2E2E2E2E2E2E2E2E2E2E2E2E2E2E2E2E2E2E2E2E2E2E2E2E2E2E2E2E2E2E2E2E2E2E2E2E2E2E2E2E2E2E2E2E2E2E2E2E2E2E2E2E2E2E2E2E2E2E2E2E2E2E2
310
E2E2E2E2E2E2E2E2E2E2E2E2E2E2E2E2E2E2E2E2E2E2E2E2E2E2E2E2E2E2E2E2E2E2E2E2E2E2E2E2E2E2E2E2E2E2E2E2E2E2E2E2E2E2E2E2E2E2E2E2E2F5F5F5F5F5F5F5F5F5F5F5F5F5F5F5F5F5F5F5F5F5F5F5F5F5F5E2E2E2F5F5F5F5F5F5F5F5F5F5F5F5F5F5F5F5F5F5F5F5F5F5F5F5F5F5F5F5F5F5F5F5F5F5F5F5F5
310
F5F5F5F5F5F5F5F5F5F5F5F5F5F5F5F5F5F5F5F5F5F5F5F5F5F5F5F5F5F5F5F5F5F5F5F5F5F5F5F5F5F5F5F5F5F5F5F5F5F5F5F5F5F5F5F5F5F5F5F5F5F5F5F5F5F5F5F5F5F5F5F5F5F5F5F5F5F5F5F5F5F5F5F5F5F5F5F5F5F5F5F5F5F5F5F5F5F5F5F5F5F5F5F5F5F5F5F5F5F5F5F5F5F5F5F5F5F5F5F5F5F5F5F5F5F5F5
310
F5F5F5F5F5F5F5F5F5F5F5F5F5E2E2E2F5F5F5F5F5F5F5F5F5F5F5F5F5F5F5F5F5F5F5F5F5F5F5F5F5F5F5F5F5F5F5F5F5F5F5F5F5F5F5F5F5F5F5F5F5F5F5F5F5F5F5F5F5F5F5F5F5F5F5F5F5F5F5F5F5F5F5F5F5F5F5F5F5F5F5F5F5F5F5F5F5F5F5F5F5F5F5F5F5F5F5F5F5F5F5F5F5F5F5F5F5F5F5F5F5F5F5F5F5F5F5
310
F5F5F5F5F5F5F5F5F5F5F5F5F5F5F5F5F5F5F5F5F5F5F5F5F5F5F5F5F5F5F5F5F5F5F5F5F5F5F5F5F5F5F5F5F5F5F5F5F5F5F5F5F5F5F5F5F5F5F5F5F5F5F5F5F5F5E2E2E2F5F5F5F5F5F5F5F5F5F5F5F5F5F5F5F5F5F5F5F5F5F5F5F5F5F5F5F5F5F5F5F5F5F5F5F5F5F5F5F5F5F5F5F5F5F5F5F5F5F5F5F5F5F5F5F5F5F5
310
F5F5F5F5F5F5F5F5F5F5F5F5F5F5F5F5F5F5F5F5F5F5F5F5F5F5F5F5F5F5F5F5F5F5F5F5F5F5F5F5F5F5F5F5F5F5F5F5F5F5F5F5F5F5F5F5F5F5F5F5F5F5F5F5F5F5F5F5F5F5F5F5F5F5F5F5F5F5F5F5F5F5F5F5F5F5F5F5F5F5F5F5F5F5F5F5F5F5F5F5F5F5F5F5F5F5F5F5F5F5F5F5F5F5F5F5F5F5F5E2E2E2F5F5F5F5F5
310
F5F5F5F5F5F5E2F5F5F5F5F5F5F5F5F5F5F5F5F5F5F5F5F5F5F5F5F5F5F5F5F5F5F5F5F5F5F5F5F5F5F5F5F5F5F5F5F5F5F5F5F5F5F5F5F5F5F5F5F5F5F5F5F5F5F5F5F5F5F5F5F5F5F5F5F5F5F5F5F5F5F5F5F5F5F5F5F5F5F5F5F5F5F5F5F5F5F5F5F5F5F5F5F5F5F5F5F5F5F5F5F5F5F5F5F5F5F5F5F5F5F5F5F5F5F5F5
310
F5F5F5F5F5F5F5F5F5F5F5F5F5F5F5F5F5F5F5F5F5F5F5F5F5F5F5F5F5F5F5F5F5E2F5F5F5F5F5F5F5F5F5F5F5E2E2E2F5F5F5F5F5F5F5F5F5F5F5E2F5F5F5F5F5F5F5F5F5F5F5F5F5F5F5F5F5F5F5F5F5F5F5F5F5F5F5F5F5F5F5F5F5F5F5F5F5F5F5F5F5F5F5F5F5F5F5F5F5F5F5F5F5F5F5F5F5F5F5F5F5F5F5F5F5F5F5
310
F5F5F5F5F5F5F5F5F5F5F5F5F5F5F5F5F5F5F5F5F5F5F5F5F5F5F5F5F5F5F5F5F5F5F5F5F5F5F5F5F5F5F5F5F5F5F5F5F5F5F5F5F5F5F5F5F5F5F5F5F5F5F5F5F5F5F5F5F5F5F5F5F5F5F5F5F5F5F5F5F5F5F5F5F5F5E2F5F5F5F5F5F5F5F5F5F5F5E2E2E2F5F5F5F5F5F5F5F5F5F5F5E2F5F5F5F5F5F5F5F5F5F5F5F5F5F5
310
F5F5F5F5F5F5F5F5F5F5F5F5F5F5F5F5F5F5F5F5F5F5F5F5F5F5F5F5F5F5F5F5F5F5F5F5F5F5F5F5F5F5F5F5F5F5F5F5F5F5F5F5F5F5F5F5F5F5F5F5F5F5F5F5F5F5F5F5F5F5F5F5F5F5F5F5F5F5F5F5F5F5F5F5F5F5F5F5F5F5F5F5F5F5F5F5F5F5F5F5F5F5F5F5F5F5F5F5F5F5F5F5F5F5F5F5F5F5F5F5F5F5F5F5F5F5F5
310
F5F5F5F5F5F5F5F5F5F5F5F5E2F5F5F5F5F5F5F5F5F5F5F5E2E2E2F5F5F5F5F5F5F5F5F5F5F5E2F5F5F5F5F5F5F5F5F5F5F5F5F5F5F5F5F5F5F5F5F5F5F5F5F5F5F5F5F5F5F5F5F5F5F5F5F5F5F5F5F5F5F5F5F5F5F5F5F5F5F5F5F5F5F5F5F5F5F5F5F5F5F5F5F5F5F5F5F5F5F5F5F5F5F5F5F5F5F5F5F5F5F5F5F5F5F5F5
310
F5F5F5F5F5F5F5F5F5F5F5F5F5F5F5F5F5F5F5F5F5F5F5F5F5F5F5F5F5F5F5F5F5F5F5F5F5F5F5F5F5F5F5F5F5F5F5F5F5F5F5F5F5F5F5F5F5F5F5F5F5F5F5F5F5E2F5F5F5F5F5F5F5F5F5F5F5E2E2E2F5F5F5F5F5F5F5F5F5F5F5E2F5F5F5F5F5F5F5F5F5F5F5F5F5F5F5F5F5F5F5F5F5F5F5F5F5F5F5F5F5F5F5F5F5F5F5
310
F5F5F5F5F5F5F5F5F5F5F5F5F5F5F5F5F5F5F5F5F5F5F5F5F5F5F5F5F5F5F5F5F5F5F5F5F5F5F5F5F5F5F5F5F5F5F5F5F5F5F5F5F5F5F5F5F5F5F5F5F5F5F5F5F5F5F5F5F5F5F5F5F5F5F5F5F5F5F5F5F5F5F5F5F5F5F5F5F5F5F5F5F5F5F5F5F5F5F5F5F5F5F5F5F5F5F5F5F5F5F5F5F5F5F5F5F5F5E2F5F5F5F5F5F5F5F5
310
F5F5F5E2E2E2F5F5F5F5F5F5F5F5F5F5F5E2F5F5F5F5F5F5F5F5F5F5F5F5F5F5F5F5F5F5F5F5F5F5F5F5F5F5F5F5F5F5F5F5F5F5F5F5F5F5F5F5F5F5F5F5F5F5F5F5F5F5F5F5F5F5F5F5F5F5F5F5F5F5F5F5F5F5F5F5F5F5F5F5F5F5F5F5F5F5F5F5F5F5F5F5F5F5F5F5F5F5F5F5F5F5F5F5F5F5F5F5F5F5F5F5F5F5F5F5F5
310
F5F5F5F5F5F5F5F5F5F5F5F5F5F5F5F5F5F5F5F5F5F5F5F5F5F5F5F5F5F5F5F5F5F5F5F5F5F5F5F5F5F5F5F5E2F5F5F5F5F5F5F5F5F5F5F5E2E2E2F5F5F5F5F5F5F5F5F5F5F5E2F5F5F5F5F5F5F5F5F5F5F5F5F5F5F5F5F5F5F5F5F5F5F5F5F5F5F5F5F5F5F5F5F5F5F5F5F5F5F5F5F5F5F5F5F5F5F5F5F5F5F5F5F5F5F5F5
310
F5F5F5F5F5F5F5F5F5F5F5F5F5F5F5F5F5F5F5F5F5F5F5F5F5F5F5F5F5F5F5F5F5F5F5F5F5F5F5F5F5F5F5F5F5F5F5F5F5F5F5F5F5F5F5F5F5F5F5F5F5F5F5F5F5F5F5F5F5F5F5F5F5F5F5F5F5F5F5F5F5F5F5F5F5F5F5F5F5F5F5F5F5F5F5F5F5E2F5F5F5F5F5F5F5F5F5F5F5E2E2E2F5F5F5F5F5F5F5F5F5F5F5E2E2E2E2
310
E2E2E2E2E2F5F5F5F5F5F5F5F5F5E2E2E2E2E2E2E2E2E2E2E2E2E2E2E2E2F5F5F5F5F5F5F5F5F5F5E2E2E2E2E2E2E2E2E2E2E2E2E2E2E2E2F5F5F5F5F5F5F5F5F5E2E2E2E2E2E2E2E2E2E2E2E2E2E2E2E2E2F5F5F5F5F5F5F5F5F5E2E2E2E2E2E2E2E2E2E2E2E2E2E2E2E2F5F5F5F5F5F5F5F5F5F5E2E2E2E2E2E2E2E2E2E2
310
E2E2E2E2E2E2F5F5F5F5F5F5F5F5F5E2E2E2E2E2E2E2E2E2F5F5F5F5F5F5F5F5F5F5F5E2E2E2F5F5F5F5F5F5F5F5F5F5F5F5F5F5F5F5F5F5F5F5F5F5F5F5F5F5F5F5F5F5F5F5F5F5F5F5F5F5F5F5F5F5F5F5F5F5F5F5F5F5F5F5F5F5F5F5F5F5F5F5F5F5F5F5F5F5F5F5F5F5F5F5F5F5F5F5F5F5F5F5F5F5F5F5F5F5F5F5F5
310
F5F5F5F5F5F5F5F5F5F5F5F5F5F5F5F5F5F5F5F5F5F5F5F5F5F5F5F5F5F5F5F5F5F5F5F5F5F5F5F5F5F5F5F5F5F5F5F5F5F5F5F5F5F5F5F5F5F5F5F5F5F5F5F5F5F5F5F5F5F5F5F5F5F5F5F5F5F5F5F5F5F5F5F5F5F5F5F5E2E2E2F5F5F5F5F5F5F5F5F5F5F5F5F5F5F5F5F5F5F5F5F5F5F5F5F5F5F5F5F5F5F5F5F5F5F5F5
310
F5F5F5F5F5F5F5F5F5F5F5F5F5F5F5F5F5F5F5F5F5F5F5F5F5F5F5F5F5F5F5F5F5F5F5F5F5F5F5F5F5F5F5F5F5F5F5F5F5F5F5F5F5F5F5F5F5F5F5F5F5F5F5F5F5F5F5F5F5F5F5F5F5F5F5F5F5F5F5F5F5F5F5F5F5F5F5F5F5F5F5F5F5F5F5F5F5F5F5F5F5F5F5F5F5F5F5F5F5F5F5F5F5F5F5F5F5F5F5F5F5F5F5F5F5F5F5
310
F5F5F5F5F5F5F5F5F5F5F5F5F5F5E2E2E2F5F5F5F5F5F5F5F5F5F5F5F5F5F5F5F5F5F5F5F5F5F5F5F5F5F5F5F5F5F5F5F5F5F5F5F5F5F5F5F5F5F5F5F5F5F5F5F5F5F5F5F5F5F5F5F5F5F5F5F5F5F5F5F5F5F5F5F5F5F5F5F5F5F5F5F5F5F5F5F5F5F5F5F5F5F5F5F5F5F5F5F5F5F5F5F5F5F5F5F5F5F5F5F5F5F5F5F5F5F5
310
F5F5F5F5F5F5F5F5F5F5F5F5F5F5F5F5F5F5F5F5F5F5F5F5F5F5F5F5F5F5F5F5F5F5F5F5F5F5F5F5F5F5F5F5F5F5F5F5F5F5F5F5F5F5F5F5F5F5F5F5F5F5F5F5F5F5F5E2E2E2F5F5F5F5F5F5F5F5F5F5F5F5F5F5F5F5F5F5F5F5F5F5F5F5F5F5F5F5F5F5F5F5F5F5F5F5F5F5F5F5F5F5F5F5F5F5F5F5F5F5F5F5F5F5F5F5F5
310
F5F5F5F5F5F5F5F5F5F5F5F5F5F5F5F5F5F5F5F5F5F5F5F5F5F5F5F5F5F5F5F5F5F5F5F5F5F5F5F5F5F5F5F5F5F5F5F5F5F5F5F5F5F5F5F5F5F5F5F5F5F5F5F5F5F5F5F5F5F5F5F5F5F5F5F5F5F5F5F5F5F5F5F5F5F5F5F5F5F5F5F5F5F5F5F5F5F5F5F5F5F5F5F5F5F5F5F5F5F5F5F5F5F5F5F5F5F5F5F5E2EFE2E2E2E2E2
310
E2E2E2E2E2E2E2E2E2E2E2E2E2E2E2E2E2E2E2E2E2E2E2E2E2E2E2E2E2E2E2E2E2E2E2E2E2E2E2E2E2E2E2E2E2E2E2E2E2E2E2E2E2E2E2E2E2E2E2E2E2E2E2E2E2E2E2E2E2E2E2E2E2E2E2E2E2E2E2E2E2E2E2E2E2E2E2E2E2E2E2E2E2E2E2E2E2E2E2E2E2E2E2E2E2E2E2E2E2E2E2E2E2E2E2E2E2E2E2E2E2E2E2E2E2E2E2
310
E2E2E2E2E2E2E2E2E2E2E2E2E2E2E2E2E2E2E2E2E2E2E2E2E2E2E2E2E2E2E2E2E2E2E2E2E2E2E2E2E2E2E2E2E2E2E2EF
  0
XRECORD
  5
B2F6
102
{ACAD_REACTORS
330
B2BE
102
}
330
B2BE
100
AcDbXrecord
280
     1
102
MATERIAL
148
0.0
149
0.0
149
0.0
 93
        0
 94
      127
282
     0
 72
     0
 77
     0
171
     0
175
     0
179
     0
273
     0
  0
XRECORD
  5
B2BF
102
{ACAD_REACTORS
330
B2BE
102
}
330
B2BE
100
AcDbXrecord
280
     1
270
     1
271
     1
  0
XRECORD
  5
B2C0
102
{ACAD_REACTORS
330
B2BE
102
}
330
B2BE
100
AcDbXrecord
280
     1
270
     1
271
     1
  0
XRECORD
  5
B2C1
102
{ACAD_REACTORS
330
B2BE
102
}
330
B2BE
100
AcDbXrecord
280
     1
270
     1
271
     1
  0
XRECORD
  5
B2C2
102
{ACAD_REACTORS
330
B2BE
102
}
330
B2BE
100
AcDbXrecord
280
     1
270
     1
271
     1
  0
XRECORD
  5
B2C3
102
{ACAD_REACTORS
330
B2BE
102
}
330
B2BE
100
AcDbXrecord
280
     1
270
     1
271
     1
  0
XRECORD
  5
B2C4
102
{ACAD_REACTORS
330
B2BE
102
}
330
B2BE
100
AcDbXrecord
280
     1
270
     1
271
     1
  0
XRECORD
  5
B2F5
102
{ACAD_REACTORS
330
B2B6
102
}
330
B2B6
100
AcDbXrecord
280
     1
102
MATERIAL
148
0.0
149
0.0
149
0.0
 93
        0
 94
      127
282
     0
 72
     0
 77
     0
171
     0
175
     0
179
     0
273
     0
  0
XRECORD
  5
B2B7
102
{ACAD_REACTORS
330
B2B6
102
}
330
B2B6
100
AcDbXrecord
280
     1
270
     1
271
     1
  0
XRECORD
  5
B2B8
102
{ACAD_REACTORS
330
B2B6
102
}
330
B2B6
100
AcDbXrecord
280
     1
270
     1
271
     1
  0
XRECORD
  5
B2B9
102
{ACAD_REACTORS
330
B2B6
102
}
330
B2B6
100
AcDbXrecord
280
     1
270
     1
271
     1
  0
XRECORD
  5
B2BA
102
{ACAD_REACTORS
330
B2B6
102
}
330
B2B6
100
AcDbXrecord
280
     1
270
     1
271
     1
  0
XRECORD
  5
B2BB
102
{ACAD_REACTORS
330
B2B6
102
}
330
B2B6
100
AcDbXrecord
280
     1
270
     1
271
     1
  0
XRECORD
  5
B2BC
102
{ACAD_REACTORS
330
B2B6
102
}
330
B2B6
100
AcDbXrecord
280
     1
270
     1
271
     1
  0
XRECORD
  5
B2F2
102
{ACAD_REACTORS
330
B28C
102
}
330
B28C
100
AcDbXrecord
280
     1
102
MATERIAL
148
0.0
149
0.0
149
0.0
 93
        0
 94
      127
282
     0
 72
     0
 77
     0
171
     0
175
     0
179
     0
273
     0
  0
XRECORD
  5
B28D
102
{ACAD_REACTORS
330
B28C
102
}
330
B28C
100
AcDbXrecord
280
     1
270
     1
271
     1
  0
XRECORD
  5
B28E
102
{ACAD_REACTORS
330
B28C
102
}
330
B28C
100
AcDbXrecord
280
     1
270
     1
271
     1
  0
XRECORD
  5
B28F
102
{ACAD_REACTORS
330
B28C
102
}
330
B28C
100
AcDbXrecord
280
     1
270
     1
271
     1
  0
XRECORD
  5
B290
102
{ACAD_REACTORS
330
B28C
102
}
330
B28C
100
AcDbXrecord
280
     1
270
     1
271
     1
  0
XRECORD
  5
B291
102
{ACAD_REACTORS
330
B28C
102
}
330
B28C
100
AcDbXrecord
280
     1
270
     1
271
     1
  0
XRECORD
  5
B292
102
{ACAD_REACTORS
330
B28C
102
}
330
B28C
100
AcDbXrecord
280
     1
270
     1
271
     1
  0
CELLSTYLEMAP
  5
B2F0
102
{ACAD_REACTORS
330
B2EF
102
}
330
B2EF
100
AcDbCellStyleMap
 90
        3
300
CELLSTYLE
  1
TABLEFORMAT_BEGIN
 90
        5
170
     1
 91
        0
 92
    32768
 62
   257
 93
        1
300
CONTENTFORMAT
  1
CONTENTFORMAT_BEGIN
 90
        0
 91
        0
 92
        4
 93
        0
300

 40
0.0
140
1.0
 94
        5
 62
     0
340
B2A2
144
6.0
309
CONTENTFORMAT_END
171
     1
301
MARGIN
  1
CELLMARGIN_BEGIN
 40
1.5
 40
1.5
 40
1.5
 40
1.5
 40
0.18
 40
0.18
309
CELLMARGIN_END
 94
        6
 95
        1
302
GRIDFORMAT
  1
GRIDFORMAT_BEGIN
 90
        0
 91
        1
 62
     0
 92
       -2
340
0
 93
        0
 40
0.045
309
GRIDFORMAT_END
 95
        2
302
GRIDFORMAT
  1
GRIDFORMAT_BEGIN
 90
        0
 91
        1
 62
     0
 92
       -2
340
0
 93
        0
 40
0.045
309
GRIDFORMAT_END
 95
        4
302
GRIDFORMAT
  1
GRIDFORMAT_BEGIN
 90
        0
 91
        1
 62
     0
 92
       -2
340
0
 93
        0
 40
0.045
309
GRIDFORMAT_END
 95
        8
302
GRIDFORMAT
  1
GRIDFORMAT_BEGIN
 90
        0
 91
        1
 62
     0
 92
       -2
340
0
 93
        0
 40
0.045
309
GRIDFORMAT_END
 95
       16
302
GRIDFORMAT
  1
GRIDFORMAT_BEGIN
 90
        0
 91
        1
 62
     0
 92
       -2
340
0
 93
        0
 40
0.045
309
GRIDFORMAT_END
 95
       32
302
GRIDFORMAT
  1
GRIDFORMAT_BEGIN
 90
        0
 91
        1
 62
     0
 92
       -2
340
0
 93
        0
 40
0.045
309
GRIDFORMAT_END
309
TABLEFORMAT_END
  1
CELLSTYLE_BEGIN
 90
        1
 91
        1
300
_TITLE
309
CELLSTYLE_END
300
CELLSTYLE
  1
TABLEFORMAT_BEGIN
 90
        5
170
     1
 91
        0
 92
        0
 62
   257
 93
        1
300
CONTENTFORMAT
  1
CONTENTFORMAT_BEGIN
 90
        0
 91
        0
 92
        4
 93
        0
300

 40
0.0
140
1.0
 94
        5
 62
     0
340
B2A2
144
4.5
309
CONTENTFORMAT_END
171
     1
301
MARGIN
  1
CELLMARGIN_BEGIN
 40
1.5
 40
1.5
 40
1.5
 40
1.5
 40
0.18
 40
0.18
309
CELLMARGIN_END
 94
        6
 95
        1
302
GRIDFORMAT
  1
GRIDFORMAT_BEGIN
 90
        0
 91
        1
 62
     0
 92
       -2
340
0
 93
        0
 40
0.045
309
GRIDFORMAT_END
 95
        2
302
GRIDFORMAT
  1
GRIDFORMAT_BEGIN
 90
        0
 91
        1
 62
     0
 92
       -2
340
0
 93
        0
 40
0.045
309
GRIDFORMAT_END
 95
        4
302
GRIDFORMAT
  1
GRIDFORMAT_BEGIN
 90
        0
 91
        1
 62
     0
 92
       -2
340
0
 93
        0
 40
0.045
309
GRIDFORMAT_END
 95
        8
302
GRIDFORMAT
  1
GRIDFORMAT_BEGIN
 90
        0
 91
        1
 62
     0
 92
       -2
340
0
 93
        0
 40
0.045
309
GRIDFORMAT_END
 95
       16
302
GRIDFORMAT
  1
GRIDFORMAT_BEGIN
 90
        0
 91
        1
 62
     0
 92
       -2
340
0
 93
        0
 40
0.045
309
GRIDFORMAT_END
 95
       32
302
GRIDFORMAT
  1
GRIDFORMAT_BEGIN
 90
        0
 91
        1
 62
     0
 92
       -2
340
0
 93
        0
 40
0.045
309
GRIDFORMAT_END
309
TABLEFORMAT_END
  1
CELLSTYLE_BEGIN
 90
        2
 91
        1
300
_HEADER
309
CELLSTYLE_END
300
CELLSTYLE
  1
TABLEFORMAT_BEGIN
 90
        5
170
     1
 91
        0
 92
        0
 62
   257
 93
        1
300
CONTENTFORMAT
  1
CONTENTFORMAT_BEGIN
 90
        0
 91
        0
 92
        4
 93
        0
300

 40
0.0
140
1.0
 94
        2
 62
     0
340
B2A2
144
4.5
309
CONTENTFORMAT_END
171
     1
301
MARGIN
  1
CELLMARGIN_BEGIN
 40
1.5
 40
1.5
 40
1.5
 40
1.5
 40
0.18
 40
0.18
309
CELLMARGIN_END
 94
        6
 95
        1
302
GRIDFORMAT
  1
GRIDFORMAT_BEGIN
 90
        0
 91
        1
 62
     0
 92
       -2
340
0
 93
        0
 40
0.045
309
GRIDFORMAT_END
 95
        2
302
GRIDFORMAT
  1
GRIDFORMAT_BEGIN
 90
        0
 91
        1
 62
     0
 92
       -2
340
0
 93
        0
 40
0.045
309
GRIDFORMAT_END
 95
        4
302
GRIDFORMAT
  1
GRIDFORMAT_BEGIN
 90
        0
 91
        1
 62
     0
 92
       -2
340
0
 93
        0
 40
0.045
309
GRIDFORMAT_END
 95
        8
302
GRIDFORMAT
  1
GRIDFORMAT_BEGIN
 90
        0
 91
        1
 62
     0
 92
       -2
340
0
 93
        0
 40
0.045
309
GRIDFORMAT_END
 95
       16
302
GRIDFORMAT
  1
GRIDFORMAT_BEGIN
 90
        0
 91
        1
 62
     0
 92
       -2
340
0
 93
        0
 40
0.045
309
GRIDFORMAT_END
 95
       32
302
GRIDFORMAT
  1
GRIDFORMAT_BEGIN
 90
        0
 91
        1
 62
     0
 92
       -2
340
0
 93
        0
 40
0.045
309
GRIDFORMAT_END
309
TABLEFORMAT_END
  1
CELLSTYLE_BEGIN
 90
        3
 91
        2
300
_DATA
309
CELLSTYLE_END
  0
XRECORD
  5
B2F7
102
{ACAD_REACTORS
330
B2EF
102
}
330
B2EF
100
AcDbXrecord
280
     1
102
ACAD_ROUNDTRIP_PRE2007_TABLESTYLE
 90
        4
 91
        0
  1

 92
        4
 93
        0
  2

 94
        4
 95
        0
  3

  0
XRECORD
  5
B2F4
102
{ACAD_REACTORS
330
B2F3
102
}
330
B2F3
100
AcDbXrecord
280
     1
102
RTVSPropertyOp0
 70
     1
102
RTVSPropertyOp1
 70
     1
102
RTVSPropertyOp2
 70
     1
102
RTVSPropertyOp3
 70
     1
102
RTVSPropertyOp4
 70
     1
102
RTVSPropertyOp5
 70
     1
102
RTVSPropertyOp6
 70
     1
102
RTVSPropertyOp7
 70
     1
102
RTVSPropertyOp8
 70
     1
102
RTVSPropertyOp9
 70
     1
102
RTVSPropertyOp10
 70
     1
102
RTVSPropertyOp11
 70
     1
102
RTVSPropertyOp12
 70
     1
102
RTVSPropertyOp13
 70
     1
102
RTVSPropertyOp14
 70
     1
102
RTVSPropertyOp15
 70
     1
102
RTVSPropertyOp16
 70
     1
102
RTVSPropertyOp17
 70
     1
102
RTVSPropertyOp18
 70
     1
102
RTVSPropertyOp19
 70
     1
102
RTVSPropertyOp20
 70
     1
102
RTVSPropertyOp21
 70
     1
102
RTVSPropertyOp22
 70
     1
102
RTVSPropertyOp23
 70
     1
102
RTVSPropertyOp24
 70
     1
102
RTVSPropertyOp25
 70
     1
102
RTVSPropertyOp26
 70
     1
102
RTVSPropertyOp27
 70
     1
  0
XRECORD
  5
B2FB
102
{ACAD_REACTORS
330
B2FA
102
}
330
B2FA
100
AcDbXrecord
280
     1
102
RTVSPropertyOp0
 70
     1
102
RTVSPropertyOp1
 70
     1
102
RTVSPropertyOp2
 70
     1
102
RTVSPropertyOp3
 70
     1
102
RTVSPropertyOp4
 70
     1
102
RTVSPropertyOp5
 70
     1
102
RTVSPropertyOp6
 70
     1
102
RTVSPropertyOp7
 70
     1
102
RTVSPropertyOp8
 70
     1
102
RTVSPropertyOp9
 70
     1
102
RTVSPropertyOp10
 70
     1
102
RTVSPropertyOp11
 70
     1
102
RTVSPropertyOp12
 70
     1
102
RTVSPropertyOp13
 70
     1
102
RTVSPropertyOp14
 70
     1
102
RTVSPropertyOp15
 70
     1
102
RTVSPropertyOp16
 70
     1
102
RTVSPropertyOp17
 70
     1
102
RTVSPropertyOp18
 70
     1
102
RTVSPropertyOp19
 70
     1
102
RTVSPropertyOp20
 70
     1
102
RTVSPropertyOp21
 70
     1
102
RTVSPropertyOp22
 70
     1
102
RTVSPropertyOp23
 70
     1
102
RTVSPropertyOp24
 70
     1
102
RTVSPropertyOp25
 70
     1
102
RTVSPropertyOp26
 70
     1
102
RTVSPropertyOp27
 70
     1
  0
XRECORD
  5
B2F9
102
{ACAD_REACTORS
330
B2F8
102
}
330
B2F8
100
AcDbXrecord
280
     1
102
RTVSPropertyOp0
 70
     1
102
RTVSPropertyOp1
 70
     1
102
RTVSPropertyOp2
 70
     1
102
RTVSPropertyOp3
 70
     1
102
RTVSPropertyOp4
 70
     1
102
RTVSPropertyOp5
 70
     1
102
RTVSPropertyOp6
 70
     1
102
RTVSPropertyOp7
 70
     1
102
RTVSPropertyOp8
 70
     1
102
RTVSPropertyOp9
 70
     1
102
RTVSPropertyOp10
 70
     1
102
RTVSPropertyOp11
 70
     1
102
RTVSPropertyOp12
 70
     1
102
RTVSPropertyOp13
 70
     1
102
RTVSPropertyOp14
 70
     1
102
RTVSPropertyOp15
 70
     1
102
RTVSPropertyOp16
 70
     1
102
RTVSPropertyOp17
 70
     1
102
RTVSPropertyOp18
 70
     1
102
RTVSPropertyOp19
 70
     1
102
RTVSPropertyOp20
 70
     1
102
RTVSPropertyOp21
 70
     1
102
RTVSPropertyOp22
 70
     1
102
RTVSPropertyOp23
 70
     1
102
RTVSPropertyOp24
 70
     1
102
RTVSPropertyOp25
 70
     1
102
RTVSPropertyOp26
 70
     1
102
RTVSPropertyOp27
 70
     1
  0
ENDSEC
  0
EOF
