  0
SECTION
  2
HEADER
  9
$ACADVER
  1
AC1018
  9
$ACADMAINTVER
 70
   104
  9
$DWGCODEPAGE
  3
ANSI_932
  9
$AUTHOR
  1
pyxis04
  9
$LASTSAVEDBY
  1
pyxis04
  9
$INSBASE
 10
0.0
 20
0.0
 30
0.0
  9
$EXTMIN
 10
171873.1
 20
27369.1
 30
0.0
  9
$EXTMAX
 10
201573.2
 20
48369.2
 30
0.0
  9
$LIMMIN
 10
113974.262998
 20
-34879.737002
  9
$LIMMAX
 10
259472.037002
 20
110618.037002
  9
$ORTHOMODE
 70
     0
  9
$REGENMODE
 70
     1
  9
$FILLMODE
 70
     1
  9
$QTEXTMODE
 70
     0
  9
$MIRRTEXT
 70
     0
  9
$LTSCALE
 40
1.0
  9
$ATTMODE
 70
     1
  9
$TEXTSIZE
 40
275.0
  9
$TRACEWID
 40
1.0
  9
$TEXTSTYLE
  7
Standard
  9
$CLAYER
  8
A221_記入文字
  9
$CELTYPE
  6
Continuous
  9
$CECOLOR
 62
     7
  9
$CELTSCALE
 40
50.0
  9
$DISPSILH
 70
     0
  9
$DIMSCALE
 40
1.0
  9
$DIMASZ
 40
2.5
  9
$DIMEXO
 40
0.625
  9
$DIMDLI
 40
3.75
  9
$DIMRND
 40
0.0
  9
$DIMDLE
 40
0.0
  9
$DIMEXE
 40
1.25
  9
$DIMTP
 40
0.0
  9
$DIMTM
 40
0.0
  9
$DIMTXT
 40
2.5
  9
$DIMCEN
 40
2.5
  9
$DIMTSZ
 40
0.0
  9
$DIMTOL
 70
     0
  9
$DIMLIM
 70
     0
  9
$DIMTIH
 70
     0
  9
$DIMTOH
 70
     0
  9
$DIMSE1
 70
     0
  9
$DIMSE2
 70
     0
  9
$DIMTAD
 70
     1
  9
$DIMZIN
 70
     8
  9
$DIMBLK
  1

  9
$DIMASO
 70
     1
  9
$DIMSHO
 70
     1
  9
$DIMPOST
  1

  9
$DIMAPOST
  1

  9
$DIMALT
 70
     0
  9
$DIMALTD
 70
     3
  9
$DIMALTF
 40
0.03937
  9
$DIMLFAC
 40
1.0
  9
$DIMTOFL
 70
     1
  9
$DIMTVP
 40
0.0
  9
$DIMTIX
 70
     0
  9
$DIMSOXD
 70
     0
  9
$DIMSAH
 70
     0
  9
$DIMBLK1
  1

  9
$DIMBLK2
  1

  9
$DIMSTYLE
  2
ISO-25
  9
$DIMCLRD
 70
     0
  9
$DIMCLRE
 70
     0
  9
$DIMCLRT
 70
     0
  9
$DIMTFAC
 40
1.0
  9
$DIMGAP
 40
0.625
  9
$DIMJUST
 70
     0
  9
$DIMSD1
 70
     0
  9
$DIMSD2
 70
     0
  9
$DIMTOLJ
 70
     0
  9
$DIMTZIN
 70
     8
  9
$DIMALTZ
 70
     0
  9
$DIMALTTZ
 70
     0
  9
$DIMUPT
 70
     0
  9
$DIMDEC
 70
     2
  9
$DIMTDEC
 70
     2
  9
$DIMALTU
 70
     2
  9
$DIMALTTD
 70
     3
  9
$DIMTXSTY
  7
Standard
  9
$DIMAUNIT
 70
     0
  9
$DIMADEC
 70
     0
  9
$DIMALTRND
 40
0.0
  9
$DIMAZIN
 70
     0
  9
$DIMDSEP
 70
    44
  9
$DIMATFIT
 70
     3
  9
$DIMFRAC
 70
     0
  9
$DIMLDRBLK
  1

  9
$DIMLUNIT
 70
     2
  9
$DIMLWD
 70
    -2
  9
$DIMLWE
 70
    -2
  9
$DIMTMOVE
 70
     0
  9
$LUNITS
 70
     2
  9
$LUPREC
 70
     6
  9
$SKETCHINC
 40
1.0
  9
$FILLETRAD
 40
0.0
  9
$AUNITS
 70
     0
  9
$AUPREC
 70
     8
  9
$MENU
  1
.
  9
$ELEVATION
 40
0.0
  9
$PELEVATION
 40
0.0
  9
$THICKNESS
 40
0.0
  9
$LIMCHECK
 70
     0
  9
$CHAMFERA
 40
0.0
  9
$CHAMFERB
 40
0.0
  9
$CHAMFERC
 40
0.0
  9
$CHAMFERD
 40
0.0
  9
$SKPOLY
 70
     0
  9
$TDCREATE
 40
2454145.195247280
  9
$TDUCREATE
 40
2454144.820247280
  9
$TDUPDATE
 40
2454145.196122512
  9
$TDUUPDATE
 40
2454144.821122512
  9
$TDINDWG
 40
0.0008795486
  9
$TDUSRTIMER
 40
0.0008776968
  9
$USRTIMER
 70
     1
  9
$ANGBASE
 50
0.0
  9
$ANGDIR
 70
     0
  9
$PDMODE
 70
     0
  9
$PDSIZE
 40
0.0
  9
$PLINEWID
 40
0.0
  9
$SPLFRAME
 70
     0
  9
$SPLINETYPE
 70
     6
  9
$SPLINESEGS
 70
     8
  9
$HANDSEED
  5
CFED
  9
$SURFTAB1
 70
     6
  9
$SURFTAB2
 70
     6
  9
$SURFTYPE
 70
     6
  9
$SURFU
 70
     6
  9
$SURFV
 70
     6
  9
$UCSBASE
  2

  9
$UCSNAME
  2

  9
$UCSORG
 10
0.0
 20
0.0
 30
0.0
  9
$UCSXDIR
 10
1.0
 20
0.0
 30
0.0
  9
$UCSYDIR
 10
0.0
 20
1.0
 30
0.0
  9
$UCSORTHOREF
  2

  9
$UCSORTHOVIEW
 70
     0
  9
$UCSORGTOP
 10
0.0
 20
0.0
 30
0.0
  9
$UCSORGBOTTOM
 10
0.0
 20
0.0
 30
0.0
  9
$UCSORGLEFT
 10
0.0
 20
0.0
 30
0.0
  9
$UCSORGRIGHT
 10
0.0
 20
0.0
 30
0.0
  9
$UCSORGFRONT
 10
0.0
 20
0.0
 30
0.0
  9
$UCSORGBACK
 10
0.0
 20
0.0
 30
0.0
  9
$PUCSBASE
  2

  9
$PUCSNAME
  2

  9
$PUCSORG
 10
0.0
 20
0.0
 30
0.0
  9
$PUCSXDIR
 10
1.0
 20
0.0
 30
0.0
  9
$PUCSYDIR
 10
0.0
 20
1.0
 30
0.0
  9
$PUCSORTHOREF
  2

  9
$PUCSORTHOVIEW
 70
     0
  9
$PUCSORGTOP
 10
0.0
 20
0.0
 30
0.0
  9
$PUCSORGBOTTOM
 10
0.0
 20
0.0
 30
0.0
  9
$PUCSORGLEFT
 10
0.0
 20
0.0
 30
0.0
  9
$PUCSORGRIGHT
 10
0.0
 20
0.0
 30
0.0
  9
$PUCSORGFRONT
 10
0.0
 20
0.0
 30
0.0
  9
$PUCSORGBACK
 10
0.0
 20
0.0
 30
0.0
  9
$USERI1
 70
     0
  9
$USERI2
 70
     0
  9
$USERI3
 70
     0
  9
$USERI4
 70
     0
  9
$USERI5
 70
     0
  9
$USERR1
 40
0.0
  9
$USERR2
 40
0.0
  9
$USERR3
 40
0.0
  9
$USERR4
 40
0.0
  9
$USERR5
 40
0.0
  9
$WORLDVIEW
 70
     1
  9
$SHADEDGE
 70
     3
  9
$SHADEDIF
 70
    70
  9
$TILEMODE
 70
     1
  9
$MAXACTVP
 70
    64
  9
$PINSBASE
 10
0.0
 20
0.0
 30
0.0
  9
$PLIMCHECK
 70
     0
  9
$PEXTMIN
 10
25.7
 20
19.5
 30
0.0
  9
$PEXTMAX
 10
231.3
 20
175.5
 30
0.0
  9
$PLIMMIN
 10
-20.0
 20
-7.5
  9
$PLIMMAX
 10
277.0
 20
202.5
  9
$UNITMODE
 70
     0
  9
$VISRETAIN
 70
     1
  9
$PLINEGEN
 70
     0
  9
$PSLTSCALE
 70
     0
  9
$TREEDEPTH
 70
  3020
  9
$CMLSTYLE
  2
Standard
  9
$CMLJUST
 70
     0
  9
$CMLSCALE
 40
20.0
  9
$PROXYGRAPHICS
 70
     1
  9
$MEASUREMENT
 70
     1
  9
$CELWEIGHT
370
    13
  9
$ENDCAPS
280
     0
  9
$JOINSTYLE
280
     0
  9
$LWDISPLAY
290
     1
  9
$INSUNITS
 70
     4
  9
$HYPERLINKBASE
  1

  9
$STYLESHEET
  1

  9
$XEDIT
290
     1
  9
$CEPSNTYPE
380
     0
  9
$PSTYLEMODE
290
     1
  9
$FINGERPRINTGUID
  2
{95833768-B3DF-4CEF-BCD2-0469C5FA1710}
  9
$VERSIONGUID
  2
{387A601E-E697-4F95-A263-71BCBFF6BFF5}
  9
$EXTNAMES
290
     1
  9
$PSVPSCALE
 40
0.0
  9
$OLESTARTUP
290
     0
  9
$SORTENTS
280
   127
  9
$INDEXCTL
280
     0
  9
$HIDETEXT
280
     1
  9
$XCLIPFRAME
290
     0
  9
$HALOGAP
280
     0
  9
$OBSCOLOR
 70
   257
  9
$OBSLTYPE
280
     0
  9
$INTERSECTIONDISPLAY
280
     0
  9
$INTERSECTIONCOLOR
 70
   257
  9
$DIMASSOC
280
     1
  9
$PROJECTNAME
  1

  0
ENDSEC
  0
SECTION
  2
CLASSES
  0
CLASS
  1
ACDBDICTIONARYWDFLT
  2
AcDbDictionaryWithDefault
  3
ObjectDBX Classes
 90
        0
 91
        1
280
     0
281
     0
  0
CLASS
  1
DICTIONARYVAR
  2
AcDbDictionaryVar
  3
ObjectDBX Classes
 90
        0
 91
        3
280
     0
281
     0
  0
CLASS
  1
TABLESTYLE
  2
AcDbTableStyle
  3
ObjectDBX Classes
 90
     4095
 91
        1
280
     0
281
     0
  0
CLASS
  1
MATERIAL
  2
AcDbMaterial
  3
ObjectDBX Classes
 90
     1153
 91
        3
280
     0
281
     0
  0
CLASS
  1
VISUALSTYLE
  2
AcDbVisualStyle
  3
ObjectDBX Classes
 90
     4095
 91
        3
280
     0
281
     0
  0
CLASS
  1
SCALE
  2
AcDbScale
  3
ObjectDBX Classes
 90
     1153
 91
       17
280
     0
281
     0
  0
CLASS
  1
MLEADERSTYLE
  2
AcDbMLeaderStyle
  3
ACDB_MLEADERSTYLE_CLASS
 90
     4095
 91
        0
280
     0
281
     0
  0
CLASS
  1
CELLSTYLEMAP
  2
AcDbCellStyleMap
  3
ObjectDBX Classes
 90
     1152
 91
        1
280
     0
281
     0
  0
ENDSEC
  0
SECTION
  2
TABLES
  0
TABLE
  2
VPORT
  5
CF9A
330
0
100
AcDbSymbolTable
 70
     2
  0
VPORT
  5
4B
330
CF9A
100
AcDbSymbolTableRecord
100
AcDbViewportTableRecord
  2
*ACTIVE
 70
     0
 10
0.0
 20
0.0
 11
1.0
 21
1.0
 12
186723.137725
 22
37869.154865
 13
0.0
 23
0.0
 14
100.0
 24
100.0
 15
100.0
 25
100.0
 16
0.0
 26
0.0
 36
1.0
 17
0.0
 27
0.0
 37
0.0
 40
21840.0
 41
3.442559
 42
50.0
 43
0.0
 44
0.0
 50
0.0
 51
0.0
 71
     0
 72
   100
 73
     1
 74
     0
 75
     0
 76
     0
 77
     0
 78
     1
281
     0
 65
     1
110
0.0
120
0.0
130
0.0
111
1.0
121
0.0
131
0.0
112
0.0
122
1.0
132
0.0
 79
     0
146
0.0
  0
ENDTAB
  0
TABLE
  2
LTYPE
  5
CF95
330
0
100
AcDbSymbolTable
 70
    13
  0
LTYPE
  5
CF96
330
CF95
100
AcDbSymbolTableRecord
100
AcDbLinetypeTableRecord
  2
ByBlock
 70
     0
  3

 72
    65
 73
     0
 40
0.0
  0
LTYPE
  5
CF97
330
CF95
100
AcDbSymbolTableRecord
100
AcDbLinetypeTableRecord
  2
ByLayer
 70
     0
  3

 72
    65
 73
     0
 40
0.0
  0
LTYPE
  5
CF84
330
CF95
100
AcDbSymbolTableRecord
100
AcDbLinetypeTableRecord
  2
Continuous
 70
     0
  3
Solid line
 72
    65
 73
     0
 40
0.0
  0
LTYPE
  5
442B
330
CF95
100
AcDbSymbolTableRecord
100
AcDbLinetypeTableRecord
  2
4_CENTER2
 70
     0
  3

 72
    65
 73
     4
 40
1.88
 49
1.4
 74
     0
 49
-0.16
 74
     0
 49
0.16
 74
     0
 49
-0.16
 74
     0
  0
LTYPE
  5
442D
330
CF95
100
AcDbSymbolTableRecord
100
AcDbLinetypeTableRecord
  2
7_CENTER
 70
     0
  3

 72
    65
 73
     4
 40
6.68
 49
6.2
 74
     0
 49
-0.16
 74
     0
 49
0.16
 74
     0
 49
-0.16
 74
     0
  0
LTYPE
  5
4510
330
CF95
100
AcDbSymbolTableRecord
100
AcDbLinetypeTableRecord
  2
2_HIDDEN2
 70
     0
  3

 72
    65
 73
     2
 40
0.34
 49
0.24
 74
     0
 49
-0.1
 74
     0
  0
LTYPE
  5
454A
330
CF95
100
AcDbSymbolTableRecord
100
AcDbLinetypeTableRecord
  2
1_HIDDEN
 70
     0
  3

 72
    65
 73
     2
 40
0.1
 49
0.0
 74
     0
 49
-0.1
 74
     0
  0
LTYPE
  5
455C
330
CF95
100
AcDbSymbolTableRecord
100
AcDbLinetypeTableRecord
  2
6_PHANTOM
 70
     0
  3

 72
    65
 73
     6
 40
4.9
 49
4.2
 74
     0
 49
-0.14
 74
     0
 49
0.14
 74
     0
 49
-0.14
 74
     0
 49
0.14
 74
     0
 49
-0.14
 74
     0
  0
LTYPE
  5
456E
330
CF95
100
AcDbSymbolTableRecord
100
AcDbLinetypeTableRecord
  2
3_DASHED
 70
     0
  3

 72
    65
 73
     2
 40
0.58
 49
0.48
 74
     0
 49
-0.1
 74
     0
  0
LTYPE
  5
4D7E
330
CF95
100
AcDbSymbolTableRecord
100
AcDbLinetypeTableRecord
  2
CENTER
 70
     0
  3

 72
    65
 73
     4
 40
50.8
 49
31.75
 74
     0
 49
-6.35
 74
     0
 49
6.35
 74
     0
 49
-6.35
 74
     0
  0
LTYPE
  5
CFD2
330
CF95
100
AcDbSymbolTableRecord
100
AcDbLinetypeTableRecord
  2
DGN Style 1
 70
     0
  3
Dgn Style 1
 72
    65
 73
     2
 40
0.6
 49
0.0
 74
     0
 49
-0.6
 74
     0
  0
LTYPE
  5
CFD3
330
CF95
100
AcDbSymbolTableRecord
100
AcDbLinetypeTableRecord
  2
DGN Style 2
 70
     0
  3
Dgn Style 2
 72
    65
 73
     2
 40
1.0
 49
0.6
 74
     0
 49
-0.4
 74
     0
  0
LTYPE
  5
CFD4
330
CF95
100
AcDbSymbolTableRecord
100
AcDbLinetypeTableRecord
  2
DGN Style 6
 70
     0
  3
Dgn Style 6
 72
    65
 73
     6
 40
1.9
 49
0.0
 74
     0
 49
-0.4
 74
     0
 49
0.7
 74
     0
 49
-0.4
 74
     0
 49
0.0
 74
     0
 49
-0.4
 74
     0
  0
LTYPE
  5
CFD5
330
CF95
100
AcDbSymbolTableRecord
100
AcDbLinetypeTableRecord
  2
DGN Style 4
 70
     0
  3
Dgn Style 4
 72
    65
 73
     4
 40
1.6
 49
0.8
 74
     0
 49
-0.4
 74
     0
 49
0.0
 74
     0
 49
-0.4
 74
     0
  0
LTYPE
  5
CFD6
330
CF95
100
AcDbSymbolTableRecord
100
AcDbLinetypeTableRecord
  2
DGN Style 3
 70
     0
  3
Dgn Style 3
 72
    65
 73
     2
 40
1.4
 49
1.0
 74
     0
 49
-0.4
 74
     0
  0
ENDTAB
  0
TABLE
  2
LAYER
  5
CF8F
102
{ACAD_XDICTIONARY
360
CF90
102
}
330
0
100
AcDbSymbolTable
 70
   139
  0
LAYER
  5
CF77
330
CF8F
100
AcDbSymbolTableRecord
100
AcDbLayerTableRecord
  2
0
 70
     0
 62
     7
  6
Continuous
370
    -3
390
CF78
  0
LAYER
  5
53C2
330
CF8F
100
AcDbSymbolTableRecord
100
AcDbLayerTableRecord
  2
A231_壁：種別
 70
     0
 62
     7
  6
Continuous
370
     9
390
CF78
  0
LAYER
  5
9B55
330
CF8F
100
AcDbSymbolTableRecord
100
AcDbLayerTableRecord
  2
1階座席
 70
     0
 62
     3
  6
Continuous
370
     9
390
CF78
  0
LAYER
  5
9BED
330
CF8F
100
AcDbSymbolTableRecord
100
AcDbLayerTableRecord
  2
3-0通芯
 70
     0
 62
     7
  6
Continuous
370
     9
390
CF78
  0
LAYER
  5
AEB3
330
CF8F
100
AcDbSymbolTableRecord
100
AcDbLayerTableRecord
  2
枠
 70
     0
 62
     7
  6
Continuous
290
     0
370
     9
390
CF78
  0
LAYER
  5
AEB4
330
CF8F
100
AcDbSymbolTableRecord
100
AcDbLayerTableRecord
  2
2階座席
 70
     0
 62
     5
  6
Continuous
370
     9
390
CF78
  0
LAYER
  5
AEB5
330
CF8F
100
AcDbSymbolTableRecord
100
AcDbLayerTableRecord
  2
_1-A_平面__断面図_008_地下１階平面図
 70
     0
 62
     7
  6
Continuous
370
     9
390
CF78
  0
LAYER
  5
4D86
330
CF8F
100
AcDbSymbolTableRecord
100
AcDbLayerTableRecord
  2
A242_記号２
 70
     0
 62
     7
  6
Continuous
370
     9
390
CF78
  0
LAYER
  5
4D87
330
CF8F
100
AcDbSymbolTableRecord
100
AcDbLayerTableRecord
  2
A670_細点線
 70
     0
 62
     7
  6
DGN Style 1
370
     9
390
CF78
  0
LAYER
  5
4D88
330
CF8F
100
AcDbSymbolTableRecord
100
AcDbLayerTableRecord
  2
A661_中破線
 70
     0
 62
     7
  6
DGN Style 2
370
    13
390
CF78
  0
LAYER
  5
4D89
330
CF8F
100
AcDbSymbolTableRecord
100
AcDbLayerTableRecord
  2
A622_シャッター
 70
     0
 62
     7
  6
DGN Style 6
370
    13
390
CF78
  0
LAYER
  5
4D8A
330
CF8F
100
AcDbSymbolTableRecord
100
AcDbLayerTableRecord
  2
A854_衛生設備_記号
 70
     0
 62
   250
  6
Continuous
370
    13
390
CF78
  0
LAYER
  5
4D8B
330
CF8F
100
AcDbSymbolTableRecord
100
AcDbLayerTableRecord
  2
A322_ハッチング点線
 70
     0
 62
     7
  6
DGN Style 1
370
     9
390
CF78
  0
LAYER
  5
4D8C
330
CF8F
100
AcDbSymbolTableRecord
100
AcDbLayerTableRecord
  2
A743_駐車場
 70
     0
 62
     7
  6
Continuous
370
     9
390
CF78
  0
LAYER
  5
4D8D
330
CF8F
100
AcDbSymbolTableRecord
100
AcDbLayerTableRecord
  2
A740_外構
 70
     0
 62
     7
  6
Continuous
370
     9
390
CF78
  0
LAYER
  5
4D8E
330
CF8F
100
AcDbSymbolTableRecord
100
AcDbLayerTableRecord
  2
A823_サイン
 70
     0
 62
     7
  6
Continuous
370
     9
390
CF78
  0
LAYER
  5
4D8F
330
CF8F
100
AcDbSymbolTableRecord
100
AcDbLayerTableRecord
  2
A856_消防設備
 70
     0
 62
     7
  6
DGN Style 6
370
    13
390
CF78
  0
LAYER
  5
4D90
330
CF8F
100
AcDbSymbolTableRecord
100
AcDbLayerTableRecord
  2
A571_床ピット
 70
     0
 62
     7
  6
Continuous
370
     9
390
CF78
  0
LAYER
  5
4D91
330
CF8F
100
AcDbSymbolTableRecord
100
AcDbLayerTableRecord
  2
C132_ＧＬ
 70
     0
 62
     7
  6
DGN Style 4
370
     9
390
CF78
  0
LAYER
  5
4D92
330
CF8F
100
AcDbSymbolTableRecord
100
AcDbLayerTableRecord
  2
A343_基礎
 70
     0
 62
     7
  6
Continuous
370
     9
390
CF78
  0
LAYER
  5
4D93
330
CF8F
100
AcDbSymbolTableRecord
100
AcDbLayerTableRecord
  2
A344_樋
 70
     0
 62
     7
  6
Continuous
370
     9
390
CF78
  0
LAYER
  5
AEB6
330
CF8F
100
AcDbSymbolTableRecord
100
AcDbLayerTableRecord
  2
_0-D_平面__断面図_4-1建具
 70
     0
 62
     7
  6
Continuous
370
     9
390
CF78
  0
LAYER
  5
4D95
330
CF8F
100
AcDbSymbolTableRecord
100
AcDbLayerTableRecord
  2
A711_自敷地境界線
 70
     0
 62
     7
  6
DGN Style 6
370
    30
390
CF78
  0
LAYER
  5
4D96
330
CF8F
100
AcDbSymbolTableRecord
100
AcDbLayerTableRecord
  2
A733_工作物
 70
     0
 62
     7
  6
Continuous
370
     9
390
CF78
  0
LAYER
  5
4D97
330
CF8F
100
AcDbSymbolTableRecord
100
AcDbLayerTableRecord
  2
A732_舗装
 70
     0
 62
     7
  6
Continuous
370
     9
390
CF78
  0
LAYER
  5
4D98
330
CF8F
100
AcDbSymbolTableRecord
100
AcDbLayerTableRecord
  2
A741_擁壁
 70
     0
 62
     7
  6
Continuous
370
     9
390
CF78
  0
LAYER
  5
4D99
330
CF8F
100
AcDbSymbolTableRecord
100
AcDbLayerTableRecord
  2
A742_解体建物
 70
     0
 62
     7
  6
Continuous
370
     9
390
CF78
  0
LAYER
  5
4D9A
330
CF8F
100
AcDbSymbolTableRecord
100
AcDbLayerTableRecord
  2
A650_細実線
 70
     0
 62
    30
  6
Continuous
370
     9
390
CF78
  0
LAYER
  5
4D9B
330
CF8F
100
AcDbSymbolTableRecord
100
AcDbLayerTableRecord
  2
A651_中実線
 70
     0
 62
     7
  6
Continuous
370
    13
390
CF78
  0
LAYER
  5
4D9C
330
CF8F
100
AcDbSymbolTableRecord
100
AcDbLayerTableRecord
  2
A652_太実線
 70
     0
 62
     7
  6
Continuous
370
    30
390
CF78
  0
LAYER
  5
4D9D
330
CF8F
100
AcDbSymbolTableRecord
100
AcDbLayerTableRecord
  2
A660_細破線
 70
     0
 62
     7
  6
DGN Style 2
370
     9
390
CF78
  0
LAYER
  5
4D9E
330
CF8F
100
AcDbSymbolTableRecord
100
AcDbLayerTableRecord
  2
A662_太破線
 70
     0
 62
     7
  6
DGN Style 2
370
    30
390
CF78
  0
LAYER
  5
4D9F
330
CF8F
100
AcDbSymbolTableRecord
100
AcDbLayerTableRecord
  2
A671_中点線
 70
     0
 62
     7
  6
DGN Style 1
370
    13
390
CF78
  0
LAYER
  5
4DA0
330
CF8F
100
AcDbSymbolTableRecord
100
AcDbLayerTableRecord
  2
A672_太点線
 70
     0
 62
     7
  6
DGN Style 1
370
    30
390
CF78
  0
LAYER
  5
4DA1
330
CF8F
100
AcDbSymbolTableRecord
100
AcDbLayerTableRecord
  2
A680_細鎖線
 70
     0
 62
     7
  6
DGN Style 6
370
     9
390
CF78
  0
LAYER
  5
4DA2
330
CF8F
100
AcDbSymbolTableRecord
100
AcDbLayerTableRecord
  2
A681_中鎖線
 70
     0
 62
     7
  6
DGN Style 6
370
    13
390
CF78
  0
LAYER
  5
4DA3
330
CF8F
100
AcDbSymbolTableRecord
100
AcDbLayerTableRecord
  2
A682_太鎖線
 70
     0
 62
     7
  6
DGN Style 6
370
    30
390
CF78
  0
LAYER
  5
4DA4
330
CF8F
100
AcDbSymbolTableRecord
100
AcDbLayerTableRecord
  2
A244_記号中線
 70
     0
 62
     7
  6
Continuous
370
    13
390
CF78
  0
LAYER
  5
4DA5
330
CF8F
100
AcDbSymbolTableRecord
100
AcDbLayerTableRecord
  2
A245_記号太線
 70
     0
 62
     7
  6
Continuous
370
    30
390
CF78
  0
LAYER
  5
4DA6
330
CF8F
100
AcDbSymbolTableRecord
100
AcDbLayerTableRecord
  2
A246_記号点線
 70
     0
 62
     7
  6
DGN Style 1
370
     9
390
CF78
  0
LAYER
  5
4DA7
330
CF8F
100
AcDbSymbolTableRecord
100
AcDbLayerTableRecord
  2
A247_記号破線
 70
     0
 62
     7
  6
DGN Style 2
370
     9
390
CF78
  0
LAYER
  5
4DA8
330
CF8F
100
AcDbSymbolTableRecord
100
AcDbLayerTableRecord
  2
A323_ハッチング破線
 70
     0
 62
     7
  6
DGN Style 2
370
     9
390
CF78
  0
LAYER
  5
4DA9
330
CF8F
100
AcDbSymbolTableRecord
100
AcDbLayerTableRecord
  2
A714_各種制限線
 70
     0
 62
     7
  6
DGN Style 6
370
     9
390
CF78
  0
LAYER
  5
4DAA
330
CF8F
100
AcDbSymbolTableRecord
100
AcDbLayerTableRecord
  2
A565_目地点線
 70
     0
 62
     7
  6
DGN Style 1
370
     9
390
CF78
  0
LAYER
  5
4DAB
330
CF8F
100
AcDbSymbolTableRecord
100
AcDbLayerTableRecord
  2
A566_目地破線
 70
     0
 62
     7
  6
DGN Style 2
370
     9
390
CF78
  0
LAYER
  5
4DAC
330
CF8F
100
AcDbSymbolTableRecord
100
AcDbLayerTableRecord
  2
A347_防水
 70
     0
 62
     7
  6
DGN Style 6
370
    13
390
CF78
  0
LAYER
  5
4DAD
330
CF8F
100
AcDbSymbolTableRecord
100
AcDbLayerTableRecord
  2
A222_引出線
 70
     0
 62
     7
  6
Continuous
370
     9
390
CF78
  0
LAYER
  5
4DAE
330
CF8F
100
AcDbSymbolTableRecord
100
AcDbLayerTableRecord
  2
A712_他敷地境界線
 70
     0
 62
     7
  6
DGN Style 6
370
     9
390
CF78
  0
LAYER
  5
4DAF
330
CF8F
100
AcDbSymbolTableRecord
100
AcDbLayerTableRecord
  2
A614_カーテン実線
 70
     0
 62
     7
  6
Continuous
370
     9
390
CF78
  0
LAYER
  5
4DB0
330
CF8F
100
AcDbSymbolTableRecord
100
AcDbLayerTableRecord
  2
A842_搬送機破線
 70
     0
 62
     7
  6
DGN Style 2
370
     9
390
CF78
  0
LAYER
  5
4DB1
330
CF8F
100
AcDbSymbolTableRecord
100
AcDbLayerTableRecord
  2
C131_通芯
 70
     0
 62
     7
  6
DGN Style 4
370
     9
390
CF78
  0
LAYER
  5
4DB2
330
CF8F
100
AcDbSymbolTableRecord
100
AcDbLayerTableRecord
  2
C151_壁芯
 70
     0
 62
     7
  6
DGN Style 4
370
     9
390
CF78
  0
LAYER
  5
4DB3
330
CF8F
100
AcDbSymbolTableRecord
100
AcDbLayerTableRecord
  2
C135_捨芯
 70
     0
 62
     7
  6
DGN Style 4
290
     0
370
     9
390
CF78
  0
LAYER
  5
AEB7
330
CF8F
100
AcDbSymbolTableRecord
100
AcDbLayerTableRecord
  2
_0-6_平面__断面図_3-4ALC
 70
     0
 62
   253
  6
Continuous
370
     9
390
CF78
  0
LAYER
  5
4999
330
CF8F
100
AcDbSymbolTableRecord
100
AcDbLayerTableRecord
  2
A221_記入文字
 70
     0
 62
     7
  6
Continuous
370
     9
390
CF78
  0
LAYER
  5
4C79
330
CF8F
100
AcDbSymbolTableRecord
100
AcDbLayerTableRecord
  2
A341_床ピット
 70
     0
 62
   201
  6
Continuous
370
    13
390
CF78
  0
LAYER
  5
4C7B
330
CF8F
100
AcDbSymbolTableRecord
100
AcDbLayerTableRecord
  2
C111_図枠
 70
     0
 62
     7
  6
Continuous
370
     9
390
CF78
  0
LAYER
  5
4C7D
330
CF8F
100
AcDbSymbolTableRecord
100
AcDbLayerTableRecord
  2
C121_図面名称
 70
     0
 62
     7
  6
Continuous
370
    53
390
CF78
  0
LAYER
  5
4C7F
330
CF8F
100
AcDbSymbolTableRecord
100
AcDbLayerTableRecord
  2
C115_OFF
 70
     0
 62
     7
  6
Continuous
290
     0
370
     9
390
CF78
  0
LAYER
  5
4C83
330
CF8F
100
AcDbSymbolTableRecord
100
AcDbLayerTableRecord
  2
C132_FL
 70
     0
 62
     7
  6
Continuous
370
    40
390
CF78
  0
LAYER
  5
4C87
330
CF8F
100
AcDbSymbolTableRecord
100
AcDbLayerTableRecord
  2
C133_雑芯
 70
     0
 62
     7
  6
DGN Style 4
370
     9
390
CF78
  0
LAYER
  5
4C89
330
CF8F
100
AcDbSymbolTableRecord
100
AcDbLayerTableRecord
  2
C134_雑芯２
 70
     0
 62
     7
  6
DGN Style 4
370
     9
390
CF78
  0
LAYER
  5
4C8D
330
CF8F
100
AcDbSymbolTableRecord
100
AcDbLayerTableRecord
  2
C136_雑芯３
 70
     0
 62
     7
  6
DGN Style 4
370
     9
390
CF78
  0
LAYER
  5
4C8F
330
CF8F
100
AcDbSymbolTableRecord
100
AcDbLayerTableRecord
  2
C137_雑芯４
 70
     0
 62
   254
  6
DGN Style 4
370
     9
390
CF78
  0
LAYER
  5
4C91
330
CF8F
100
AcDbSymbolTableRecord
100
AcDbLayerTableRecord
  2
C138_雑芯５
 70
     0
 62
    40
  6
DGN Style 4
370
     9
390
CF78
  0
LAYER
  5
4459
330
CF8F
100
AcDbSymbolTableRecord
100
AcDbLayerTableRecord
  2
C161_通心寸法
 70
     0
 62
     7
  6
Continuous
370
     9
390
CF78
  0
LAYER
  5
445D
330
CF8F
100
AcDbSymbolTableRecord
100
AcDbLayerTableRecord
  2
C162_その他寸法
 70
     0
 62
     7
  6
Continuous
370
     9
390
CF78
  0
LAYER
  5
4C95
330
CF8F
100
AcDbSymbolTableRecord
100
AcDbLayerTableRecord
  2
A211_室名
 70
     0
 62
     7
  6
Continuous
370
     9
390
CF78
  0
LAYER
  5
4C97
330
CF8F
100
AcDbSymbolTableRecord
100
AcDbLayerTableRecord
  2
A241_方位
 70
     0
 62
     7
  6
Continuous
370
     9
390
CF78
  0
LAYER
  5
4C99
330
CF8F
100
AcDbSymbolTableRecord
100
AcDbLayerTableRecord
  2
A242_記号
 70
     0
 62
     7
  6
Continuous
370
     9
390
CF78
  0
LAYER
  5
4C9B
330
CF8F
100
AcDbSymbolTableRecord
100
AcDbLayerTableRecord
  2
A243_建具記号
 70
     0
 62
     7
  6
Continuous
370
     9
390
CF78
  0
LAYER
  5
4C9D
330
CF8F
100
AcDbSymbolTableRecord
100
AcDbLayerTableRecord
  2
A245_雲マーク
 70
     0
 62
     7
  6
Continuous
370
    40
390
CF78
  0
LAYER
  5
4C9F
330
CF8F
100
AcDbSymbolTableRecord
100
AcDbLayerTableRecord
  2
A311_吹抜線
 70
     0
 62
     7
  6
DGN Style 4
370
     9
390
CF78
  0
LAYER
  5
4CA1
330
CF8F
100
AcDbSymbolTableRecord
100
AcDbLayerTableRecord
  2
A321_ハッチング
 70
     0
 62
     7
  6
Continuous
370
     9
390
CF78
  0
LAYER
  5
4CA3
330
CF8F
100
AcDbSymbolTableRecord
100
AcDbLayerTableRecord
  2
A342_屋根・庇
 70
     0
 62
     7
  6
Continuous
370
     9
390
CF78
  0
LAYER
  5
4CA5
330
CF8F
100
AcDbSymbolTableRecord
100
AcDbLayerTableRecord
  2
A343_機械基礎
 70
     0
 62
     7
  6
Continuous
370
     9
390
CF78
  0
LAYER
  5
4CA7
330
CF8F
100
AcDbSymbolTableRecord
100
AcDbLayerTableRecord
  2
A361_ＯＦＦ
 70
     0
 62
     7
  6
Continuous
370
     9
390
CF78
  0
LAYER
  5
4CA9
330
CF8F
100
AcDbSymbolTableRecord
100
AcDbLayerTableRecord
  2
A411_柱：ＲＣ
 70
     0
 62
     7
  6
DGN Style 2
370
     9
390
CF78
  0
LAYER
  5
4CAB
330
CF8F
100
AcDbSymbolTableRecord
100
AcDbLayerTableRecord
  2
A412_柱：Ｓ
 70
     0
 62
     7
  6
Continuous
370
    30
390
CF78
  0
LAYER
  5
4CAD
330
CF8F
100
AcDbSymbolTableRecord
100
AcDbLayerTableRecord
  2
A421_壁：ＲＣ
 70
     0
 62
     7
  6
Continuous
370
    30
390
CF78
  0
LAYER
  5
4CAF
330
CF8F
100
AcDbSymbolTableRecord
100
AcDbLayerTableRecord
  2
A422_壁：ＡＬＣ
 70
     0
 62
     7
  6
Continuous
370
    13
390
CF78
  0
LAYER
  5
4CB1
330
CF8F
100
AcDbSymbolTableRecord
100
AcDbLayerTableRecord
  2
A431_梁
 70
     0
 62
     7
  6
Continuous
370
     9
390
CF78
  0
LAYER
  5
4CB3
330
CF8F
100
AcDbSymbolTableRecord
100
AcDbLayerTableRecord
  2
A441_壁：ＬＧＳ
 70
     0
 62
     7
  6
Continuous
370
    13
390
CF78
  0
LAYER
  5
4CB5
330
CF8F
100
AcDbSymbolTableRecord
100
AcDbLayerTableRecord
  2
A442_壁：木軸
 70
     0
 62
     7
  6
Continuous
370
    13
390
CF78
  0
LAYER
  5
4CB7
330
CF8F
100
AcDbSymbolTableRecord
100
AcDbLayerTableRecord
  2
A444_壁：下地鉄骨、間柱
 70
     0
 62
     7
  6
Continuous
370
     9
390
CF78
  0
LAYER
  5
4CB9
330
CF8F
100
AcDbSymbolTableRecord
100
AcDbLayerTableRecord
  2
A521_壁：仕上
 70
     0
 62
     7
  6
Continuous
370
    30
390
CF78
  0
LAYER
  5
4CBB
330
CF8F
100
AcDbSymbolTableRecord
100
AcDbLayerTableRecord
  2
R003_防火区画
 70
     0
 62
     7
  6
Continuous
370
    70
390
CF78
  0
LAYER
  5
4CBD
330
CF8F
100
AcDbSymbolTableRecord
100
AcDbLayerTableRecord
  2
R004_防煙区画
 70
     0
 62
     7
  6
Continuous
370
    70
390
CF78
  0
LAYER
  5
4CBF
330
CF8F
100
AcDbSymbolTableRecord
100
AcDbLayerTableRecord
  2
A522_壁：仕上
 70
     0
 62
     7
  6
Continuous
370
    30
390
CF78
  0
LAYER
  5
4CC1
330
CF8F
100
AcDbSymbolTableRecord
100
AcDbLayerTableRecord
  2
A523_壁：仕上
 70
     0
 62
     7
  6
Continuous
370
    30
390
CF78
  0
LAYER
  5
4CC3
330
CF8F
100
AcDbSymbolTableRecord
100
AcDbLayerTableRecord
  2
A524_壁：仕上
 70
     0
 62
     7
  6
Continuous
370
    30
390
CF78
  0
LAYER
  5
4CC5
330
CF8F
100
AcDbSymbolTableRecord
100
AcDbLayerTableRecord
  2
A525_壁：仕上
 70
     0
 62
     7
  6
Continuous
370
    30
390
CF78
  0
LAYER
  5
4CC7
330
CF8F
100
AcDbSymbolTableRecord
100
AcDbLayerTableRecord
  2
A531_パーティション
 70
     0
 62
     7
  6
Continuous
370
    13
390
CF78
  0
LAYER
  5
4CC9
330
CF8F
100
AcDbSymbolTableRecord
100
AcDbLayerTableRecord
  2
A551_階段
 70
     0
 62
     7
  6
Continuous
370
     9
390
CF78
  0
LAYER
  5
4CCB
330
CF8F
100
AcDbSymbolTableRecord
100
AcDbLayerTableRecord
  2
A561_耐火被覆
 70
     0
 62
     7
  6
Continuous
370
     9
390
CF78
  0
LAYER
  5
4CCD
330
CF8F
100
AcDbSymbolTableRecord
100
AcDbLayerTableRecord
  2
A562_断熱材
 70
     0
 62
     7
  6
Continuous
370
     9
390
CF78
  0
LAYER
  5
4CCF
330
CF8F
100
AcDbSymbolTableRecord
100
AcDbLayerTableRecord
  2
A563_手摺
 70
     0
 62
     7
  6
Continuous
370
     9
390
CF78
  0
LAYER
  5
4CD1
330
CF8F
100
AcDbSymbolTableRecord
100
AcDbLayerTableRecord
  2
A564_目地
 70
     0
 62
     7
  6
Continuous
370
     9
390
CF78
  0
LAYER
  5
4CD3
330
CF8F
100
AcDbSymbolTableRecord
100
AcDbLayerTableRecord
  2
A565_側溝
 70
     0
 62
     7
  6
Continuous
370
     9
390
CF78
  0
LAYER
  5
4CD5
330
CF8F
100
AcDbSymbolTableRecord
100
AcDbLayerTableRecord
  2
A566_樋
 70
     0
 62
     7
  6
Continuous
370
     9
390
CF78
  0
LAYER
  5
4CD7
330
CF8F
100
AcDbSymbolTableRecord
100
AcDbLayerTableRecord
  2
A568_EXP．J
 70
     0
 62
     7
  6
Continuous
370
     9
390
CF78
  0
LAYER
  5
4CD9
330
CF8F
100
AcDbSymbolTableRecord
100
AcDbLayerTableRecord
  2
A569_雑金物
 70
     0
 62
     7
  6
Continuous
370
     9
390
CF78
  0
LAYER
  5
4CDB
330
CF8F
100
AcDbSymbolTableRecord
100
AcDbLayerTableRecord
  2
A611_窓
 70
     0
 62
     7
  6
Continuous
370
     9
390
CF78
  0
LAYER
  5
4CDD
330
CF8F
100
AcDbSymbolTableRecord
100
AcDbLayerTableRecord
  2
A621_扉枠
 70
     0
 62
     7
  6
Continuous
370
    30
390
CF78
  0
LAYER
  5
4CDF
330
CF8F
100
AcDbSymbolTableRecord
100
AcDbLayerTableRecord
  2
A624_沓摺
 70
     0
 62
     7
  6
Continuous
370
     9
390
CF78
  0
LAYER
  5
4CE1
330
CF8F
100
AcDbSymbolTableRecord
100
AcDbLayerTableRecord
  2
A622_扉
 70
     0
 62
     7
  6
Continuous
370
    13
390
CF78
  0
LAYER
  5
4CE3
330
CF8F
100
AcDbSymbolTableRecord
100
AcDbLayerTableRecord
  2
A725_等高線
 70
     0
 62
     7
  6
Continuous
370
     9
390
CF78
  0
LAYER
  5
4CE5
330
CF8F
100
AcDbSymbolTableRecord
100
AcDbLayerTableRecord
  2
A731_門･塀
 70
     0
 62
     7
  6
Continuous
370
     9
390
CF78
  0
LAYER
  5
4CE7
330
CF8F
100
AcDbSymbolTableRecord
100
AcDbLayerTableRecord
  2
A741_植栽
 70
     0
 62
     7
  6
Continuous
370
     9
390
CF78
  0
LAYER
  5
4CE9
330
CF8F
100
AcDbSymbolTableRecord
100
AcDbLayerTableRecord
  2
A811_造作家具
 70
     0
 62
     7
  6
Continuous
370
     9
390
CF78
  0
LAYER
  5
4CEB
330
CF8F
100
AcDbSymbolTableRecord
100
AcDbLayerTableRecord
  2
A822_別途：家具
 70
     0
 62
     7
  6
DGN Style 1
370
     9
390
CF78
  0
LAYER
  5
4CED
330
CF8F
100
AcDbSymbolTableRecord
100
AcDbLayerTableRecord
  2
A831_衛生機器
 70
     0
 62
     7
  6
Continuous
370
     9
390
CF78
  0
LAYER
  5
4CEF
330
CF8F
100
AcDbSymbolTableRecord
100
AcDbLayerTableRecord
  2
A841_ＥＬＶ・ＥＳＣ
 70
     0
 62
     7
  6
Continuous
370
     9
390
CF78
  0
LAYER
  5
4CF1
330
CF8F
100
AcDbSymbolTableRecord
100
AcDbLayerTableRecord
  2
A851_電気設備_実形
 70
     0
 62
     7
  6
Continuous
370
     9
390
CF78
  0
LAYER
  5
4CF3
330
CF8F
100
AcDbSymbolTableRecord
100
AcDbLayerTableRecord
  2
A855_空調設備_実形
 70
     0
 62
    67
  6
Continuous
370
     9
390
CF78
  0
LAYER
  5
4CF5
330
CF8F
100
AcDbSymbolTableRecord
100
AcDbLayerTableRecord
  2
R001_申請用文字
 70
     0
 62
     7
  6
Continuous
370
     9
390
CF78
  0
LAYER
  5
4CF7
330
CF8F
100
AcDbSymbolTableRecord
100
AcDbLayerTableRecord
  2
R002_1F延焼の恐れのある部分
 70
     0
 62
     7
  6
DGN Style 4
370
     9
390
CF78
  0
LAYER
  5
4CF9
330
CF8F
100
AcDbSymbolTableRecord
100
AcDbLayerTableRecord
  2
R012_2F延焼の恐れのある部分
 70
     0
 62
     7
  6
DGN Style 4
370
     9
390
CF78
  0
LAYER
  5
4CFB
330
CF8F
100
AcDbSymbolTableRecord
100
AcDbLayerTableRecord
  2
A362_ON
 70
     0
 62
     7
  6
Continuous
370
     9
390
CF78
  0
LAYER
  5
4CFD
330
CF8F
100
AcDbSymbolTableRecord
100
AcDbLayerTableRecord
  2
A425_石・タイル
 70
     0
 62
     7
  6
Continuous
370
    13
390
CF78
  0
LAYER
  5
4CFF
330
CF8F
100
AcDbSymbolTableRecord
100
AcDbLayerTableRecord
  2
A570_樹脂類
 70
     0
 62
     7
  6
Continuous
370
     9
390
CF78
  0
LAYER
  5
4D01
330
CF8F
100
AcDbSymbolTableRecord
100
AcDbLayerTableRecord
  2
A571_シーリング
 70
     0
 62
     7
  6
Continuous
370
     9
390
CF78
  0
LAYER
  5
4D03
330
CF8F
100
AcDbSymbolTableRecord
100
AcDbLayerTableRecord
  2
A860_車両
 70
     0
 62
     7
  6
DGN Style 2
370
     9
390
CF78
  0
LAYER
  5
4D05
330
CF8F
100
AcDbSymbolTableRecord
100
AcDbLayerTableRecord
  2
A331_見上げ線
 70
     0
 62
     7
  6
DGN Style 2
370
     9
390
CF78
  0
LAYER
  5
4D07
330
CF8F
100
AcDbSymbolTableRecord
100
AcDbLayerTableRecord
  2
A613_カーテンボックス
 70
     0
 62
     7
  6
Continuous
370
     9
390
CF78
  0
LAYER
  5
4D09
330
CF8F
100
AcDbSymbolTableRecord
100
AcDbLayerTableRecord
  2
A346_見え掛り線
 70
     0
 62
     7
  6
Continuous
370
     9
390
CF78
  0
LAYER
  5
4D0B
330
CF8F
100
AcDbSymbolTableRecord
100
AcDbLayerTableRecord
  2
A430_地業
 70
     0
 62
    35
  6
Continuous
370
     9
390
CF78
  0
LAYER
  5
4D0D
330
CF8F
100
AcDbSymbolTableRecord
100
AcDbLayerTableRecord
  2
A711_境界線
 70
     0
 62
     7
  6
Continuous
370
     9
390
CF78
  0
LAYER
  5
4D0F
330
CF8F
100
AcDbSymbolTableRecord
100
AcDbLayerTableRecord
  2
A735_建物の外周線
 70
     0
 62
     7
  6
Continuous
370
    30
390
CF78
  0
LAYER
  5
4D11
330
CF8F
100
AcDbSymbolTableRecord
100
AcDbLayerTableRecord
  2
A736_既存建物
 70
     0
 62
     4
  6
DGN Style 3
370
     9
390
CF78
  0
LAYER
  5
4D13
330
CF8F
100
AcDbSymbolTableRecord
100
AcDbLayerTableRecord
  2
A722_周辺道路
 70
     0
 62
     8
  6
Continuous
370
     9
390
CF78
  0
LAYER
  5
4D15
330
CF8F
100
AcDbSymbolTableRecord
100
AcDbLayerTableRecord
  2
A723_周辺建物
 70
     0
 62
   201
  6
Continuous
370
     9
390
CF78
  0
LAYER
  5
4D17
330
CF8F
100
AcDbSymbolTableRecord
100
AcDbLayerTableRecord
  2
A345_既存部分
 70
     0
 62
     8
  6
DGN Style 2
370
     9
390
CF78
  0
LAYER
  5
4D19
330
CF8F
100
AcDbSymbolTableRecord
100
AcDbLayerTableRecord
  2
A312_面積算定線
 70
     0
 62
     7
  6
Continuous
370
    40
390
CF78
  0
LAYER
  5
4D1B
330
CF8F
100
AcDbSymbolTableRecord
100
AcDbLayerTableRecord
  2
A853_衛生設備_実形
 70
     0
 62
     7
  6
Continuous
370
     9
390
CF78
  0
LAYER
  5
4D1E
330
CF8F
100
AcDbSymbolTableRecord
100
AcDbLayerTableRecord
  2
A721_道路中心線
 70
     0
 62
     7
  6
Continuous
370
     9
390
CF78
  0
LAYER
  5
4D20
330
CF8F
100
AcDbSymbolTableRecord
100
AcDbLayerTableRecord
  2
A713_斜線制限
 70
     0
 62
     7
  6
Continuous
370
     9
390
CF78
  0
LAYER
  5
4D22
330
CF8F
100
AcDbSymbolTableRecord
100
AcDbLayerTableRecord
  2
A733_ストリートファニチャ
 70
     0
 62
     7
  6
Continuous
370
     9
390
CF78
  0
LAYER
  5
4D24
330
CF8F
100
AcDbSymbolTableRecord
100
AcDbLayerTableRecord
  2
A732_ペイブメント
 70
     0
 62
     7
  6
Continuous
370
     9
390
CF78
  0
ENDTAB
  0
TABLE
  2
STYLE
  5
CF92
330
0
100
AcDbSymbolTable
 70
     3
  0
STYLE
  5
CF93
330
CF92
100
AcDbSymbolTableRecord
100
AcDbTextStyleTableRecord
  2
Standard
 70
     0
 40
0.0
 41
1.0
 50
0.0
 71
     0
 42
275.0
  3
txt
  4

  0
STYLE
  5
CFD7
330
CF92
100
AcDbSymbolTableRecord
100
AcDbTextStyleTableRecord
  2
Style-HGSｺﾞｼｯｸM
 70
     0
 40
0.0
 41
1.0
 50
0.0
 71
     0
 42
275.0
  3

  4

1001
ACAD
1000
HGSGothicM
1071
    32823
  0
STYLE
  5
CFD9
330
CF92
100
AcDbSymbolTableRecord
100
AcDbTextStyleTableRecord
  2
Style-HG明朝B
 70
     0
 40
0.0
 41
1.0
 50
0.0
 71
     0
 42
275.0
  3

  4

1001
ACAD
1000
HGMinchoB
1071
    32790
  0
ENDTAB
  0
TABLE
  2
VIEW
  5
CF98
330
0
100
AcDbSymbolTable
 70
     0
  0
ENDTAB
  0
TABLE
  2
UCS
  5
CF99
330
0
100
AcDbSymbolTable
 70
     0
  0
ENDTAB
  0
TABLE
  2
APPID
  5
CF9E
330
0
100
AcDbSymbolTable
 70
     2
  0
APPID
  5
CF9F
330
CF9E
100
AcDbSymbolTableRecord
100
AcDbRegAppTableRecord
  2
ACAD
 70
     0
  0
APPID
  5
CF88
330
CF9E
100
AcDbSymbolTableRecord
100
AcDbRegAppTableRecord
  2
ACAD_PSEXT
 70
     0
  0
ENDTAB
  0
TABLE
  2
DIMSTYLE
  5
CFA0
330
0
100
AcDbSymbolTable
 70
     1
100
AcDbDimStyleTable
 71
     1
340
CFA1
  0
DIMSTYLE
105
CFA1
330
CFA0
100
AcDbSymbolTableRecord
100
AcDbDimStyleTableRecord
  2
ISO-25
 70
     0
 41
2.5
 42
0.625
 43
3.75
 44
1.25
 73
     0
 74
     0
 77
     1
 78
     8
140
2.5
141
2.5
143
0.03937
147
0.625
171
     3
172
     1
271
     2
272
     2
274
     3
278
    44
283
     0
284
     8
340
CF93
  0
ENDTAB
  0
TABLE
  2
BLOCK_RECORD
  5
CF74
330
0
100
AcDbSymbolTable
 70
     0
  0
BLOCK_RECORD
  5
CF75
330
CF74
100
AcDbSymbolTableRecord
100
AcDbBlockTableRecord
  2
*Model_Space
340
CF86
  0
BLOCK_RECORD
  5
CF89
330
CF74
100
AcDbSymbolTableRecord
100
AcDbBlockTableRecord
  2
*Paper_Space
340
CF8C
  0
ENDTAB
  0
ENDSEC
  0
SECTION
  2
BLOCKS
  0
BLOCK
  5
CF76
330
CF75
100
AcDbEntity
  8
0
100
AcDbBlockBegin
  2
*Model_Space
 70
     0
 10
0.0
 20
0.0
 30
0.0
  3
*Model_Space
  1

  0
ENDBLK
  5
CF85
330
CF75
100
AcDbEntity
  8
0
100
AcDbBlockEnd
  0
BLOCK
  5
CF8A
330
CF89
100
AcDbEntity
 67
     1
  8
0
100
AcDbBlockBegin
  2
*Paper_Space
 70
     0
 10
0.0
 20
0.0
 30
0.0
  3
*Paper_Space
  1

  0
ENDBLK
  5
CF8B
330
CF89
100
AcDbEntity
 67
     1
  8
0
100
AcDbBlockEnd
  0
ENDSEC
  0
SECTION
  2
ENTITIES
  0
TEXT
  5
CB07
330
CF75
100
AcDbEntity
  8
1階座席
  6
Continuous
 62
     7
370
     9
100
AcDbText
 10
188771.951704
 20
37287.040669
 30
0.0
 40
225.0
  1
鏡
  7
Style-HGSｺﾞｼｯｸM
 11
188771.951704
 21
37512.040669
 31
0.0
100
AcDbText
 73
     3
  0
TEXT
  5
CB08
330
CF75
100
AcDbEntity
  8
1階座席
  6
Continuous
 62
     7
370
     9
100
AcDbText
 10
188765.539288
 20
36307.881853
 30
0.0
 40
225.0
  1
鏡
  7
Style-HGSｺﾞｼｯｸM
 11
188765.539288
 21
36532.881853
 31
0.0
100
AcDbText
 73
     3
  0
TEXT
  5
CB09
330
CF75
100
AcDbEntity
  8
1階座席
  6
Continuous
 62
     7
370
     9
100
AcDbText
 10
188775.236099
 20
35313.081947
 30
0.0
 40
225.0
  1
鏡
  7
Style-HGSｺﾞｼｯｸM
 11
188775.236099
 21
35538.081947
 31
0.0
100
AcDbText
 73
     3
  0
TEXT
  5
CB0A
330
CF75
100
AcDbEntity
  8
1階座席
  6
Continuous
 62
     7
370
     9
100
AcDbText
 10
187347.30445
 20
34063.644758
 30
0.0
 40
225.0
  1
鏡
  7
Style-HGSｺﾞｼｯｸM
 11
187347.30445
 21
34288.644758
 31
0.0
100
AcDbText
 73
     3
  0
TEXT
  5
CB0B
330
CF75
100
AcDbEntity
  8
1階座席
  6
Continuous
 62
     7
370
     9
100
AcDbText
 10
188518.744006
 20
37364.67065
 30
0.0
 40
225.0
  1
化粧台カウンター
 50
90.0
  7
Style-HGSｺﾞｼｯｸM
 11
188293.744006
 21
37364.67065
 31
0.0
100
AcDbText
 73
     3
  0
TEXT
  5
CB0C
330
CF75
100
AcDbEntity
  8
1階座席
  6
Continuous
 62
     7
370
     9
100
AcDbText
 10
191033.668221
 20
28048.988369
 30
0.0
 40
325.0
  1
Ｂ1
  7
Style-HGSｺﾞｼｯｸM
 11
191033.668221
 21
28373.988369
 31
0.0
100
AcDbText
 73
     3
  0
LWPOLYLINE
  5
CB0D
330
CF75
100
AcDbEntity
  8
3-0通芯
  6
Continuous
 62
     7
370
    13
100
AcDbPolyline
 90
        3
 70
   128
 43
0.0
 10
193559.080037
 20
42496.410687
 10
193459.080037
 20
42646.410687
 10
193359.080037
 20
42496.410687
  0
LWPOLYLINE
  5
CB0E
330
CF75
100
AcDbEntity
  8
3-0通芯
  6
Continuous
 62
     7
370
    13
100
AcDbPolyline
 90
        3
 70
   128
 43
0.0
 10
182129.532391
 20
45303.954611
 10
181979.532391
 20
45203.954611
 10
182129.532391
 20
45103.954611
  0
LWPOLYLINE
  5
CB0F
330
CF75
100
AcDbEntity
  8
3-0通芯
  6
Continuous
 62
     7
370
    13
100
AcDbPolyline
 90
        3
 70
   128
 43
0.0
 10
189016.032391
 20
45303.954611
 10
189166.032391
 20
45203.954611
 10
189016.032391
 20
45103.954611
  0
LINE
  5
CB10
330
CF75
100
AcDbEntity
  8
3-0通芯
  6
Continuous
 62
     7
370
    13
100
AcDbLine
 10
181979.532391
 20
45203.954611
 30
0.0
 11
184931.435625
 21
45203.954611
 31
0.0
  0
TEXT
  5
CB11
330
CF75
100
AcDbEntity
  8
1階座席
  6
Continuous
 62
     7
370
    13
100
AcDbText
 10
185386.614878
 20
45203.954611
 30
0.0
 40
225.0
  1
7.1
  7
Style-HGSｺﾞｼｯｸM
 11
185386.614878
 21
45428.954611
 31
0.0
100
AcDbText
 73
     3
  0
LINE
  5
CB12
330
CF75
100
AcDbEntity
  8
3-0通芯
  6
Continuous
 62
     7
370
    13
100
AcDbLine
 10
186056.790807
 20
45203.954611
 30
0.0
 11
189166.032391
 21
45203.954611
 31
0.0
  0
LWPOLYLINE
  5
CB13
330
CF75
100
AcDbEntity
  8
3-0通芯
  6
Continuous
 62
     7
370
    13
100
AcDbPolyline
 90
        3
 70
   128
 43
0.0
 10
193559.080037
 20
34109.410687
 10
193459.080037
 20
33959.410687
 10
193359.080037
 20
34109.410687
  0
LINE
  5
CB14
330
CF75
100
AcDbEntity
  8
3-0通芯
  6
Continuous
 62
     7
370
    13
100
AcDbLine
 10
193459.080037
 20
33959.410687
 30
0.0
 11
193459.080037
 21
36935.999553
 31
0.0
  0
LINE
  5
CB15
330
CF75
100
AcDbEntity
  8
3-0通芯
  6
Continuous
 62
     7
370
    13
100
AcDbLine
 10
193459.080037
 20
37884.033793
 30
0.0
 11
193459.080037
 21
42646.410687
 31
0.0
  0
TEXT
  5
CB16
330
CF75
100
AcDbEntity
  8
1階座席
  6
Continuous
 62
     7
370
    13
100
AcDbText
 10
193240.038476
 20
37353.806206
 30
0.0
 40
225.0
  1
8.6
  7
Style-HGSｺﾞｼｯｸM
 11
193240.038476
 21
37578.806206
 31
0.0
100
AcDbText
 73
     3
  0
TEXT
  5
CB17
330
CF75
100
AcDbEntity
  8
1階座席
  6
Continuous
 62
     7
370
     9
100
AcDbText
 10
192231.507497
 20
28589.624558
 30
0.0
 40
275.0
  1
SC=1/100(A4)
 41
1.090909
  7
Style-HGSｺﾞｼｯｸM
 11
192231.507497
 21
28864.624558
 31
0.0
100
AcDbText
 73
     3
  0
TEXT
  5
CB18
330
CF75
100
AcDbEntity
  8
1階座席
  6
Continuous
 62
     7
370
     9
100
AcDbText
 10
192446.699076
 20
27936.732295
 30
0.0
 40
325.0
  1
72
  7
Style-HGSｺﾞｼｯｸM
 11
192446.699076
 21
28261.732295
 31
0.0
100
AcDbText
 73
     3
  0
TEXT
  5
CB19
330
CF75
100
AcDbEntity
  8
1階座席
  6
Continuous
 62
     7
370
     9
100
AcDbText
 10
183304.982928
 20
28232.521662
 30
0.0
 40
375.0
  1
第 ３ 楽屋
 41
0.8
  7
Style-HGSｺﾞｼｯｸM
 11
183304.982928
 21
28607.521662
 31
0.0
100
AcDbText
 73
     3
  0
TEXT
  5
CB1A
330
CF75
100
AcDbEntity
  8
1階座席
  6
Continuous
 62
     7
370
     9
100
AcDbText
 10
188771.951704
 20
38254.710187
 30
0.0
 40
225.0
  1
鏡
  7
Style-HGSｺﾞｼｯｸM
 11
188771.951704
 21
38479.710187
 31
0.0
100
AcDbText
 73
     3
  0
TEXT
  5
CB1B
330
CF75
100
AcDbEntity
  8
1階座席
  6
Continuous
 62
     7
370
     9
100
AcDbText
 10
188771.951704
 20
39302.318151
 30
0.0
 40
225.0
  1
鏡
  7
Style-HGSｺﾞｼｯｸM
 11
188771.951704
 21
39527.318151
 31
0.0
100
AcDbText
 73
     3
  0
TEXT
  5
CB1C
330
CF75
100
AcDbEntity
  8
1階座席
  6
Continuous
 62
     7
370
     9
100
AcDbText
 10
188771.951704
 20
40280.267191
 30
0.0
 40
225.0
  1
鏡
  7
Style-HGSｺﾞｼｯｸM
 11
188771.951704
 21
40505.267191
 31
0.0
100
AcDbText
 73
     3
  0
TEXT
  5
CB1D
330
CF75
100
AcDbEntity
  8
1階座席
  6
Continuous
 62
     7
370
     9
100
AcDbText
 10
188771.951704
 20
41258.21623
 30
0.0
 40
225.0
  1
鏡
  7
Style-HGSｺﾞｼｯｸM
 11
188771.951704
 21
41483.21623
 31
0.0
100
AcDbText
 73
     3
  0
LWPOLYLINE
  5
CB1E
330
CF75
100
AcDbEntity
  8
枠
  6
Continuous
 62
     7
370
     9
100
AcDbPolyline
 90
        5
 70
   129
 43
0.0
 10
171873.137725
 20
27369.154865
 10
171873.137725
 20
48369.154865
 10
201573.137725
 20
48369.154865
 10
201573.137725
 20
27369.154865
 10
171873.137725
 20
27369.154865
  0
LWPOLYLINE
  5
CB1F
330
CF75
100
AcDbEntity
  8
2階座席
  6
Continuous
 62
     7
370
    30
100
AcDbPolyline
 90
        5
 70
   129
 43
0.0
 10
172423.137725
 20
27919.154865
 10
172423.137725
 20
47819.154865
 10
201023.137725
 20
47819.154865
 10
201023.137725
 20
27919.154865
 10
172423.137725
 20
27919.154865
  0
LINE
  5
CB20
330
CF75
100
AcDbEntity
  8
2階座席
  6
Continuous
 62
     7
370
    30
100
AcDbLine
 10
201023.137725
 20
28919.154865
 30
0.0
 11
172423.137725
 21
28919.154865
 31
0.0
  0
LINE
  5
CB21
330
CF75
100
AcDbEntity
  8
2階座席
  6
Continuous
 62
     7
370
    30
100
AcDbLine
 10
195023.137725
 20
28919.154865
 30
0.0
 11
195023.137725
 21
27919.154865
 31
0.0
  0
MTEXT
  5
CB24
330
CF75
100
AcDbEntity
  8
1階座席
  6
Continuous
 62
     7
370
     9
100
AcDbMText
 10
173238.843251
 20
28652.4348
 30
0.0
 40
375.0
 41
0.0
 71
     1
 72
     1
  1
\H1x;\W0.866667;\T1.325;名古屋市公会堂
  7
Style-HG明朝B
 73
     2
 44
0.6
  0
LINE
  5
CB25
330
CF75
100
AcDbEntity
  8
2階座席
  6
Continuous
 62
     7
370
    30
100
AcDbLine
 10
195023.137725
 20
28919.154865
 30
0.0
 11
195023.137725
 21
27919.154865
 31
0.0
  0
LINE
  5
CB26
330
CF75
100
AcDbEntity
  8
2階座席
  6
Continuous
 62
     7
370
    30
100
AcDbLine
 10
192023.137725
 20
28919.154865
 30
0.0
 11
192023.137725
 21
27919.154865
 31
0.0
  0
LINE
  5
CB27
330
CF75
100
AcDbEntity
  8
2階座席
  6
Continuous
 62
     7
370
    13
100
AcDbLine
 10
192023.137725
 20
28507.721385
 30
0.0
 11
195023.137725
 21
28507.721385
 31
0.0
  0
LINE
  5
CB28
330
CF75
100
AcDbEntity
  8
2階座席
  6
Continuous
 62
     7
370
    13
100
AcDbLine
 10
193523.137725
 20
28507.721385
 30
0.0
 11
193523.137725
 21
27919.154865
 31
0.0
  0
LINE
  5
CB29
330
CF75
100
AcDbEntity
  8
2階座席
  6
DGN Style 2
 62
     7
370
     9
100
AcDbLine
 10
192023.137725
 20
28265.040893
 30
0.0
 11
193523.137725
 21
28265.040893
 31
0.0
  0
TEXT
  5
CB2A
330
CF75
100
AcDbEntity
  8
1階座席
  6
Continuous
 62
     7
370
     9
100
AcDbText
 10
192154.817948
 20
28308.066827
 30
0.0
 40
175.0
  1
室　面　積 
 41
1.142857
  7
Style-HGSｺﾞｼｯｸM
 11
192154.817948
 21
28483.066827
 31
0.0
100
AcDbText
 73
     3
  0
TEXT
  5
CB2B
330
CF75
100
AcDbEntity
  8
1階座席
  6
Continuous
 62
     7
370
     9
100
AcDbText
 10
193200.437723
 20
27975.443964
 30
0.0
 40
200.0
  1
㎡
  7
Style-HGSｺﾞｼｯｸM
 11
193200.437723
 21
28175.443964
 31
0.0
100
AcDbText
 73
     3
  0
LINE
  5
CB2C
330
CF75
100
AcDbEntity
  8
2階座席
  6
Continuous
 62
     7
370
    30
100
AcDbLine
 10
191023.137725
 20
28919.154865
 30
0.0
 11
191023.137725
 21
27919.154865
 31
0.0
  0
LINE
  5
CB2D
330
CF75
100
AcDbEntity
  8
2階座席
  6
DGN Style 2
 62
     7
370
     9
100
AcDbLine
 10
192023.137725
 20
28507.721385
 30
0.0
 11
191023.137725
 21
28507.721385
 31
0.0
  0
TEXT
  5
CB2E
330
CF75
100
AcDbEntity
  8
1階座席
  6
Continuous
 62
     7
370
     9
100
AcDbText
 10
191663.248383
 20
28128.288072
 30
0.0
 40
175.0
  1
階
 41
1.142857
  7
Style-HGSｺﾞｼｯｸM
 11
191663.248383
 21
28303.288072
 31
0.0
100
AcDbText
 73
     3
  0
LINE
  5
CB2F
330
CF75
100
AcDbEntity
  8
2階座席
  6
Continuous
 62
     7
370
    30
100
AcDbLine
 10
198523.137725
 20
29864.202145
 30
0.0
 11
198523.137725
 21
29614.202145
 31
0.0
  0
LINE
  5
CB30
330
CF75
100
AcDbEntity
  8
2階座席
  6
Continuous
 62
     7
370
    30
100
AcDbLine
 10
188523.137725
 20
29864.202145
 30
0.0
 11
188523.137725
 21
29614.202145
 31
0.0
  0
LINE
  5
CB31
330
CF75
100
AcDbEntity
  8
2階座席
  6
Continuous
 62
     7
370
    13
100
AcDbLine
 10
189523.137725
 20
29864.202145
 30
0.0
 11
189523.137725
 21
29614.202145
 31
0.0
  0
LINE
  5
CB32
330
CF75
100
AcDbEntity
  8
2階座席
  6
Continuous
 62
     7
370
    13
100
AcDbLine
 10
190523.137725
 20
29864.202145
 30
0.0
 11
190523.137725
 21
29614.202145
 31
0.0
  0
LINE
  5
CB33
330
CF75
100
AcDbEntity
  8
2階座席
  6
Continuous
 62
     7
370
    13
100
AcDbLine
 10
191523.137725
 20
29864.202145
 30
0.0
 11
191523.137725
 21
29614.202145
 31
0.0
  0
LINE
  5
CB34
330
CF75
100
AcDbEntity
  8
2階座席
  6
Continuous
 62
     7
370
    13
100
AcDbLine
 10
192523.137725
 20
29864.202145
 30
0.0
 11
192523.137725
 21
29614.202145
 31
0.0
  0
LINE
  5
CB35
330
CF75
100
AcDbEntity
  8
2階座席
  6
Continuous
 62
     7
370
    30
100
AcDbLine
 10
193523.137725
 20
29864.202145
 30
0.0
 11
193523.137725
 21
29614.202145
 31
0.0
  0
LINE
  5
CB36
330
CF75
100
AcDbEntity
  8
2階座席
  6
Continuous
 62
     7
370
    13
100
AcDbLine
 10
188523.137725
 20
29614.202145
 30
0.0
 11
198523.137725
 21
29614.202145
 31
0.0
  0
LINE
  5
CB37
330
CF75
100
AcDbEntity
  8
2階座席
  6
Continuous
 62
     7
370
    30
100
AcDbLine
 10
199523.137725
 20
30419.154865
 30
0.0
 11
199523.137725
 21
28969.154865
 31
0.0
  0
LINE
  5
CB38
330
CF75
100
AcDbEntity
  8
2階座席
  6
Continuous
 62
     7
370
    30
100
AcDbLine
 10
199523.137725
 20
30419.154865
 30
0.0
 11
200973.137725
 21
30419.154865
 31
0.0
  0
CIRCLE
  5
CB39
330
CF75
100
AcDbEntity
  8
2階座席
  6
Continuous
 62
     7
370
    30
100
AcDbCircle
 10
200273.137725
 20
29572.78983
 30
0.0
 40
443.7228623379668
  0
LWPOLYLINE
  5
CB3A
330
CF75
100
AcDbEntity
  8
2階座席
  6
Continuous
 62
     7
370
    30
100
AcDbPolyline
 90
        3
 70
   128
 43
0.0
 10
200047.512725
 20
29190.712171
 10
200273.137725
 20
30016.512692
 10
200498.762725
 20
29190.712171
  0
LWPOLYLINE
  5
CB3B
330
CF75
100
AcDbEntity
  8
2階座席
  6
Continuous
 62
     7
370
    30
100
AcDbPolyline
 90
        3
 70
   128
 43
0.0
 10
200047.512725
 20
29190.712171
 10
200273.137725
 20
29235.837171
 10
200498.762725
 20
29190.712171
  0
TEXT
  5
CB3C
330
CF75
100
AcDbEntity
  8
1階座席
  6
Continuous
 62
     7
370
     9
100
AcDbText
 10
200167.135325
 20
30070.086095
 30
0.0
 40
250.0
  1
N
  7
Style-HGSｺﾞｼｯｸM
 11
200167.135325
 21
30320.086095
 31
0.0
100
AcDbText
 73
     3
  0
LINE
  5
CB3D
330
CF75
100
AcDbEntity
  8
2階座席
  6
Continuous
 62
     7
370
    30
100
AcDbLine
 10
200973.137725
 20
30419.154865
 30
0.0
 11
200973.137725
 21
28969.154865
 31
0.0
  0
LINE
  5
CB3E
330
CF75
100
AcDbEntity
  8
2階座席
  6
Continuous
 62
     7
370
    30
100
AcDbLine
 10
199523.137725
 20
28969.154865
 30
0.0
 11
200973.137725
 21
28969.154865
 31
0.0
  0
TEXT
  5
CB3F
330
CF75
100
AcDbEntity
  8
1階座席
  6
Continuous
 62
     7
370
     9
100
AcDbText
 10
191129.576794
 20
28605.041405
 30
0.0
 40
175.0
  1
施設階
 41
1.142857
  7
Style-HGSｺﾞｼｯｸM
 11
191129.576794
 21
28780.041405
 31
0.0
100
AcDbText
 73
     3
  0
TEXT
  5
CB40
330
CF75
100
AcDbEntity
  8
1階座席
  6
Continuous
 62
     7
370
    30
100
AcDbText
 10
188452.071791
 20
29924.604183
 30
0.0
 40
175.0
  1
0
 41
1.142857
  7
Style-HGSｺﾞｼｯｸM
 11
188452.071791
 21
30099.604183
 31
0.0
100
AcDbText
 73
     3
  0
TEXT
  5
CB41
330
CF75
100
AcDbEntity
  8
1階座席
  6
Continuous
 62
     7
370
    30
100
AcDbText
 10
189444.352879
 20
29924.604183
 30
0.0
 40
175.0
  1
1
 41
1.142857
  7
Style-HGSｺﾞｼｯｸM
 11
189444.352879
 21
30099.604183
 31
0.0
100
AcDbText
 73
     3
  0
TEXT
  5
CB42
330
CF75
100
AcDbEntity
  8
1階座席
  6
Continuous
 62
     7
370
    30
100
AcDbText
 10
190458.013361
 20
29924.604183
 30
0.0
 40
175.0
  1
2
 41
1.142857
  7
Style-HGSｺﾞｼｯｸM
 11
190458.013361
 21
30099.604183
 31
0.0
100
AcDbText
 73
     3
  0
TEXT
  5
CB43
330
CF75
100
AcDbEntity
  8
1階座席
  6
Continuous
 62
     7
370
    30
100
AcDbText
 10
191453.944589
 20
29924.604183
 30
0.0
 40
175.0
  1
3
 41
1.142857
  7
Style-HGSｺﾞｼｯｸM
 11
191453.944589
 21
30099.604183
 31
0.0
100
AcDbText
 73
     3
  0
TEXT
  5
CB44
330
CF75
100
AcDbEntity
  8
1階座席
  6
Continuous
 62
     7
370
    30
100
AcDbText
 10
192449.875816
 20
29924.604183
 30
0.0
 40
175.0
  1
4
 41
1.142857
  7
Style-HGSｺﾞｼｯｸM
 11
192449.875816
 21
30099.604183
 31
0.0
100
AcDbText
 73
     3
  0
TEXT
  5
CB45
330
CF75
100
AcDbEntity
  8
1階座席
  6
Continuous
 62
     7
370
    30
100
AcDbText
 10
193445.807044
 20
29924.604183
 30
0.0
 40
175.0
  1
5
 41
1.142857
  7
Style-HGSｺﾞｼｯｸM
 11
193445.807044
 21
30099.604183
 31
0.0
100
AcDbText
 73
     3
  0
TEXT
  5
CB46
330
CF75
100
AcDbEntity
  8
1階座席
  6
Continuous
 62
     7
370
    30
100
AcDbText
 10
198357.160544
 20
29924.604183
 30
0.0
 40
175.0
  1
10m
 41
1.142857
  7
Style-HGSｺﾞｼｯｸM
 11
198357.160544
 21
30099.604183
 31
0.0
100
AcDbText
 73
     3
  0
LINE
  5
CB47
330
CF75
100
AcDbEntity
  8
2階座席
  6
Continuous
 62
     7
370
     9
100
AcDbLine
 10
189023.137725
 20
29739.202145
 30
0.0
 11
189023.137725
 21
29614.202145
 31
0.0
  0
LINE
  5
CB48
330
CF75
100
AcDbEntity
  8
2階座席
  6
Continuous
 62
     7
370
     9
100
AcDbLine
 10
190023.137725
 20
29739.202145
 30
0.0
 11
190023.137725
 21
29614.202145
 31
0.0
  0
LINE
  5
CB49
330
CF75
100
AcDbEntity
  8
2階座席
  6
Continuous
 62
     7
370
     9
100
AcDbLine
 10
191023.137725
 20
29739.202145
 30
0.0
 11
191023.137725
 21
29614.202145
 31
0.0
  0
LINE
  5
CB4A
330
CF75
100
AcDbEntity
  8
2階座席
  6
Continuous
 62
     7
370
     9
100
AcDbLine
 10
192023.137725
 20
29739.202145
 30
0.0
 11
192023.137725
 21
29614.202145
 31
0.0
  0
LINE
  5
CB4B
330
CF75
100
AcDbEntity
  8
2階座席
  6
Continuous
 62
     7
370
     9
100
AcDbLine
 10
193023.137725
 20
29739.202145
 30
0.0
 11
193023.137725
 21
29614.202145
 31
0.0
  0
LINE
  5
CB4C
330
CF75
100
AcDbEntity
  8
A733_ストリートファニチャ
 62
     7
370
     9
100
AcDbLine
 10
181879.532391
 20
34334.410687
 30
0.0
 11
181409.532391
 21
34334.410687
 31
0.0
  0
LINE
  5
CB4D
330
CF75
100
AcDbEntity
  8
A733_ストリートファニチャ
 62
     7
370
     9
100
AcDbLine
 10
181639.532391
 20
38955.410687
 30
0.0
 11
181992.532391
 21
38955.410687
 31
0.0
  0
LINE
  5
CB4E
330
CF75
100
AcDbEntity
  8
A733_ストリートファニチャ
 62
     7
370
     9
100
AcDbLine
 10
189617.532391
 20
43091.410687
 30
0.0
 11
189617.532391
 21
42771.410687
 31
0.0
  0
LINE
  5
CB4F
330
CF75
100
AcDbEntity
  8
A733_ストリートファニチャ
 62
     7
370
     9
100
AcDbLine
 10
189537.532391
 20
43091.410687
 30
0.0
 11
189537.532391
 21
42691.410687
 31
0.0
  0
ARC
  5
CB50
330
CF75
100
AcDbEntity
  8
A733_ストリートファニチャ
 62
     7
370
     9
100
AcDbCircle
 10
189412.532391
 20
43091.410687
 30
0.0
 40
125.0
100
AcDbArc
 50
0.0
 51
90.0
  0
LINE
  5
CB51
330
CF75
100
AcDbEntity
  8
A733_ストリートファニチャ
 62
     7
370
     9
100
AcDbLine
 10
185756.032391
 20
43216.410687
 30
0.0
 11
185191.032391
 21
43216.410687
 31
0.0
  0
ARC
  5
CB52
330
CF75
100
AcDbEntity
  8
A733_ストリートファニチャ
 62
     7
370
     9
100
AcDbCircle
 10
181534.532391
 20
43091.410687
 30
0.0
 40
125.0
100
AcDbArc
 50
90.0
 51
180.0
  0
LINE
  5
CB53
330
CF75
100
AcDbEntity
  8
A733_ストリートファニチャ
 62
     7
370
     9
100
AcDbLine
 10
181409.532391
 20
39570.410687
 30
0.0
 11
181409.532391
 21
39005.410687
 31
0.0
  0
LINE
  5
CB54
330
CF75
100
AcDbEntity
  8
A733_ストリートファニチャ
 62
     7
370
     9
100
AcDbLine
 10
181409.532391
 20
37705.410687
 30
0.0
 11
181409.532391
 21
37140.410687
 31
0.0
  0
LINE
  5
CB55
330
CF75
100
AcDbEntity
  8
A733_ストリートファニチャ
 62
     7
370
     9
100
AcDbLine
 10
181409.532391
 20
34099.410687
 30
0.0
 11
181034.532391
 21
34099.410687
 31
0.0
  0
LINE
  5
CB56
330
CF75
100
AcDbEntity
  8
A733_ストリートファニチャ
 62
     7
370
     9
100
AcDbLine
 10
189336.032391
 20
37518.410687
 30
0.0
 11
189881.032391
 21
38245.410687
 31
0.0
  0
LINE
  5
CB57
330
CF75
100
AcDbEntity
  8
A733_ストリートファニチャ
 62
     7
370
     9
100
AcDbLine
 10
189881.032391
 20
37518.410687
 30
0.0
 11
189336.032391
 21
38245.410687
 31
0.0
  0
LINE
  5
CB58
330
CF75
100
AcDbEntity
  8
A733_ストリートファニチャ
 62
     7
370
     9
100
AcDbLine
 10
189537.532391
 20
42691.410687
 30
0.0
 11
189537.532391
 21
42356.410687
 31
0.0
  0
LINE
  5
CB59
330
CF75
100
AcDbEntity
  8
A733_ストリートファニチャ
 62
     7
370
     9
100
AcDbLine
 10
189537.532391
 20
42356.410687
 30
0.0
 11
188821.032391
 21
43216.410687
 31
0.0
  0
LINE
  5
CB5A
330
CF75
100
AcDbEntity
  8
A733_ストリートファニチャ
 62
     7
370
     9
100
AcDbLine
 10
188821.032391
 20
42356.410687
 30
0.0
 11
189492.173286
 21
43187.755525
 31
0.0
  0
LINE
  5
CB5B
330
CF75
100
AcDbEntity
  8
A733_ストリートファニチャ
 62
     7
370
     9
100
AcDbLine
 10
181409.532391
 20
42368.410687
 30
0.0
 11
182257.532391
 21
43216.410687
 31
0.0
  0
LINE
  5
CB5C
330
CF75
100
AcDbEntity
  8
A733_ストリートファニチャ
 62
     7
370
     9
100
AcDbLine
 10
182257.532391
 20
42368.410687
 30
0.0
 11
181446.144043
 21
43179.799034
 31
0.0
  0
LINE
  5
CB5D
330
CF75
100
AcDbEntity
  8
A733_ストリートファニチャ
 62
     7
370
     9
100
AcDbLine
 10
189760.032391
 20
33486.410687
 30
0.0
 11
188912.032391
 21
34334.410687
 31
0.0
  0
LINE
  5
CB5E
330
CF75
100
AcDbEntity
  8
A733_ストリートファニチャ
 62
     7
370
     9
100
AcDbLine
 10
188912.032391
 20
33486.410687
 30
0.0
 11
189760.032391
 21
34334.410687
 31
0.0
  0
LINE
  5
CB5F
330
CF75
100
AcDbEntity
  8
A733_ストリートファニチャ
 62
     7
370
     9
100
AcDbLine
 10
182257.532391
 20
34334.410687
 30
0.0
 11
182257.532391
 21
33789.410687
 31
0.0
  0
LINE
  5
CB60
330
CF75
100
AcDbEntity
  8
A733_ストリートファニチャ
 62
     7
370
     9
100
AcDbLine
 10
185791.032391
 20
43296.410687
 30
0.0
 11
185156.032391
 21
43296.410687
 31
0.0
  0
LINE
  5
CB61
330
CF75
100
AcDbEntity
  8
A733_ストリートファニチャ
 62
     7
370
     9
100
AcDbLine
 10
185336.032391
 20
43296.410687
 30
0.0
 11
185336.032391
 21
43336.410687
 31
0.0
  0
LINE
  5
CB62
330
CF75
100
AcDbEntity
  8
A733_ストリートファニチャ
 62
     7
370
     9
100
AcDbLine
 10
185336.032391
 20
43336.410687
 30
0.0
 11
185136.032391
 21
43336.410687
 31
0.0
  0
LINE
  5
CB63
330
CF75
100
AcDbEntity
  8
A733_ストリートファニチャ
 62
     7
370
     9
100
AcDbLine
 10
185811.032391
 20
43336.410687
 30
0.0
 11
185611.032391
 21
43336.410687
 31
0.0
  0
LINE
  5
CB64
330
CF75
100
AcDbEntity
  8
A733_ストリートファニチャ
 62
     7
370
     9
100
AcDbLine
 10
185611.032391
 20
43296.410687
 30
0.0
 11
185611.032391
 21
43336.410687
 31
0.0
  0
LINE
  5
CB65
330
CF75
100
AcDbEntity
  8
A733_ストリートファニチャ
 62
     7
370
     9
100
AcDbLine
 10
181289.532391
 20
37760.410687
 30
0.0
 11
181289.532391
 21
38950.410687
 31
0.0
  0
LINE
  5
CB66
330
CF75
100
AcDbEntity
  8
A733_ストリートファニチャ
 62
     7
370
     9
100
AcDbLine
 10
181329.532391
 20
39605.410687
 30
0.0
 11
181329.532391
 21
38970.410687
 31
0.0
  0
LINE
  5
CB67
330
CF75
100
AcDbEntity
  8
A733_ストリートファニチャ
 62
     7
370
     9
100
AcDbLine
 10
181289.532391
 20
37760.410687
 30
0.0
 11
181289.532391
 21
37560.410687
 31
0.0
  0
LINE
  5
CB68
330
CF75
100
AcDbEntity
  8
A733_ストリートファニチャ
 62
     7
370
     9
100
AcDbLine
 10
181329.532391
 20
37560.410687
 30
0.0
 11
181289.532391
 21
37560.410687
 31
0.0
  0
LINE
  5
CB69
330
CF75
100
AcDbEntity
  8
A733_ストリートファニチャ
 62
     7
370
     9
100
AcDbLine
 10
181329.532391
 20
39150.410687
 30
0.0
 11
181289.532391
 21
39150.410687
 31
0.0
  0
LINE
  5
CB6A
330
CF75
100
AcDbEntity
  8
A733_ストリートファニチャ
 62
     7
370
     9
100
AcDbLine
 10
181289.532391
 20
39150.410687
 30
0.0
 11
181289.532391
 21
38950.410687
 31
0.0
  0
LINE
  5
CB6B
330
CF75
100
AcDbEntity
  8
A733_ストリートファニチャ
 62
     7
370
     9
100
AcDbLine
 10
181289.532391
 20
39625.410687
 30
0.0
 11
181289.532391
 21
39425.410687
 31
0.0
  0
LINE
  5
CB6C
330
CF75
100
AcDbEntity
  8
A733_ストリートファニチャ
 62
     7
370
     9
100
AcDbLine
 10
181329.532391
 20
39425.410687
 30
0.0
 11
181289.532391
 21
39425.410687
 31
0.0
  0
ARC
  5
CB6D
330
CF75
100
AcDbEntity
  8
A733_ストリートファニチャ
 62
     7
370
     9
100
AcDbCircle
 10
181534.532391
 20
43091.410687
 30
0.0
 40
205.0
100
AcDbArc
 50
90.0
 51
180.0
  0
LINE
  5
CB6E
330
CF75
100
AcDbEntity
  8
A733_ストリートファニチャ
 62
     7
370
     9
100
AcDbLine
 10
181329.532391
 20
37285.410687
 30
0.0
 11
181289.532391
 21
37285.410687
 31
0.0
  0
LINE
  5
CB6F
330
CF75
100
AcDbEntity
  8
A733_ストリートファニチャ
 62
     7
370
     9
100
AcDbLine
 10
181289.532391
 20
37285.410687
 30
0.0
 11
181289.532391
 21
37085.410687
 31
0.0
  0
LINE
  5
CB70
330
CF75
100
AcDbEntity
  8
A733_ストリートファニチャ
 62
     7
370
     9
100
AcDbLine
 10
181329.532391
 20
37740.410687
 30
0.0
 11
181329.532391
 21
37105.410687
 31
0.0
  0
LINE
  5
CB71
330
CF75
100
AcDbEntity
  8
A733_ストリートファニチャ
 62
     7
370
     9
100
AcDbLine
 10
181329.532391
 20
34179.410687
 30
0.0
 11
181034.532391
 21
34179.410687
 31
0.0
  0
ARC
  5
CB72
330
CF75
100
AcDbEntity
  8
A733_ストリートファニチャ
 62
     7
370
     9
100
AcDbCircle
 10
189412.532391
 20
43091.410687
 30
0.0
 40
205.0
100
AcDbArc
 50
0.0
 51
90.0
  0
LINE
  5
CB73
330
CF75
100
AcDbEntity
  8
A733_ストリートファニチャ
 62
     7
370
     9
100
AcDbLine
 10
181879.532391
 20
37200.410687
 30
0.0
 11
181879.532391
 21
37645.410687
 31
0.0
  0
LINE
  5
CB74
330
CF75
100
AcDbEntity
  8
A733_ストリートファニチャ
 62
     7
370
     9
100
AcDbLine
 10
181879.532391
 20
39065.410687
 30
0.0
 11
181879.532391
 21
39510.410687
 31
0.0
  0
LINE
  5
CB75
330
CF75
100
AcDbEntity
  8
A733_ストリートファニチャ
 62
     7
370
     9
100
AcDbLine
 10
181879.532391
 20
42368.410687
 30
0.0
 11
181409.532391
 21
42368.410687
 31
0.0
  0
LINE
  5
CB76
330
CF75
100
AcDbEntity
  8
A733_ストリートファニチャ
 62
     7
370
     9
100
AcDbLine
 10
181879.532391
 20
42368.410687
 30
0.0
 11
182257.532391
 21
42368.410687
 31
0.0
  0
LINE
  5
CB77
330
CF75
100
AcDbEntity
  8
A733_ストリートファニチャ
 62
     7
370
     9
100
AcDbLine
 10
182257.532391
 20
34334.410687
 30
0.0
 11
181879.532391
 21
34334.410687
 31
0.0
  0
LINE
  5
CB78
330
CF75
100
AcDbEntity
  8
A733_ストリートファニチャ
 62
     7
370
     9
100
AcDbLine
 10
181639.532391
 20
39620.410687
 30
0.0
 11
181569.532391
 21
39620.410687
 31
0.0
  0
LINE
  5
CB79
330
CF75
100
AcDbEntity
  8
A733_ストリートファニチャ
 62
     7
370
     9
100
AcDbLine
 10
181595.532391
 20
39645.910687
 30
0.0
 11
181577.532391
 21
39645.910687
 31
0.0
  0
LINE
  5
CB7A
330
CF75
100
AcDbEntity
  8
A733_ストリートファニチャ
 62
     7
370
     9
100
AcDbLine
 10
181595.532391
 20
39634.410687
 30
0.0
 11
181577.532391
 21
39634.410687
 31
0.0
  0
LINE
  5
CB7B
330
CF75
100
AcDbEntity
  8
A733_ストリートファニチャ
 62
     7
370
     9
100
AcDbLine
 10
181595.532391
 20
39657.910687
 30
0.0
 11
181595.532391
 21
39624.410687
 31
0.0
  0
LINE
  5
CB7C
330
CF75
100
AcDbEntity
  8
A733_ストリートファニチャ
 62
     7
370
     9
100
AcDbLine
 10
181577.532391
 20
39657.910687
 30
0.0
 11
181577.532391
 21
39624.410687
 31
0.0
  0
LINE
  5
CB7D
330
CF75
100
AcDbEntity
  8
A733_ストリートファニチャ
 62
     7
370
     9
100
AcDbLine
 10
181409.532391
 20
39570.410687
 30
0.0
 11
181544.532391
 21
39570.410687
 31
0.0
  0
LINE
  5
CB7E
330
CF75
100
AcDbEntity
  8
A733_ストリートファニチャ
 62
     7
370
     9
100
AcDbLine
 10
181639.532391
 20
39635.410687
 30
0.0
 11
181639.532391
 21
39595.410687
 31
0.0
  0
LINE
  5
CB7F
330
CF75
100
AcDbEntity
  8
A733_ストリートファニチャ
 62
     7
370
     9
100
AcDbLine
 10
181639.532391
 20
39595.410687
 30
0.0
 11
181630.532391
 21
39595.410687
 31
0.0
  0
LINE
  5
CB80
330
CF75
100
AcDbEntity
  8
A733_ストリートファニチャ
 62
     7
370
     9
100
AcDbLine
 10
181569.532391
 20
39595.410687
 30
0.0
 11
181578.532391
 21
39595.410687
 31
0.0
  0
LINE
  5
CB81
330
CF75
100
AcDbEntity
  8
A733_ストリートファニチャ
 62
     7
370
     9
100
AcDbLine
 10
181569.532391
 20
39635.410687
 30
0.0
 11
181569.532391
 21
39595.410687
 31
0.0
  0
LINE
  5
CB82
330
CF75
100
AcDbEntity
  8
A733_ストリートファニチャ
 62
     7
370
     9
100
AcDbLine
 10
181544.532391
 20
39570.410687
 30
0.0
 11
181544.532391
 21
39510.410687
 31
0.0
  0
LINE
  5
CB83
330
CF75
100
AcDbEntity
  8
A733_ストリートファニチャ
 62
     7
370
     9
100
AcDbLine
 10
181544.532391
 20
39510.410687
 30
0.0
 11
181879.532391
 21
39510.410687
 31
0.0
  0
LINE
  5
CB84
330
CF75
100
AcDbEntity
  8
A733_ストリートファニチャ
 62
     7
370
     9
100
AcDbLine
 10
181554.532391
 20
39590.410687
 30
0.0
 11
181554.532391
 21
39605.410687
 31
0.0
  0
LINE
  5
CB85
330
CF75
100
AcDbEntity
  8
A733_ストリートファニチャ
 62
     7
370
     9
100
AcDbLine
 10
181569.532391
 20
39590.410687
 30
0.0
 11
181554.532391
 21
39590.410687
 31
0.0
  0
LINE
  5
CB86
330
CF75
100
AcDbEntity
  8
A733_ストリートファニチャ
 62
     7
370
     9
100
AcDbLine
 10
181569.532391
 20
39590.410687
 30
0.0
 11
181569.532391
 21
39605.410687
 31
0.0
  0
LINE
  5
CB87
330
CF75
100
AcDbEntity
  8
A733_ストリートファニチャ
 62
     7
370
     9
100
AcDbLine
 10
181569.532391
 20
39605.410687
 30
0.0
 11
181554.532391
 21
39605.410687
 31
0.0
  0
LINE
  5
CB88
330
CF75
100
AcDbEntity
  8
A733_ストリートファニチャ
 62
     7
370
     9
100
AcDbLine
 10
181569.532391
 20
39625.410687
 30
0.0
 11
181289.532391
 21
39625.410687
 31
0.0
  0
LINE
  5
CB89
330
CF75
100
AcDbEntity
  8
A733_ストリートファニチャ
 62
     7
370
     9
100
AcDbLine
 10
181554.532391
 20
39605.410687
 30
0.0
 11
181329.532391
 21
39605.410687
 31
0.0
  0
LINE
  5
CB8A
330
CF75
100
AcDbEntity
  8
A733_ストリートファニチャ
 62
     7
370
     9
100
AcDbLine
 10
185251.032391
 20
42746.410687
 30
0.0
 11
185696.032391
 21
42746.410687
 31
0.0
  0
LINE
  5
CB8B
330
CF75
100
AcDbEntity
  8
A733_ストリートファニチャ
 62
     7
370
     9
100
AcDbLine
 10
188821.032391
 20
42746.410687
 30
0.0
 11
188821.032391
 21
43216.410687
 31
0.0
  0
LINE
  5
CB8C
330
CF75
100
AcDbEntity
  8
A733_ストリートファニチャ
 62
     7
370
     9
100
AcDbLine
 10
188821.032391
 20
42746.410687
 30
0.0
 11
188821.032391
 21
42356.410687
 31
0.0
  0
LINE
  5
CB8D
330
CF75
100
AcDbEntity
  8
A733_ストリートファニチャ
 62
     7
370
     9
100
AcDbLine
 10
182257.532391
 20
42746.410687
 30
0.0
 11
182257.532391
 21
43216.410687
 31
0.0
  0
LINE
  5
CB8E
330
CF75
100
AcDbEntity
  8
A733_ストリートファニチャ
 62
     7
370
     9
100
AcDbLine
 10
182257.532391
 20
42746.410687
 30
0.0
 11
182257.532391
 21
42368.410687
 31
0.0
  0
LINE
  5
CB8F
330
CF75
100
AcDbEntity
  8
A733_ストリートファニチャ
 62
     7
370
     9
100
AcDbLine
 10
185141.032391
 20
42986.410687
 30
0.0
 11
185141.032391
 21
43056.410687
 31
0.0
  0
LINE
  5
CB90
330
CF75
100
AcDbEntity
  8
A733_ストリートファニチャ
 62
     7
370
     9
100
AcDbLine
 10
185806.032391
 20
42986.410687
 30
0.0
 11
185806.032391
 21
43056.410687
 31
0.0
  0
LINE
  5
CB91
330
CF75
100
AcDbEntity
  8
A733_ストリートファニチャ
 62
     7
370
     9
100
AcDbLine
 10
185103.532391
 20
43011.410687
 30
0.0
 11
185137.032391
 21
43011.410687
 31
0.0
  0
LINE
  5
CB92
330
CF75
100
AcDbEntity
  8
A733_ストリートファニチャ
 62
     7
370
     9
100
AcDbLine
 10
185103.532391
 20
42993.410687
 30
0.0
 11
185137.032391
 21
42993.410687
 31
0.0
  0
LINE
  5
CB93
330
CF75
100
AcDbEntity
  8
A733_ストリートファニチャ
 62
     7
370
     9
100
AcDbLine
 10
185115.532391
 20
42993.410687
 30
0.0
 11
185115.532391
 21
43011.410687
 31
0.0
  0
LINE
  5
CB94
330
CF75
100
AcDbEntity
  8
A733_ストリートファニチャ
 62
     7
370
     9
100
AcDbLine
 10
185127.032391
 20
42993.410687
 30
0.0
 11
185127.032391
 21
43011.410687
 31
0.0
  0
LINE
  5
CB95
330
CF75
100
AcDbEntity
  8
A733_ストリートファニチャ
 62
     7
370
     9
100
AcDbLine
 10
185831.532391
 20
43030.410687
 30
0.0
 11
185831.532391
 21
43048.410687
 31
0.0
  0
LINE
  5
CB96
330
CF75
100
AcDbEntity
  8
A733_ストリートファニチャ
 62
     7
370
     9
100
AcDbLine
 10
185820.032391
 20
43030.410687
 30
0.0
 11
185820.032391
 21
43048.410687
 31
0.0
  0
LINE
  5
CB97
330
CF75
100
AcDbEntity
  8
A733_ストリートファニチャ
 62
     7
370
     9
100
AcDbLine
 10
185843.532391
 20
43030.410687
 30
0.0
 11
185810.032391
 21
43030.410687
 31
0.0
  0
LINE
  5
CB98
330
CF75
100
AcDbEntity
  8
A733_ストリートファニチャ
 62
     7
370
     9
100
AcDbLine
 10
185843.532391
 20
43048.410687
 30
0.0
 11
185810.032391
 21
43048.410687
 31
0.0
  0
LINE
  5
CB99
330
CF75
100
AcDbEntity
  8
A733_ストリートファニチャ
 62
     7
370
     9
100
AcDbLine
 10
185756.032391
 20
43216.410687
 30
0.0
 11
185756.032391
 21
43081.410687
 31
0.0
  0
LINE
  5
CB9A
330
CF75
100
AcDbEntity
  8
A733_ストリートファニチャ
 62
     7
370
     9
100
AcDbLine
 10
185191.032391
 20
43216.410687
 30
0.0
 11
185191.032391
 21
43081.410687
 31
0.0
  0
LINE
  5
CB9B
330
CF75
100
AcDbEntity
  8
A733_ストリートファニチャ
 62
     7
370
     9
100
AcDbLine
 10
185166.032391
 20
43056.410687
 30
0.0
 11
185126.032391
 21
43056.410687
 31
0.0
  0
LINE
  5
CB9C
330
CF75
100
AcDbEntity
  8
A733_ストリートファニチャ
 62
     7
370
     9
100
AcDbLine
 10
185126.032391
 20
42986.410687
 30
0.0
 11
185166.032391
 21
42986.410687
 31
0.0
  0
LINE
  5
CB9D
330
CF75
100
AcDbEntity
  8
A733_ストリートファニチャ
 62
     7
370
     9
100
AcDbLine
 10
185166.032391
 20
43056.410687
 30
0.0
 11
185166.032391
 21
43047.410687
 31
0.0
  0
LINE
  5
CB9E
330
CF75
100
AcDbEntity
  8
A733_ストリートファニチャ
 62
     7
370
     9
100
AcDbLine
 10
185166.032391
 20
42986.410687
 30
0.0
 11
185166.032391
 21
42995.410687
 31
0.0
  0
LINE
  5
CB9F
330
CF75
100
AcDbEntity
  8
A733_ストリートファニチャ
 62
     7
370
     9
100
AcDbLine
 10
185821.032391
 20
42986.410687
 30
0.0
 11
185781.032391
 21
42986.410687
 31
0.0
  0
LINE
  5
CBA0
330
CF75
100
AcDbEntity
  8
A733_ストリートファニチャ
 62
     7
370
     9
100
AcDbLine
 10
185781.032391
 20
42986.410687
 30
0.0
 11
185781.032391
 21
42995.410687
 31
0.0
  0
LINE
  5
CBA1
330
CF75
100
AcDbEntity
  8
A733_ストリートファニチャ
 62
     7
370
     9
100
AcDbLine
 10
185781.032391
 20
43056.410687
 30
0.0
 11
185781.032391
 21
43047.410687
 31
0.0
  0
LINE
  5
CBA2
330
CF75
100
AcDbEntity
  8
A733_ストリートファニチャ
 62
     7
370
     9
100
AcDbLine
 10
185821.032391
 20
43056.410687
 30
0.0
 11
185781.032391
 21
43056.410687
 31
0.0
  0
LINE
  5
CBA3
330
CF75
100
AcDbEntity
  8
A733_ストリートファニチャ
 62
     7
370
     9
100
AcDbLine
 10
185191.032391
 20
43081.410687
 30
0.0
 11
185251.032391
 21
43081.410687
 31
0.0
  0
LINE
  5
CBA4
330
CF75
100
AcDbEntity
  8
A733_ストリートファニチャ
 62
     7
370
     9
100
AcDbLine
 10
185756.032391
 20
43081.410687
 30
0.0
 11
185696.032391
 21
43081.410687
 31
0.0
  0
LINE
  5
CBA5
330
CF75
100
AcDbEntity
  8
A733_ストリートファニチャ
 62
     7
370
     9
100
AcDbLine
 10
185251.032391
 20
43081.410687
 30
0.0
 11
185251.032391
 21
42746.410687
 31
0.0
  0
LINE
  5
CBA6
330
CF75
100
AcDbEntity
  8
A733_ストリートファニチャ
 62
     7
370
     9
100
AcDbLine
 10
185696.032391
 20
43081.410687
 30
0.0
 11
185696.032391
 21
42746.410687
 31
0.0
  0
LINE
  5
CBA7
330
CF75
100
AcDbEntity
  8
A733_ストリートファニチャ
 62
     7
370
     9
100
AcDbLine
 10
185171.032391
 20
43056.410687
 30
0.0
 11
185171.032391
 21
43071.410687
 31
0.0
  0
LINE
  5
CBA8
330
CF75
100
AcDbEntity
  8
A733_ストリートファニチャ
 62
     7
370
     9
100
AcDbLine
 10
185171.032391
 20
43056.410687
 30
0.0
 11
185156.032391
 21
43056.410687
 31
0.0
  0
LINE
  5
CBA9
330
CF75
100
AcDbEntity
  8
A733_ストリートファニチャ
 62
     7
370
     9
100
AcDbLine
 10
185156.032391
 20
43056.410687
 30
0.0
 11
185156.032391
 21
43071.410687
 31
0.0
  0
LINE
  5
CBAA
330
CF75
100
AcDbEntity
  8
A733_ストリートファニチャ
 62
     7
370
     9
100
AcDbLine
 10
185171.032391
 20
43071.410687
 30
0.0
 11
185156.032391
 21
43071.410687
 31
0.0
  0
LINE
  5
CBAB
330
CF75
100
AcDbEntity
  8
A733_ストリートファニチャ
 62
     7
370
     9
100
AcDbLine
 10
185136.032391
 20
43056.410687
 30
0.0
 11
185136.032391
 21
43336.410687
 31
0.0
  0
LINE
  5
CBAC
330
CF75
100
AcDbEntity
  8
A733_ストリートファニチャ
 62
     7
370
     9
100
AcDbLine
 10
185156.032391
 20
43071.410687
 30
0.0
 11
185156.032391
 21
43296.410687
 31
0.0
  0
LINE
  5
CBAD
330
CF75
100
AcDbEntity
  8
A733_ストリートファニチャ
 62
     7
370
     9
100
AcDbLine
 10
185776.032391
 20
43071.410687
 30
0.0
 11
185791.032391
 21
43071.410687
 31
0.0
  0
LINE
  5
CBAE
330
CF75
100
AcDbEntity
  8
A733_ストリートファニチャ
 62
     7
370
     9
100
AcDbLine
 10
185776.032391
 20
43056.410687
 30
0.0
 11
185776.032391
 21
43071.410687
 31
0.0
  0
LINE
  5
CBAF
330
CF75
100
AcDbEntity
  8
A733_ストリートファニチャ
 62
     7
370
     9
100
AcDbLine
 10
185776.032391
 20
43056.410687
 30
0.0
 11
185791.032391
 21
43056.410687
 31
0.0
  0
LINE
  5
CBB0
330
CF75
100
AcDbEntity
  8
A733_ストリートファニチャ
 62
     7
370
     9
100
AcDbLine
 10
185791.032391
 20
43056.410687
 30
0.0
 11
185791.032391
 21
43071.410687
 31
0.0
  0
LINE
  5
CBB1
330
CF75
100
AcDbEntity
  8
A733_ストリートファニチャ
 62
     7
370
     9
100
AcDbLine
 10
185811.032391
 20
43056.410687
 30
0.0
 11
185811.032391
 21
43336.410687
 31
0.0
  0
LINE
  5
CBB2
330
CF75
100
AcDbEntity
  8
A733_ストリートファニチャ
 62
     7
370
     9
100
AcDbLine
 10
185791.032391
 20
43071.410687
 30
0.0
 11
185791.032391
 21
43296.410687
 31
0.0
  0
LINE
  5
CBB3
330
CF75
100
AcDbEntity
  8
A733_ストリートファニチャ
 62
     7
370
     9
100
AcDbLine
 10
181639.532391
 20
38955.410687
 30
0.0
 11
181569.532391
 21
38955.410687
 31
0.0
  0
LINE
  5
CBB4
330
CF75
100
AcDbEntity
  8
A733_ストリートファニチャ
 62
     7
370
     9
100
AcDbLine
 10
181639.532391
 20
37755.410687
 30
0.0
 11
181569.532391
 21
37755.410687
 31
0.0
  0
LINE
  5
CBB5
330
CF75
100
AcDbEntity
  8
A733_ストリートファニチャ
 62
     7
370
     9
100
AcDbLine
 10
181639.532391
 20
38920.410687
 30
0.0
 11
181639.532391
 21
37790.410687
 31
0.0
  0
LINE
  5
CBB6
330
CF75
100
AcDbEntity
  8
A733_ストリートファニチャ
 62
     7
370
     9
100
AcDbLine
 10
181569.532391
 20
38920.410687
 30
0.0
 11
181569.532391
 21
37790.410687
 31
0.0
  0
LINE
  5
CBB7
330
CF75
100
AcDbEntity
  8
A733_ストリートファニチャ
 62
     7
370
     9
100
AcDbLine
 10
181614.532391
 20
38917.910687
 30
0.0
 11
181614.532391
 21
38951.410687
 31
0.0
  0
LINE
  5
CBB8
330
CF75
100
AcDbEntity
  8
A733_ストリートファニチャ
 62
     7
370
     9
100
AcDbLine
 10
181632.532391
 20
38917.910687
 30
0.0
 11
181632.532391
 21
38951.410687
 31
0.0
  0
LINE
  5
CBB9
330
CF75
100
AcDbEntity
  8
A733_ストリートファニチャ
 62
     7
370
     9
100
AcDbLine
 10
181632.532391
 20
38929.910687
 30
0.0
 11
181614.532391
 21
38929.910687
 31
0.0
  0
LINE
  5
CBBA
330
CF75
100
AcDbEntity
  8
A733_ストリートファニチャ
 62
     7
370
     9
100
AcDbLine
 10
181632.532391
 20
38941.410687
 30
0.0
 11
181614.532391
 21
38941.410687
 31
0.0
  0
LINE
  5
CBBB
330
CF75
100
AcDbEntity
  8
A733_ストリートファニチャ
 62
     7
370
     9
100
AcDbLine
 10
181623.532391
 20
38364.410687
 30
0.0
 11
181623.532391
 21
38923.910687
 31
0.0
  0
LINE
  5
CBBC
330
CF75
100
AcDbEntity
  8
A733_ストリートファニチャ
 62
     7
370
     9
100
AcDbLine
 10
181586.532391
 20
37786.910687
 30
0.0
 11
181586.532391
 21
38346.410687
 31
0.0
  0
LINE
  5
CBBD
330
CF75
100
AcDbEntity
  8
A733_ストリートファニチャ
 62
     7
370
     9
100
AcDbLine
 10
181595.532391
 20
37780.910687
 30
0.0
 11
181577.532391
 21
37780.910687
 31
0.0
  0
LINE
  5
CBBE
330
CF75
100
AcDbEntity
  8
A733_ストリートファニチャ
 62
     7
370
     9
100
AcDbLine
 10
181595.532391
 20
37769.410687
 30
0.0
 11
181577.532391
 21
37769.410687
 31
0.0
  0
LINE
  5
CBBF
330
CF75
100
AcDbEntity
  8
A733_ストリートファニチャ
 62
     7
370
     9
100
AcDbLine
 10
181595.532391
 20
37792.910687
 30
0.0
 11
181595.532391
 21
37759.410687
 31
0.0
  0
LINE
  5
CBC0
330
CF75
100
AcDbEntity
  8
A733_ストリートファニチャ
 62
     7
370
     9
100
AcDbLine
 10
181577.532391
 20
37792.910687
 30
0.0
 11
181577.532391
 21
37759.410687
 31
0.0
  0
LINE
  5
CBC1
330
CF75
100
AcDbEntity
  8
A733_ストリートファニチャ
 62
     7
370
     9
100
AcDbLine
 10
181577.532391
 20
38370.410687
 30
0.0
 11
181605.032391
 21
38370.410687
 31
0.0
  0
LINE
  5
CBC2
330
CF75
100
AcDbEntity
  8
A733_ストリートファニチャ
 62
     7
370
     9
100
AcDbLine
 10
181614.532391
 20
38358.410687
 30
0.0
 11
181632.532391
 21
38358.410687
 31
0.0
  0
LINE
  5
CBC3
330
CF75
100
AcDbEntity
  8
A733_ストリートファニチャ
 62
     7
370
     9
100
AcDbLine
 10
181577.532391
 20
38340.410687
 30
0.0
 11
181577.532391
 21
38370.410687
 31
0.0
  0
LINE
  5
CBC4
330
CF75
100
AcDbEntity
  8
A733_ストリートファニチャ
 62
     7
370
     9
100
AcDbLine
 10
181595.532391
 20
38352.410687
 30
0.0
 11
181577.532391
 21
38352.410687
 31
0.0
  0
LINE
  5
CBC5
330
CF75
100
AcDbEntity
  8
A733_ストリートファニチャ
 62
     7
370
     9
100
AcDbLine
 10
181632.532391
 20
38340.410687
 30
0.0
 11
181614.532391
 21
38340.410687
 31
0.0
  0
LINE
  5
CBC6
330
CF75
100
AcDbEntity
  8
A733_ストリートファニチャ
 62
     7
370
     9
100
AcDbLine
 10
181595.532391
 20
38340.410687
 30
0.0
 11
181595.532391
 21
38370.410687
 31
0.0
  0
LINE
  5
CBC7
330
CF75
100
AcDbEntity
  8
A733_ストリートファニチャ
 62
     7
370
     9
100
AcDbLine
 10
181605.032391
 20
38370.410687
 30
0.0
 11
181605.032391
 21
38355.410687
 31
0.0
  0
LINE
  5
CBC8
330
CF75
100
AcDbEntity
  8
A733_ストリートファニチャ
 62
     7
370
     9
100
AcDbLine
 10
181614.532391
 20
38370.410687
 30
0.0
 11
181614.532391
 21
38340.410687
 31
0.0
  0
LINE
  5
CBC9
330
CF75
100
AcDbEntity
  8
A733_ストリートファニチャ
 62
     7
370
     9
100
AcDbLine
 10
181632.532391
 20
38370.410687
 30
0.0
 11
181632.532391
 21
38340.410687
 31
0.0
  0
LINE
  5
CBCA
330
CF75
100
AcDbEntity
  8
A733_ストリートファニチャ
 62
     7
370
     9
100
AcDbLine
 10
181409.532391
 20
39005.410687
 30
0.0
 11
181544.532391
 21
39005.410687
 31
0.0
  0
LINE
  5
CBCB
330
CF75
100
AcDbEntity
  8
A733_ストリートファニチャ
 62
     7
370
     9
100
AcDbLine
 10
181409.532391
 20
37705.410687
 30
0.0
 11
181544.532391
 21
37705.410687
 31
0.0
  0
LINE
  5
CBCC
330
CF75
100
AcDbEntity
  8
A733_ストリートファニチャ
 62
     7
370
     9
100
AcDbLine
 10
181639.532391
 20
37770.410687
 30
0.0
 11
181639.532391
 21
37730.410687
 31
0.0
  0
LINE
  5
CBCD
330
CF75
100
AcDbEntity
  8
A733_ストリートファニチャ
 62
     7
370
     9
100
AcDbLine
 10
181639.532391
 20
37730.410687
 30
0.0
 11
181630.532391
 21
37730.410687
 31
0.0
  0
LINE
  5
CBCE
330
CF75
100
AcDbEntity
  8
A733_ストリートファニチャ
 62
     7
370
     9
100
AcDbLine
 10
181569.532391
 20
37730.410687
 30
0.0
 11
181578.532391
 21
37730.410687
 31
0.0
  0
LINE
  5
CBCF
330
CF75
100
AcDbEntity
  8
A733_ストリートファニチャ
 62
     7
370
     9
100
AcDbLine
 10
181569.532391
 20
37770.410687
 30
0.0
 11
181569.532391
 21
37730.410687
 31
0.0
  0
LINE
  5
CBD0
330
CF75
100
AcDbEntity
  8
A733_ストリートファニチャ
 62
     7
370
     9
100
AcDbLine
 10
181639.532391
 20
38980.410687
 30
0.0
 11
181630.532391
 21
38980.410687
 31
0.0
  0
LINE
  5
CBD1
330
CF75
100
AcDbEntity
  8
A733_ストリートファニチャ
 62
     7
370
     9
100
AcDbLine
 10
181569.532391
 20
38980.410687
 30
0.0
 11
181578.532391
 21
38980.410687
 31
0.0
  0
LINE
  5
CBD2
330
CF75
100
AcDbEntity
  8
A733_ストリートファニチャ
 62
     7
370
     9
100
AcDbLine
 10
181639.532391
 20
38940.410687
 30
0.0
 11
181639.532391
 21
38980.410687
 31
0.0
  0
LINE
  5
CBD3
330
CF75
100
AcDbEntity
  8
A733_ストリートファニチャ
 62
     7
370
     9
100
AcDbLine
 10
181569.532391
 20
38980.410687
 30
0.0
 11
181569.532391
 21
38940.410687
 31
0.0
  0
LINE
  5
CBD4
330
CF75
100
AcDbEntity
  8
A733_ストリートファニチャ
 62
     7
370
     9
100
AcDbLine
 10
181544.532391
 20
37705.410687
 30
0.0
 11
181544.532391
 21
37645.410687
 31
0.0
  0
LINE
  5
CBD5
330
CF75
100
AcDbEntity
  8
A733_ストリートファニチャ
 62
     7
370
     9
100
AcDbLine
 10
181544.532391
 20
39005.410687
 30
0.0
 11
181544.532391
 21
39065.410687
 31
0.0
  0
LINE
  5
CBD6
330
CF75
100
AcDbEntity
  8
A733_ストリートファニチャ
 62
     7
370
     9
100
AcDbLine
 10
181544.532391
 20
37645.410687
 30
0.0
 11
181879.532391
 21
37645.410687
 31
0.0
  0
LINE
  5
CBD7
330
CF75
100
AcDbEntity
  8
A733_ストリートファニチャ
 62
     7
370
     9
100
AcDbLine
 10
181544.532391
 20
39065.410687
 30
0.0
 11
181879.532391
 21
39065.410687
 31
0.0
  0
LINE
  5
CBD8
330
CF75
100
AcDbEntity
  8
A733_ストリートファニチャ
 62
     7
370
     9
100
AcDbLine
 10
181554.532391
 20
37725.410687
 30
0.0
 11
181554.532391
 21
37740.410687
 31
0.0
  0
LINE
  5
CBD9
330
CF75
100
AcDbEntity
  8
A733_ストリートファニチャ
 62
     7
370
     9
100
AcDbLine
 10
181569.532391
 20
37725.410687
 30
0.0
 11
181554.532391
 21
37725.410687
 31
0.0
  0
LINE
  5
CBDA
330
CF75
100
AcDbEntity
  8
A733_ストリートファニチャ
 62
     7
370
     9
100
AcDbLine
 10
181569.532391
 20
37725.410687
 30
0.0
 11
181569.532391
 21
37740.410687
 31
0.0
  0
LINE
  5
CBDB
330
CF75
100
AcDbEntity
  8
A733_ストリートファニチャ
 62
     7
370
     9
100
AcDbLine
 10
181569.532391
 20
37740.410687
 30
0.0
 11
181554.532391
 21
37740.410687
 31
0.0
  0
LINE
  5
CBDC
330
CF75
100
AcDbEntity
  8
A733_ストリートファニチャ
 62
     7
370
     9
100
AcDbLine
 10
181569.532391
 20
38985.410687
 30
0.0
 11
181554.532391
 21
38985.410687
 31
0.0
  0
LINE
  5
CBDD
330
CF75
100
AcDbEntity
  8
A733_ストリートファニチャ
 62
     7
370
     9
100
AcDbLine
 10
181569.532391
 20
38985.410687
 30
0.0
 11
181569.532391
 21
38970.410687
 31
0.0
  0
LINE
  5
CBDE
330
CF75
100
AcDbEntity
  8
A733_ストリートファニチャ
 62
     7
370
     9
100
AcDbLine
 10
181569.532391
 20
38970.410687
 30
0.0
 11
181554.532391
 21
38970.410687
 31
0.0
  0
LINE
  5
CBDF
330
CF75
100
AcDbEntity
  8
A733_ストリートファニチャ
 62
     7
370
     9
100
AcDbLine
 10
181554.532391
 20
38985.410687
 30
0.0
 11
181554.532391
 21
38970.410687
 31
0.0
  0
LINE
  5
CBE0
330
CF75
100
AcDbEntity
  8
A733_ストリートファニチャ
 62
     7
370
     9
100
AcDbLine
 10
181569.532391
 20
37760.410687
 30
0.0
 11
181289.532391
 21
37760.410687
 31
0.0
  0
LINE
  5
CBE1
330
CF75
100
AcDbEntity
  8
A733_ストリートファニチャ
 62
     7
370
     9
100
AcDbLine
 10
181569.532391
 20
38950.410687
 30
0.0
 11
181289.532391
 21
38950.410687
 31
0.0
  0
LINE
  5
CBE2
330
CF75
100
AcDbEntity
  8
A733_ストリートファニチャ
 62
     7
370
     9
100
AcDbLine
 10
181554.532391
 20
37740.410687
 30
0.0
 11
181329.532391
 21
37740.410687
 31
0.0
  0
LINE
  5
CBE3
330
CF75
100
AcDbEntity
  8
A733_ストリートファニチャ
 62
     7
370
     9
100
AcDbLine
 10
181554.532391
 20
38970.410687
 30
0.0
 11
181329.532391
 21
38970.410687
 31
0.0
  0
LINE
  5
CBE4
330
CF75
100
AcDbEntity
  8
A733_ストリートファニチャ
 62
     7
370
     9
100
AcDbLine
 10
181569.532391
 20
37085.410687
 30
0.0
 11
181289.532391
 21
37085.410687
 31
0.0
  0
LINE
  5
CBE5
330
CF75
100
AcDbEntity
  8
A733_ストリートファニチャ
 62
     7
370
     9
100
AcDbLine
 10
181639.532391
 20
37090.410687
 30
0.0
 11
181569.532391
 21
37090.410687
 31
0.0
  0
LINE
  5
CBE6
330
CF75
100
AcDbEntity
  8
A733_ストリートファニチャ
 62
     7
370
     9
100
AcDbLine
 10
181614.532391
 20
37052.910687
 30
0.0
 11
181614.532391
 21
37086.410687
 31
0.0
  0
LINE
  5
CBE7
330
CF75
100
AcDbEntity
  8
A733_ストリートファニチャ
 62
     7
370
     9
100
AcDbLine
 10
181632.532391
 20
37052.910687
 30
0.0
 11
181632.532391
 21
37086.410687
 31
0.0
  0
LINE
  5
CBE8
330
CF75
100
AcDbEntity
  8
A733_ストリートファニチャ
 62
     7
370
     9
100
AcDbLine
 10
181632.532391
 20
37064.910687
 30
0.0
 11
181614.532391
 21
37064.910687
 31
0.0
  0
LINE
  5
CBE9
330
CF75
100
AcDbEntity
  8
A733_ストリートファニチャ
 62
     7
370
     9
100
AcDbLine
 10
181632.532391
 20
37076.410687
 30
0.0
 11
181614.532391
 21
37076.410687
 31
0.0
  0
LINE
  5
CBEA
330
CF75
100
AcDbEntity
  8
A733_ストリートファニチャ
 62
     7
370
     9
100
AcDbLine
 10
181409.532391
 20
37140.410687
 30
0.0
 11
181544.532391
 21
37140.410687
 31
0.0
  0
LINE
  5
CBEB
330
CF75
100
AcDbEntity
  8
A733_ストリートファニチャ
 62
     7
370
     9
100
AcDbLine
 10
181639.532391
 20
37115.410687
 30
0.0
 11
181630.532391
 21
37115.410687
 31
0.0
  0
LINE
  5
CBEC
330
CF75
100
AcDbEntity
  8
A733_ストリートファニチャ
 62
     7
370
     9
100
AcDbLine
 10
181569.532391
 20
37115.410687
 30
0.0
 11
181578.532391
 21
37115.410687
 31
0.0
  0
LINE
  5
CBED
330
CF75
100
AcDbEntity
  8
A733_ストリートファニチャ
 62
     7
370
     9
100
AcDbLine
 10
181639.532391
 20
37075.410687
 30
0.0
 11
181639.532391
 21
37115.410687
 31
0.0
  0
LINE
  5
CBEE
330
CF75
100
AcDbEntity
  8
A733_ストリートファニチャ
 62
     7
370
     9
100
AcDbLine
 10
181569.532391
 20
37115.410687
 30
0.0
 11
181569.532391
 21
37075.410687
 31
0.0
  0
LINE
  5
CBEF
330
CF75
100
AcDbEntity
  8
A733_ストリートファニチャ
 62
     7
370
     9
100
AcDbLine
 10
181544.532391
 20
37140.410687
 30
0.0
 11
181544.532391
 21
37200.410687
 31
0.0
  0
LINE
  5
CBF0
330
CF75
100
AcDbEntity
  8
A733_ストリートファニチャ
 62
     7
370
     9
100
AcDbLine
 10
181544.532391
 20
37200.410687
 30
0.0
 11
181879.532391
 21
37200.410687
 31
0.0
  0
LINE
  5
CBF1
330
CF75
100
AcDbEntity
  8
A733_ストリートファニチャ
 62
     7
370
     9
100
AcDbLine
 10
181569.532391
 20
37120.410687
 30
0.0
 11
181554.532391
 21
37120.410687
 31
0.0
  0
LINE
  5
CBF2
330
CF75
100
AcDbEntity
  8
A733_ストリートファニチャ
 62
     7
370
     9
100
AcDbLine
 10
181569.532391
 20
37120.410687
 30
0.0
 11
181569.532391
 21
37105.410687
 31
0.0
  0
LINE
  5
CBF3
330
CF75
100
AcDbEntity
  8
A733_ストリートファニチャ
 62
     7
370
     9
100
AcDbLine
 10
181569.532391
 20
37105.410687
 30
0.0
 11
181554.532391
 21
37105.410687
 31
0.0
  0
LINE
  5
CBF4
330
CF75
100
AcDbEntity
  8
A733_ストリートファニチャ
 62
     7
370
     9
100
AcDbLine
 10
181554.532391
 20
37120.410687
 30
0.0
 11
181554.532391
 21
37105.410687
 31
0.0
  0
LINE
  5
CBF5
330
CF75
100
AcDbEntity
  8
A733_ストリートファニチャ
 62
     7
370
     9
100
AcDbLine
 10
181554.532391
 20
37105.410687
 30
0.0
 11
181329.532391
 21
37105.410687
 31
0.0
  0
LINE
  5
CBF6
330
CF75
100
AcDbEntity
  8
A733_ストリートファニチャ
 62
     7
370
     9
100
AcDbLine
 10
181639.532391
 20
37090.410687
 30
0.0
 11
181992.532391
 21
37090.410687
 31
0.0
  0
LINE
  5
CBF7
330
CF75
100
AcDbEntity
  8
A733_ストリートファニチャ
 62
     7
370
     9
100
AcDbLine
 10
181639.532391
 20
39620.410687
 30
0.0
 11
181992.532391
 21
39620.410687
 31
0.0
  0
LINE
  5
CBF8
330
CF75
100
AcDbEntity
  8
A733_ストリートファニチャ
 62
     7
370
     9
100
AcDbLine
 10
181639.532391
 20
37755.410687
 30
0.0
 11
181992.532391
 21
37755.410687
 31
0.0
  0
LINE
  5
CBF9
330
CF75
100
AcDbEntity
  8
A733_ストリートファニチャ
 62
     7
370
     9
100
AcDbLine
 10
182129.532391
 20
39090.410687
 30
0.0
 11
182129.532391
 21
37620.410687
 31
0.0
  0
LINE
  5
CBFA
330
CF75
100
AcDbEntity
  8
A733_ストリートファニチャ
 62
     7
370
     9
100
AcDbLine
 10
181979.532391
 20
39090.410687
 30
0.0
 11
182129.532391
 21
39090.410687
 31
0.0
  0
LINE
  5
CBFB
330
CF75
100
AcDbEntity
  8
A733_ストリートファニチャ
 62
     7
370
     9
100
AcDbLine
 10
181979.532391
 20
37620.410687
 30
0.0
 11
182129.532391
 21
37620.410687
 31
0.0
  0
LINE
  5
CBFC
330
CF75
100
AcDbEntity
  8
A733_ストリートファニチャ
 62
     7
370
     9
100
AcDbLine
 10
181979.532391
 20
39485.410687
 30
0.0
 11
182129.532391
 21
39485.410687
 31
0.0
  0
LINE
  5
CBFD
330
CF75
100
AcDbEntity
  8
A733_ストリートファニチャ
 62
     7
370
     9
100
AcDbLine
 10
183289.532391
 20
33244.410687
 30
0.0
 11
182532.532391
 21
33789.410687
 31
0.0
  0
LINE
  5
CBFE
330
CF75
100
AcDbEntity
  8
A733_ストリートファニチャ
 62
     7
370
     9
100
AcDbLine
 10
182532.532391
 20
33244.410687
 30
0.0
 11
183289.532391
 21
33789.410687
 31
0.0
  0
LINE
  5
CBFF
330
CF75
100
AcDbEntity
  8
A733_ストリートファニチャ
 62
     7
370
     9
100
AcDbLine
 10
183289.532391
 20
33244.410687
 30
0.0
 11
182532.532391
 21
33244.410687
 31
0.0
  0
LINE
  5
CC00
330
CF75
100
AcDbEntity
  8
A733_ストリートファニチャ
 62
     7
370
     9
100
AcDbLine
 10
183289.532391
 20
33789.410687
 30
0.0
 11
182257.532391
 21
33789.410687
 31
0.0
  0
LINE
  5
CC01
330
CF75
100
AcDbEntity
  8
A733_ストリートファニチャ
 62
     7
370
     9
100
AcDbLine
 10
183334.532391
 20
33199.410687
 30
0.0
 11
182487.532391
 21
33199.410687
 31
0.0
  0
LINE
  5
CC02
330
CF75
100
AcDbEntity
  8
A733_ストリートファニチャ
 62
     7
370
     9
100
AcDbLine
 10
183289.532391
 20
33789.410687
 30
0.0
 11
183289.532391
 21
33244.410687
 31
0.0
  0
LINE
  5
CC03
330
CF75
100
AcDbEntity
  8
A733_ストリートファニチャ
 62
     7
370
     9
100
AcDbLine
 10
183334.532391
 20
33569.410687
 30
0.0
 11
183334.532391
 21
33199.410687
 31
0.0
  0
POINT
  5
CC06
330
CF75
100
AcDbEntity
  8
A733_ストリートファニチャ
 62
     7
370
     9
100
AcDbPoint
 10
181979.532391
 20
41803.910687
 30
0.0
 50
-90.0
  0
LINE
  5
CC07
330
CF75
100
AcDbEntity
  8
A733_ストリートファニチャ
 62
     7
370
     9
100
AcDbLine
 10
189336.032391
 20
34334.410687
 30
0.0
 11
188912.032391
 21
34334.410687
 31
0.0
  0
LINE
  5
CC08
330
CF75
100
AcDbEntity
  8
A733_ストリートファニチャ
 62
     7
370
     9
100
AcDbLine
 10
181879.532391
 20
34404.410687
 30
0.0
 11
182334.532391
 21
34404.410687
 31
0.0
  0
LINE
  5
CC09
330
CF75
100
AcDbEntity
  8
A733_ストリートファニチャ
 62
     7
370
     9
100
AcDbLine
 10
181879.532391
 20
42291.410687
 30
0.0
 11
182334.532391
 21
42291.410687
 31
0.0
  0
LINE
  5
CC0A
330
CF75
100
AcDbEntity
  8
A733_ストリートファニチャ
 62
     7
370
     9
100
AcDbLine
 10
182334.532391
 20
42291.410687
 30
0.0
 11
182334.532391
 21
42746.410687
 31
0.0
  0
LINE
  5
CC0B
330
CF75
100
AcDbEntity
  8
A733_ストリートファニチャ
 62
     7
370
     9
100
AcDbLine
 10
182334.532391
 20
33859.410687
 30
0.0
 11
182334.532391
 21
34404.410687
 31
0.0
  0
POINT
  5
CC0C
330
CF75
100
AcDbEntity
  8
A733_ストリートファニチャ
 62
     7
370
     9
100
AcDbPoint
 10
181979.532391
 20
35091.910687
 30
0.0
 50
-90.0
  0
POINT
  5
CC0D
330
CF75
100
AcDbEntity
  8
A733_ストリートファニチャ
 62
     7
370
     9
100
AcDbPoint
 10
182979.532391
 20
33959.410687
 30
0.0
 50
-90.0
  0
POINT
  5
CC0E
330
CF75
100
AcDbEntity
  8
A733_ストリートファニチャ
 62
     7
370
     9
100
AcDbPoint
 10
182244.070828
 20
34504.410687
 30
0.0
 50
-90.0
  0
POINT
  5
CC0F
330
CF75
100
AcDbEntity
  8
A733_ストリートファニチャ
 62
     7
370
     9
100
AcDbPoint
 10
182244.070828
 20
34426.910687
 30
0.0
 50
-90.0
  0
POINT
  5
CC10
330
CF75
100
AcDbEntity
  8
A733_ストリートファニチャ
 62
     7
370
     9
100
AcDbPoint
 10
182434.532391
 20
34209.410687
 30
0.0
 50
-90.0
  0
POINT
  5
CC11
330
CF75
100
AcDbEntity
  8
A733_ストリートファニチャ
 62
     7
370
     9
100
AcDbPoint
 10
182357.032391
 20
34209.410687
 30
0.0
 50
-90.0
  0
LINE
  5
CC12
330
CF75
100
AcDbEntity
  8
A733_ストリートファニチャ
 62
     7
370
     9
100
AcDbLine
 10
181979.532391
 20
34504.410687
 30
0.0
 11
182434.532391
 21
34504.410687
 31
0.0
  0
LINE
  5
CC13
330
CF75
100
AcDbEntity
  8
A733_ストリートファニチャ
 62
     7
370
     9
100
AcDbLine
 10
182434.532391
 20
33959.410687
 30
0.0
 11
182434.532391
 21
34504.410687
 31
0.0
  0
POINT
  5
CC14
330
CF75
100
AcDbEntity
  8
A733_ストリートファニチャ
 62
     7
370
     9
100
AcDbPoint
 10
182434.532391
 20
42493.514083
 30
0.0
 50
-90.0
  0
POINT
  5
CC15
330
CF75
100
AcDbEntity
  8
A733_ストリートファニチャ
 62
     7
370
     9
100
AcDbPoint
 10
182357.032391
 20
42493.514083
 30
0.0
 50
-90.0
  0
POINT
  5
CC16
330
CF75
100
AcDbEntity
  8
A733_ストリートファニチャ
 62
     7
370
     9
100
AcDbPoint
 10
182204.532391
 20
42191.410687
 30
0.0
 50
-90.0
  0
POINT
  5
CC17
330
CF75
100
AcDbEntity
  8
A733_ストリートファニチャ
 62
     7
370
     9
100
AcDbPoint
 10
182204.532391
 20
42268.910687
 30
0.0
 50
-90.0
  0
LINE
  5
CC18
330
CF75
100
AcDbEntity
  8
A733_ストリートファニチャ
 62
     7
370
     9
100
AcDbLine
 10
182434.532391
 20
42191.410687
 30
0.0
 11
181979.532391
 21
42191.410687
 31
0.0
  0
LINE
  5
CC19
330
CF75
100
AcDbEntity
  8
A733_ストリートファニチャ
 62
     7
370
     9
100
AcDbLine
 10
188912.032391
 20
34334.410687
 30
0.0
 11
188912.032391
 21
33486.410687
 31
0.0
  0
LINE
  5
CC1A
330
CF75
100
AcDbEntity
  8
A733_ストリートファニチャ
 62
     7
370
     9
100
AcDbLine
 10
188867.032391
 20
33569.410687
 30
0.0
 11
188867.032391
 21
33441.410687
 31
0.0
  0
LINE
  5
CC1B
330
CF75
100
AcDbEntity
  8
A733_ストリートファニチャ
 62
     7
370
     9
100
AcDbLine
 10
188912.032391
 20
33486.410687
 30
0.0
 11
189760.032391
 21
33486.410687
 31
0.0
  0
LINE
  5
CC1C
330
CF75
100
AcDbEntity
  8
A733_ストリートファニチャ
 62
     7
370
     9
100
AcDbLine
 10
189336.032391
 20
34334.410687
 30
0.0
 11
189760.032391
 21
34334.410687
 31
0.0
  0
LINE
  5
CC1D
330
CF75
100
AcDbEntity
  8
A733_ストリートファニチャ
 62
     7
370
     9
100
AcDbLine
 10
189760.032391
 20
34940.410687
 30
0.0
 11
189760.032391
 21
33486.410687
 31
0.0
  0
LINE
  5
CC1E
330
CF75
100
AcDbEntity
  8
A733_ストリートファニチャ
 62
     7
370
     9
100
AcDbLine
 10
189760.032391
 20
34940.410687
 30
0.0
 11
189336.032391
 21
34940.410687
 31
0.0
  0
LINE
  5
CC1F
330
CF75
100
AcDbEntity
  8
A733_ストリートファニチャ
 62
     7
370
     9
100
AcDbLine
 10
189336.032391
 20
34940.410687
 30
0.0
 11
189336.032391
 21
34334.410687
 31
0.0
  0
LINE
  5
CC20
330
CF75
100
AcDbEntity
  8
A733_ストリートファニチャ
 62
     7
370
     9
100
AcDbLine
 10
189336.032391
 20
38245.410687
 30
0.0
 11
189336.032391
 21
36873.410687
 31
0.0
  0
LINE
  5
CC21
330
CF75
100
AcDbEntity
  8
A733_ストリートファニチャ
 62
     7
370
     9
100
AcDbLine
 10
189760.032391
 20
37518.410687
 30
0.0
 11
189336.032391
 21
37518.410687
 31
0.0
  0
LINE
  5
CC22
330
CF75
100
AcDbEntity
  8
A733_ストリートファニチャ
 62
     7
370
     9
100
AcDbLine
 10
189881.032391
 20
37518.410687
 30
0.0
 11
189760.032391
 21
37518.410687
 31
0.0
  0
LINE
  5
CC23
330
CF75
100
AcDbEntity
  8
A733_ストリートファニチャ
 62
     7
370
     9
100
AcDbLine
 10
189760.032391
 20
36873.410687
 30
0.0
 11
189336.032391
 21
36873.410687
 31
0.0
  0
LINE
  5
CC24
330
CF75
100
AcDbEntity
  8
A733_ストリートファニチャ
 62
     7
370
     9
100
AcDbLine
 10
189760.032391
 20
37518.410687
 30
0.0
 11
189760.032391
 21
36873.410687
 31
0.0
  0
LINE
  5
CC25
330
CF75
100
AcDbEntity
  8
A733_ストリートファニチャ
 62
     7
370
     9
100
AcDbLine
 10
188842.032391
 20
34404.410687
 30
0.0
 11
188842.032391
 21
33859.410687
 31
0.0
  0
LINE
  5
CC26
330
CF75
100
AcDbEntity
  8
A733_ストリートファニチャ
 62
     7
370
     9
100
AcDbLine
 10
188842.032391
 20
34404.410687
 30
0.0
 11
189266.032391
 21
34404.410687
 31
0.0
  0
POINT
  5
CC27
330
CF75
100
AcDbEntity
  8
A733_ストリートファニチャ
 62
     7
370
     9
100
AcDbPoint
 10
182979.532391
 20
42646.410687
 30
0.0
 50
-90.0
  0
LINE
  5
CC28
330
CF75
100
AcDbEntity
  8
A733_ストリートファニチャ
 62
     7
370
     9
100
AcDbLine
 10
182434.532391
 20
42646.410687
 30
0.0
 11
182434.532391
 21
42191.410687
 31
0.0
  0
POINT
  5
CC29
330
CF75
100
AcDbEntity
  8
A733_ストリートファニチャ
 62
     7
370
     9
100
AcDbPoint
 10
188201.032391
 20
42646.410687
 30
0.0
 50
-90.0
  0
POINT
  5
CC2A
330
CF75
100
AcDbEntity
  8
A733_ストリートファニチャ
 62
     7
370
     9
100
AcDbPoint
 10
188741.032391
 20
34197.30729
 30
0.0
 50
-90.0
  0
POINT
  5
CC2B
330
CF75
100
AcDbEntity
  8
A733_ストリートファニチャ
 62
     7
370
     9
100
AcDbPoint
 10
188818.532391
 20
34197.30729
 30
0.0
 50
-90.0
  0
POINT
  5
CC2C
330
CF75
100
AcDbEntity
  8
A733_ストリートファニチャ
 62
     7
370
     9
100
AcDbPoint
 10
188292.032391
 20
33959.410687
 30
0.0
 50
-90.0
  0
LINE
  5
CC2D
330
CF75
100
AcDbEntity
  8
A733_ストリートファニチャ
 62
     7
370
     9
100
AcDbLine
 10
185141.032391
 20
42986.410687
 30
0.0
 11
185141.032391
 21
42633.410687
 31
0.0
  0
LINE
  5
CC2E
330
CF75
100
AcDbEntity
  8
A733_ストリートファニチャ
 62
     7
370
     9
100
AcDbLine
 10
185806.032391
 20
42986.410687
 30
0.0
 11
185806.032391
 21
42633.410687
 31
0.0
  0
LINE
  5
CC2F
330
CF75
100
AcDbEntity
  8
A733_ストリートファニチャ
 62
     7
370
     9
100
AcDbLine
 10
185276.032391
 20
42496.410687
 30
0.0
 11
185276.032391
 21
42646.410687
 31
0.0
  0
LINE
  5
CC30
330
CF75
100
AcDbEntity
  8
A733_ストリートファニチャ
 62
     7
370
     9
100
AcDbLine
 10
185671.032391
 20
42496.410687
 30
0.0
 11
185671.032391
 21
42646.410687
 31
0.0
  0
LINE
  5
CC31
330
CF75
100
AcDbEntity
  8
A733_ストリートファニチャ
 62
     7
370
     9
100
AcDbLine
 10
181409.532391
 20
35260.410687
 30
0.0
 11
181409.532391
 21
34099.410687
 31
0.0
  0
LINE
  5
CC32
330
CF75
100
AcDbEntity
  8
A733_ストリートファニチャ
 62
     7
370
     9
100
AcDbLine
 10
181289.532391
 20
35315.410687
 30
0.0
 11
181289.532391
 21
37085.410687
 31
0.0
  0
LINE
  5
CC33
330
CF75
100
AcDbEntity
  8
A733_ストリートファニチャ
 62
     7
370
     9
100
AcDbLine
 10
181289.532391
 20
35315.410687
 30
0.0
 11
181289.532391
 21
35115.410687
 31
0.0
  0
LINE
  5
CC34
330
CF75
100
AcDbEntity
  8
A733_ストリートファニチャ
 62
     7
370
     9
100
AcDbLine
 10
181329.532391
 20
35115.410687
 30
0.0
 11
181289.532391
 21
35115.410687
 31
0.0
  0
LINE
  5
CC35
330
CF75
100
AcDbEntity
  8
A733_ストリートファニチャ
 62
     7
370
     9
100
AcDbLine
 10
181329.532391
 20
35295.410687
 30
0.0
 11
181329.532391
 21
34179.410687
 31
0.0
  0
LINE
  5
CC36
330
CF75
100
AcDbEntity
  8
A733_ストリートファニチャ
 62
     7
370
     9
100
AcDbLine
 10
181879.532391
 20
34334.410687
 30
0.0
 11
181879.532391
 21
35200.410687
 31
0.0
  0
LINE
  5
CC37
330
CF75
100
AcDbEntity
  8
A733_ストリートファニチャ
 62
     7
370
     9
100
AcDbLine
 10
181569.532391
 20
35315.410687
 30
0.0
 11
181289.532391
 21
35315.410687
 31
0.0
  0
LINE
  5
CC38
330
CF75
100
AcDbEntity
  8
A733_ストリートファニチャ
 62
     7
370
     9
100
AcDbLine
 10
181639.532391
 20
35310.410687
 30
0.0
 11
181569.532391
 21
35310.410687
 31
0.0
  0
LINE
  5
CC39
330
CF75
100
AcDbEntity
  8
A733_ストリートファニチャ
 62
     7
370
     9
100
AcDbLine
 10
181639.532391
 20
37055.410687
 30
0.0
 11
181639.532391
 21
35345.410687
 31
0.0
  0
LINE
  5
CC3A
330
CF75
100
AcDbEntity
  8
A733_ストリートファニチャ
 62
     7
370
     9
100
AcDbLine
 10
181569.532391
 20
37055.410687
 30
0.0
 11
181569.532391
 21
35345.410687
 31
0.0
  0
LINE
  5
CC3B
330
CF75
100
AcDbEntity
  8
A733_ストリートファニチャ
 62
     7
370
     9
100
AcDbLine
 10
181595.532391
 20
35335.910687
 30
0.0
 11
181577.532391
 21
35335.910687
 31
0.0
  0
LINE
  5
CC3C
330
CF75
100
AcDbEntity
  8
A733_ストリートファニチャ
 62
     7
370
     9
100
AcDbLine
 10
181595.532391
 20
35324.410687
 30
0.0
 11
181577.532391
 21
35324.410687
 31
0.0
  0
LINE
  5
CC3D
330
CF75
100
AcDbEntity
  8
A733_ストリートファニチャ
 62
     7
370
     9
100
AcDbLine
 10
181595.532391
 20
35347.910687
 30
0.0
 11
181595.532391
 21
35314.410687
 31
0.0
  0
LINE
  5
CC3E
330
CF75
100
AcDbEntity
  8
A733_ストリートファニチャ
 62
     7
370
     9
100
AcDbLine
 10
181577.532391
 20
35347.910687
 30
0.0
 11
181577.532391
 21
35314.410687
 31
0.0
  0
LINE
  5
CC3F
330
CF75
100
AcDbEntity
  8
A733_ストリートファニチャ
 62
     7
370
     9
100
AcDbLine
 10
181409.532391
 20
35260.410687
 30
0.0
 11
181544.532391
 21
35260.410687
 31
0.0
  0
LINE
  5
CC40
330
CF75
100
AcDbEntity
  8
A733_ストリートファニチャ
 62
     7
370
     9
100
AcDbLine
 10
181639.532391
 20
35325.410687
 30
0.0
 11
181639.532391
 21
35285.410687
 31
0.0
  0
LINE
  5
CC41
330
CF75
100
AcDbEntity
  8
A733_ストリートファニチャ
 62
     7
370
     9
100
AcDbLine
 10
181639.532391
 20
35285.410687
 30
0.0
 11
181630.532391
 21
35285.410687
 31
0.0
  0
LINE
  5
CC42
330
CF75
100
AcDbEntity
  8
A733_ストリートファニチャ
 62
     7
370
     9
100
AcDbLine
 10
181569.532391
 20
35285.410687
 30
0.0
 11
181578.532391
 21
35285.410687
 31
0.0
  0
LINE
  5
CC43
330
CF75
100
AcDbEntity
  8
A733_ストリートファニチャ
 62
     7
370
     9
100
AcDbLine
 10
181569.532391
 20
35325.410687
 30
0.0
 11
181569.532391
 21
35285.410687
 31
0.0
  0
LINE
  5
CC44
330
CF75
100
AcDbEntity
  8
A733_ストリートファニチャ
 62
     7
370
     9
100
AcDbLine
 10
181544.532391
 20
35260.410687
 30
0.0
 11
181544.532391
 21
35200.410687
 31
0.0
  0
LINE
  5
CC45
330
CF75
100
AcDbEntity
  8
A733_ストリートファニチャ
 62
     7
370
     9
100
AcDbLine
 10
181544.532391
 20
35200.410687
 30
0.0
 11
181879.532391
 21
35200.410687
 31
0.0
  0
LINE
  5
CC46
330
CF75
100
AcDbEntity
  8
A733_ストリートファニチャ
 62
     7
370
     9
100
AcDbLine
 10
181554.532391
 20
35280.410687
 30
0.0
 11
181554.532391
 21
35295.410687
 31
0.0
  0
LINE
  5
CC47
330
CF75
100
AcDbEntity
  8
A733_ストリートファニチャ
 62
     7
370
     9
100
AcDbLine
 10
181569.532391
 20
35280.410687
 30
0.0
 11
181554.532391
 21
35280.410687
 31
0.0
  0
LINE
  5
CC48
330
CF75
100
AcDbEntity
  8
A733_ストリートファニチャ
 62
     7
370
     9
100
AcDbLine
 10
181569.532391
 20
35280.410687
 30
0.0
 11
181569.532391
 21
35295.410687
 31
0.0
  0
LINE
  5
CC49
330
CF75
100
AcDbEntity
  8
A733_ストリートファニチャ
 62
     7
370
     9
100
AcDbLine
 10
181569.532391
 20
35295.410687
 30
0.0
 11
181554.532391
 21
35295.410687
 31
0.0
  0
LINE
  5
CC4A
330
CF75
100
AcDbEntity
  8
A733_ストリートファニチャ
 62
     7
370
     9
100
AcDbLine
 10
181554.532391
 20
35295.410687
 30
0.0
 11
181329.532391
 21
35295.410687
 31
0.0
  0
LINE
  5
CC4B
330
CF75
100
AcDbEntity
  8
A733_ストリートファニチャ
 62
     7
370
     9
100
AcDbLine
 10
181639.532391
 20
35310.410687
 30
0.0
 11
181992.532391
 21
35310.410687
 31
0.0
  0
LINE
  5
CC4C
330
CF75
100
AcDbEntity
  8
A733_ストリートファニチャ
 62
     7
370
     9
100
AcDbLine
 10
181623.532391
 20
36209.410687
 30
0.0
 11
181623.532391
 21
37058.910687
 31
0.0
  0
LINE
  5
CC4D
330
CF75
100
AcDbEntity
  8
A733_ストリートファニチャ
 62
     7
370
     9
100
AcDbLine
 10
181577.532391
 20
36215.410687
 30
0.0
 11
181605.032391
 21
36215.410687
 31
0.0
  0
LINE
  5
CC4E
330
CF75
100
AcDbEntity
  8
A733_ストリートファニチャ
 62
     7
370
     9
100
AcDbLine
 10
181614.532391
 20
36203.410687
 30
0.0
 11
181632.532391
 21
36203.410687
 31
0.0
  0
LINE
  5
CC4F
330
CF75
100
AcDbEntity
  8
A733_ストリートファニチャ
 62
     7
370
     9
100
AcDbLine
 10
181577.532391
 20
36185.410687
 30
0.0
 11
181577.532391
 21
36215.410687
 31
0.0
  0
LINE
  5
CC50
330
CF75
100
AcDbEntity
  8
A733_ストリートファニチャ
 62
     7
370
     9
100
AcDbLine
 10
181595.532391
 20
36197.410687
 30
0.0
 11
181577.532391
 21
36197.410687
 31
0.0
  0
LINE
  5
CC51
330
CF75
100
AcDbEntity
  8
A733_ストリートファニチャ
 62
     7
370
     9
100
AcDbLine
 10
181632.532391
 20
36185.410687
 30
0.0
 11
181614.532391
 21
36185.410687
 31
0.0
  0
LINE
  5
CC52
330
CF75
100
AcDbEntity
  8
A733_ストリートファニチャ
 62
     7
370
     9
100
AcDbLine
 10
181595.532391
 20
36185.410687
 30
0.0
 11
181595.532391
 21
36215.410687
 31
0.0
  0
LINE
  5
CC53
330
CF75
100
AcDbEntity
  8
A733_ストリートファニチャ
 62
     7
370
     9
100
AcDbLine
 10
181605.032391
 20
36215.410687
 30
0.0
 11
181605.032391
 21
36200.410687
 31
0.0
  0
LINE
  5
CC54
330
CF75
100
AcDbEntity
  8
A733_ストリートファニチャ
 62
     7
370
     9
100
AcDbLine
 10
181614.532391
 20
36215.410687
 30
0.0
 11
181614.532391
 21
36185.410687
 31
0.0
  0
LINE
  5
CC55
330
CF75
100
AcDbEntity
  8
A733_ストリートファニチャ
 62
     7
370
     9
100
AcDbLine
 10
181632.532391
 20
36215.410687
 30
0.0
 11
181632.532391
 21
36185.410687
 31
0.0
  0
LINE
  5
CC56
330
CF75
100
AcDbEntity
  8
A733_ストリートファニチャ
 62
     7
370
     9
100
AcDbLine
 10
181586.532391
 20
35341.910687
 30
0.0
 11
181586.532391
 21
36191.410687
 31
0.0
  0
LINE
  5
CC57
330
CF75
100
AcDbEntity
  8
A733_ストリートファニチャ
 62
     7
370
     9
100
AcDbLine
 10
181409.532391
 20
43091.410687
 30
0.0
 11
181409.532391
 21
41450.410687
 31
0.0
  0
LINE
  5
CC58
330
CF75
100
AcDbEntity
  8
A733_ストリートファニチャ
 62
     7
370
     9
100
AcDbLine
 10
181289.532391
 20
39625.410687
 30
0.0
 11
181289.532391
 21
41395.410687
 31
0.0
  0
LINE
  5
CC59
330
CF75
100
AcDbEntity
  8
A733_ストリートファニチャ
 62
     7
370
     9
100
AcDbLine
 10
181329.532391
 20
41595.410687
 30
0.0
 11
181289.532391
 21
41595.410687
 31
0.0
  0
LINE
  5
CC5A
330
CF75
100
AcDbEntity
  8
A733_ストリートファニチャ
 62
     7
370
     9
100
AcDbLine
 10
181289.532391
 20
41595.410687
 30
0.0
 11
181289.532391
 21
41395.410687
 31
0.0
  0
LINE
  5
CC5B
330
CF75
100
AcDbEntity
  8
A733_ストリートファニチャ
 62
     7
370
     9
100
AcDbLine
 10
181329.532391
 20
43091.410687
 30
0.0
 11
181329.532391
 21
41415.410687
 31
0.0
  0
LINE
  5
CC5C
330
CF75
100
AcDbEntity
  8
A733_ストリートファニチャ
 62
     7
370
     9
100
AcDbLine
 10
181879.532391
 20
42368.410687
 30
0.0
 11
181879.532391
 21
41510.410687
 31
0.0
  0
LINE
  5
CC5D
330
CF75
100
AcDbEntity
  8
A733_ストリートファニチャ
 62
     7
370
     9
100
AcDbLine
 10
181639.532391
 20
39655.410687
 30
0.0
 11
181639.532391
 21
41365.410687
 31
0.0
  0
LINE
  5
CC5E
330
CF75
100
AcDbEntity
  8
A733_ストリートファニチャ
 62
     7
370
     9
100
AcDbLine
 10
181569.532391
 20
39655.410687
 30
0.0
 11
181569.532391
 21
41365.410687
 31
0.0
  0
LINE
  5
CC5F
330
CF75
100
AcDbEntity
  8
A733_ストリートファニチャ
 62
     7
370
     9
100
AcDbLine
 10
181639.532391
 20
41400.410687
 30
0.0
 11
181569.532391
 21
41400.410687
 31
0.0
  0
LINE
  5
CC60
330
CF75
100
AcDbEntity
  8
A733_ストリートファニチャ
 62
     7
370
     9
100
AcDbLine
 10
181614.532391
 20
41362.910687
 30
0.0
 11
181614.532391
 21
41396.410687
 31
0.0
  0
LINE
  5
CC61
330
CF75
100
AcDbEntity
  8
A733_ストリートファニチャ
 62
     7
370
     9
100
AcDbLine
 10
181632.532391
 20
41362.910687
 30
0.0
 11
181632.532391
 21
41396.410687
 31
0.0
  0
LINE
  5
CC62
330
CF75
100
AcDbEntity
  8
A733_ストリートファニチャ
 62
     7
370
     9
100
AcDbLine
 10
181632.532391
 20
41374.910687
 30
0.0
 11
181614.532391
 21
41374.910687
 31
0.0
  0
LINE
  5
CC63
330
CF75
100
AcDbEntity
  8
A733_ストリートファニチャ
 62
     7
370
     9
100
AcDbLine
 10
181632.532391
 20
41386.410687
 30
0.0
 11
181614.532391
 21
41386.410687
 31
0.0
  0
LINE
  5
CC64
330
CF75
100
AcDbEntity
  8
A733_ストリートファニチャ
 62
     7
370
     9
100
AcDbLine
 10
181409.532391
 20
41450.410687
 30
0.0
 11
181544.532391
 21
41450.410687
 31
0.0
  0
LINE
  5
CC65
330
CF75
100
AcDbEntity
  8
A733_ストリートファニチャ
 62
     7
370
     9
100
AcDbLine
 10
181639.532391
 20
41425.410687
 30
0.0
 11
181630.532391
 21
41425.410687
 31
0.0
  0
LINE
  5
CC66
330
CF75
100
AcDbEntity
  8
A733_ストリートファニチャ
 62
     7
370
     9
100
AcDbLine
 10
181569.532391
 20
41425.410687
 30
0.0
 11
181578.532391
 21
41425.410687
 31
0.0
  0
LINE
  5
CC67
330
CF75
100
AcDbEntity
  8
A733_ストリートファニチャ
 62
     7
370
     9
100
AcDbLine
 10
181639.532391
 20
41385.410687
 30
0.0
 11
181639.532391
 21
41425.410687
 31
0.0
  0
LINE
  5
CC68
330
CF75
100
AcDbEntity
  8
A733_ストリートファニチャ
 62
     7
370
     9
100
AcDbLine
 10
181569.532391
 20
41425.410687
 30
0.0
 11
181569.532391
 21
41385.410687
 31
0.0
  0
LINE
  5
CC69
330
CF75
100
AcDbEntity
  8
A733_ストリートファニチャ
 62
     7
370
     9
100
AcDbLine
 10
181544.532391
 20
41450.410687
 30
0.0
 11
181544.532391
 21
41510.410687
 31
0.0
  0
LINE
  5
CC6A
330
CF75
100
AcDbEntity
  8
A733_ストリートファニチャ
 62
     7
370
     9
100
AcDbLine
 10
181544.532391
 20
41510.410687
 30
0.0
 11
181879.532391
 21
41510.410687
 31
0.0
  0
LINE
  5
CC6B
330
CF75
100
AcDbEntity
  8
A733_ストリートファニチャ
 62
     7
370
     9
100
AcDbLine
 10
181569.532391
 20
41430.410687
 30
0.0
 11
181554.532391
 21
41430.410687
 31
0.0
  0
LINE
  5
CC6C
330
CF75
100
AcDbEntity
  8
A733_ストリートファニチャ
 62
     7
370
     9
100
AcDbLine
 10
181569.532391
 20
41430.410687
 30
0.0
 11
181569.532391
 21
41415.410687
 31
0.0
  0
LINE
  5
CC6D
330
CF75
100
AcDbEntity
  8
A733_ストリートファニチャ
 62
     7
370
     9
100
AcDbLine
 10
181569.532391
 20
41415.410687
 30
0.0
 11
181554.532391
 21
41415.410687
 31
0.0
  0
LINE
  5
CC6E
330
CF75
100
AcDbEntity
  8
A733_ストリートファニチャ
 62
     7
370
     9
100
AcDbLine
 10
181554.532391
 20
41430.410687
 30
0.0
 11
181554.532391
 21
41415.410687
 31
0.0
  0
LINE
  5
CC6F
330
CF75
100
AcDbEntity
  8
A733_ストリートファニチャ
 62
     7
370
     9
100
AcDbLine
 10
181569.532391
 20
41395.410687
 30
0.0
 11
181289.532391
 21
41395.410687
 31
0.0
  0
LINE
  5
CC70
330
CF75
100
AcDbEntity
  8
A733_ストリートファニチャ
 62
     7
370
     9
100
AcDbLine
 10
181554.532391
 20
41415.410687
 30
0.0
 11
181329.532391
 21
41415.410687
 31
0.0
  0
LINE
  5
CC71
330
CF75
100
AcDbEntity
  8
A733_ストリートファニチャ
 62
     7
370
     9
100
AcDbLine
 10
181639.532391
 20
41400.410687
 30
0.0
 11
181992.532391
 21
41400.410687
 31
0.0
  0
LINE
  5
CC72
330
CF75
100
AcDbEntity
  8
A733_ストリートファニチャ
 62
     7
370
     9
100
AcDbLine
 10
182129.532391
 20
41535.410687
 30
0.0
 11
182129.532391
 21
39485.410687
 31
0.0
  0
LINE
  5
CC73
330
CF75
100
AcDbEntity
  8
A733_ストリートファニチャ
 62
     7
370
     9
100
AcDbLine
 10
181979.532391
 20
41535.410687
 30
0.0
 11
182129.532391
 21
41535.410687
 31
0.0
  0
LINE
  5
CC74
330
CF75
100
AcDbEntity
  8
A733_ストリートファニチャ
 62
     7
370
     9
100
AcDbLine
 10
181586.532391
 20
39651.910687
 30
0.0
 11
181586.532391
 21
40501.410687
 31
0.0
  0
LINE
  5
CC75
330
CF75
100
AcDbEntity
  8
A733_ストリートファニチャ
 62
     7
370
     9
100
AcDbLine
 10
181577.532391
 20
40525.410687
 30
0.0
 11
181605.032391
 21
40525.410687
 31
0.0
  0
LINE
  5
CC76
330
CF75
100
AcDbEntity
  8
A733_ストリートファニチャ
 62
     7
370
     9
100
AcDbLine
 10
181614.532391
 20
40513.410687
 30
0.0
 11
181632.532391
 21
40513.410687
 31
0.0
  0
LINE
  5
CC77
330
CF75
100
AcDbEntity
  8
A733_ストリートファニチャ
 62
     7
370
     9
100
AcDbLine
 10
181577.532391
 20
40495.410687
 30
0.0
 11
181577.532391
 21
40525.410687
 31
0.0
  0
LINE
  5
CC78
330
CF75
100
AcDbEntity
  8
A733_ストリートファニチャ
 62
     7
370
     9
100
AcDbLine
 10
181595.532391
 20
40507.410687
 30
0.0
 11
181577.532391
 21
40507.410687
 31
0.0
  0
LINE
  5
CC79
330
CF75
100
AcDbEntity
  8
A733_ストリートファニチャ
 62
     7
370
     9
100
AcDbLine
 10
181632.532391
 20
40495.410687
 30
0.0
 11
181614.532391
 21
40495.410687
 31
0.0
  0
LINE
  5
CC7A
330
CF75
100
AcDbEntity
  8
A733_ストリートファニチャ
 62
     7
370
     9
100
AcDbLine
 10
181595.532391
 20
40495.410687
 30
0.0
 11
181595.532391
 21
40525.410687
 31
0.0
  0
LINE
  5
CC7B
330
CF75
100
AcDbEntity
  8
A733_ストリートファニチャ
 62
     7
370
     9
100
AcDbLine
 10
181605.032391
 20
40525.410687
 30
0.0
 11
181605.032391
 21
40510.410687
 31
0.0
  0
LINE
  5
CC7C
330
CF75
100
AcDbEntity
  8
A733_ストリートファニチャ
 62
     7
370
     9
100
AcDbLine
 10
181614.532391
 20
40525.410687
 30
0.0
 11
181614.532391
 21
40495.410687
 31
0.0
  0
LINE
  5
CC7D
330
CF75
100
AcDbEntity
  8
A733_ストリートファニチャ
 62
     7
370
     9
100
AcDbLine
 10
181632.532391
 20
40525.410687
 30
0.0
 11
181632.532391
 21
40495.410687
 31
0.0
  0
LINE
  5
CC7E
330
CF75
100
AcDbEntity
  8
A733_ストリートファニチャ
 62
     7
370
     9
100
AcDbLine
 10
181623.532391
 20
40519.410687
 30
0.0
 11
181623.532391
 21
41368.910687
 31
0.0
  0
LINE
  5
CC7F
330
CF75
100
AcDbEntity
  8
A733_ストリートファニチャ
 62
     7
370
     9
100
AcDbLine
 10
181992.532391
 20
35310.410687
 30
0.0
 11
181992.532391
 21
37090.410687
 31
0.0
  0
LINE
  5
CC80
330
CF75
100
AcDbEntity
  8
A733_ストリートファニチャ
 62
     7
370
     9
100
AcDbLine
 10
181992.532391
 20
37755.410687
 30
0.0
 11
181992.532391
 21
38955.410687
 31
0.0
  0
LINE
  5
CC81
330
CF75
100
AcDbEntity
  8
A733_ストリートファニチャ
 62
     7
370
     9
100
AcDbLine
 10
181992.532391
 20
39620.410687
 30
0.0
 11
181992.532391
 21
41400.410687
 31
0.0
  0
POINT
  5
CC82
330
CF75
100
AcDbEntity
  8
A733_ストリートファニチャ
 62
     7
370
     9
100
AcDbPoint
 10
185446.017048
 20
42746.410687
 30
0.0
 50
-90.0
  0
POINT
  5
CC83
330
CF75
100
AcDbEntity
  8
A733_ストリートファニチャ
 62
     7
370
     9
100
AcDbPoint
 10
185446.017048
 20
42646.410687
 30
0.0
 50
-90.0
  0
POINT
  5
CC84
330
CF75
100
AcDbEntity
  8
A733_ストリートファニチャ
 62
     7
370
     9
100
AcDbPoint
 10
185696.017048
 20
42646.410687
 30
0.0
 50
-90.0
  0
POINT
  5
CC85
330
CF75
100
AcDbEntity
  8
A733_ストリートファニチャ
 62
     7
370
     9
100
AcDbPoint
 10
185696.017048
 20
42723.910687
 30
0.0
 50
-90.0
  0
LINE
  5
CC86
330
CF75
100
AcDbEntity
  8
A733_ストリートファニチャ
 62
     7
370
     9
100
AcDbLine
 10
183311.032391
 20
43216.410687
 30
0.0
 11
181534.532391
 21
43216.410687
 31
0.0
  0
LINE
  5
CC87
330
CF75
100
AcDbEntity
  8
A733_ストリートファニチャ
 62
     7
370
     9
100
AcDbLine
 10
183366.032391
 20
43336.410687
 30
0.0
 11
185136.032391
 21
43336.410687
 31
0.0
  0
LINE
  5
CC88
330
CF75
100
AcDbEntity
  8
A733_ストリートファニチャ
 62
     7
370
     9
100
AcDbLine
 10
183366.032391
 20
43336.410687
 30
0.0
 11
183166.032391
 21
43336.410687
 31
0.0
  0
LINE
  5
CC89
330
CF75
100
AcDbEntity
  8
A733_ストリートファニチャ
 62
     7
370
     9
100
AcDbLine
 10
183166.032391
 20
43296.410687
 30
0.0
 11
183166.032391
 21
43336.410687
 31
0.0
  0
LINE
  5
CC8A
330
CF75
100
AcDbEntity
  8
A733_ストリートファニチャ
 62
     7
370
     9
100
AcDbLine
 10
183346.032391
 20
43296.410687
 30
0.0
 11
181534.532391
 21
43296.410687
 31
0.0
  0
LINE
  5
CC8B
330
CF75
100
AcDbEntity
  8
A733_ストリートファニチャ
 62
     7
370
     9
100
AcDbLine
 10
182257.532391
 20
42746.410687
 30
0.0
 11
183251.032391
 21
42746.410687
 31
0.0
  0
LINE
  5
CC8C
330
CF75
100
AcDbEntity
  8
A733_ストリートファニチャ
 62
     7
370
     9
100
AcDbLine
 10
183396.032391
 20
42986.410687
 30
0.0
 11
185106.032391
 21
42986.410687
 31
0.0
  0
LINE
  5
CC8D
330
CF75
100
AcDbEntity
  8
A733_ストリートファニチャ
 62
     7
370
     9
100
AcDbLine
 10
183396.032391
 20
43056.410687
 30
0.0
 11
185106.032391
 21
43056.410687
 31
0.0
  0
LINE
  5
CC8E
330
CF75
100
AcDbEntity
  8
A733_ストリートファニチャ
 62
     7
370
     9
100
AcDbLine
 10
183361.032391
 20
42986.410687
 30
0.0
 11
183361.032391
 21
43056.410687
 31
0.0
  0
LINE
  5
CC8F
330
CF75
100
AcDbEntity
  8
A733_ストリートファニチャ
 62
     7
370
     9
100
AcDbLine
 10
183386.532391
 20
43030.410687
 30
0.0
 11
183386.532391
 21
43048.410687
 31
0.0
  0
LINE
  5
CC90
330
CF75
100
AcDbEntity
  8
A733_ストリートファニチャ
 62
     7
370
     9
100
AcDbLine
 10
183375.032391
 20
43030.410687
 30
0.0
 11
183375.032391
 21
43048.410687
 31
0.0
  0
LINE
  5
CC91
330
CF75
100
AcDbEntity
  8
A733_ストリートファニチャ
 62
     7
370
     9
100
AcDbLine
 10
183398.532391
 20
43030.410687
 30
0.0
 11
183365.032391
 21
43030.410687
 31
0.0
  0
LINE
  5
CC92
330
CF75
100
AcDbEntity
  8
A733_ストリートファニチャ
 62
     7
370
     9
100
AcDbLine
 10
183398.532391
 20
43048.410687
 30
0.0
 11
183365.032391
 21
43048.410687
 31
0.0
  0
LINE
  5
CC93
330
CF75
100
AcDbEntity
  8
A733_ストリートファニチャ
 62
     7
370
     9
100
AcDbLine
 10
183311.032391
 20
43216.410687
 30
0.0
 11
183311.032391
 21
43081.410687
 31
0.0
  0
LINE
  5
CC94
330
CF75
100
AcDbEntity
  8
A733_ストリートファニチャ
 62
     7
370
     9
100
AcDbLine
 10
183376.032391
 20
42986.410687
 30
0.0
 11
183336.032391
 21
42986.410687
 31
0.0
  0
LINE
  5
CC95
330
CF75
100
AcDbEntity
  8
A733_ストリートファニチャ
 62
     7
370
     9
100
AcDbLine
 10
183336.032391
 20
42986.410687
 30
0.0
 11
183336.032391
 21
42995.410687
 31
0.0
  0
LINE
  5
CC96
330
CF75
100
AcDbEntity
  8
A733_ストリートファニチャ
 62
     7
370
     9
100
AcDbLine
 10
183336.032391
 20
43056.410687
 30
0.0
 11
183336.032391
 21
43047.410687
 31
0.0
  0
LINE
  5
CC97
330
CF75
100
AcDbEntity
  8
A733_ストリートファニチャ
 62
     7
370
     9
100
AcDbLine
 10
183376.032391
 20
43056.410687
 30
0.0
 11
183336.032391
 21
43056.410687
 31
0.0
  0
LINE
  5
CC98
330
CF75
100
AcDbEntity
  8
A733_ストリートファニチャ
 62
     7
370
     9
100
AcDbLine
 10
183311.032391
 20
43081.410687
 30
0.0
 11
183251.032391
 21
43081.410687
 31
0.0
  0
LINE
  5
CC99
330
CF75
100
AcDbEntity
  8
A733_ストリートファニチャ
 62
     7
370
     9
100
AcDbLine
 10
183251.032391
 20
43081.410687
 30
0.0
 11
183251.032391
 21
42746.410687
 31
0.0
  0
LINE
  5
CC9A
330
CF75
100
AcDbEntity
  8
A733_ストリートファニチャ
 62
     7
370
     9
100
AcDbLine
 10
183331.032391
 20
43071.410687
 30
0.0
 11
183346.032391
 21
43071.410687
 31
0.0
  0
LINE
  5
CC9B
330
CF75
100
AcDbEntity
  8
A733_ストリートファニチャ
 62
     7
370
     9
100
AcDbLine
 10
183331.032391
 20
43056.410687
 30
0.0
 11
183331.032391
 21
43071.410687
 31
0.0
  0
LINE
  5
CC9C
330
CF75
100
AcDbEntity
  8
A733_ストリートファニチャ
 62
     7
370
     9
100
AcDbLine
 10
183331.032391
 20
43056.410687
 30
0.0
 11
183346.032391
 21
43056.410687
 31
0.0
  0
LINE
  5
CC9D
330
CF75
100
AcDbEntity
  8
A733_ストリートファニチャ
 62
     7
370
     9
100
AcDbLine
 10
183346.032391
 20
43056.410687
 30
0.0
 11
183346.032391
 21
43071.410687
 31
0.0
  0
LINE
  5
CC9E
330
CF75
100
AcDbEntity
  8
A733_ストリートファニチャ
 62
     7
370
     9
100
AcDbLine
 10
183366.032391
 20
43056.410687
 30
0.0
 11
183366.032391
 21
43336.410687
 31
0.0
  0
LINE
  5
CC9F
330
CF75
100
AcDbEntity
  8
A733_ストリートファニチャ
 62
     7
370
     9
100
AcDbLine
 10
183346.032391
 20
43071.410687
 30
0.0
 11
183346.032391
 21
43296.410687
 31
0.0
  0
LINE
  5
CCA0
330
CF75
100
AcDbEntity
  8
A733_ストリートファニチャ
 62
     7
370
     9
100
AcDbLine
 10
183361.032391
 20
42986.410687
 30
0.0
 11
183361.032391
 21
42633.410687
 31
0.0
  0
LINE
  5
CCA1
330
CF75
100
AcDbEntity
  8
A733_ストリートファニチャ
 62
     7
370
     9
100
AcDbLine
 10
183226.032391
 20
42646.410687
 30
0.0
 11
183226.032391
 21
42496.410687
 31
0.0
  0
LINE
  5
CCA2
330
CF75
100
AcDbEntity
  8
A733_ストリートファニチャ
 62
     7
370
     9
100
AcDbLine
 10
185276.032391
 20
42496.410687
 30
0.0
 11
183226.032391
 21
42496.410687
 31
0.0
  0
LINE
  5
CCA3
330
CF75
100
AcDbEntity
  8
A733_ストリートファニチャ
 62
     7
370
     9
100
AcDbLine
 10
184260.032391
 20
43002.410687
 30
0.0
 11
185109.532391
 21
43002.410687
 31
0.0
  0
LINE
  5
CCA4
330
CF75
100
AcDbEntity
  8
A733_ストリートファニチャ
 62
     7
370
     9
100
AcDbLine
 10
184266.032391
 20
43048.410687
 30
0.0
 11
184266.032391
 21
43020.910687
 31
0.0
  0
LINE
  5
CCA5
330
CF75
100
AcDbEntity
  8
A733_ストリートファニチャ
 62
     7
370
     9
100
AcDbLine
 10
184254.032391
 20
43011.410687
 30
0.0
 11
184254.032391
 21
42993.410687
 31
0.0
  0
LINE
  5
CCA6
330
CF75
100
AcDbEntity
  8
A733_ストリートファニチャ
 62
     7
370
     9
100
AcDbLine
 10
184236.032391
 20
43048.410687
 30
0.0
 11
184266.032391
 21
43048.410687
 31
0.0
  0
LINE
  5
CCA7
330
CF75
100
AcDbEntity
  8
A733_ストリートファニチャ
 62
     7
370
     9
100
AcDbLine
 10
184248.032391
 20
43030.410687
 30
0.0
 11
184248.032391
 21
43048.410687
 31
0.0
  0
LINE
  5
CCA8
330
CF75
100
AcDbEntity
  8
A733_ストリートファニチャ
 62
     7
370
     9
100
AcDbLine
 10
184236.032391
 20
42993.410687
 30
0.0
 11
184236.032391
 21
43011.410687
 31
0.0
  0
LINE
  5
CCA9
330
CF75
100
AcDbEntity
  8
A733_ストリートファニチャ
 62
     7
370
     9
100
AcDbLine
 10
184236.032391
 20
43030.410687
 30
0.0
 11
184266.032391
 21
43030.410687
 31
0.0
  0
LINE
  5
CCAA
330
CF75
100
AcDbEntity
  8
A733_ストリートファニチャ
 62
     7
370
     9
100
AcDbLine
 10
184266.032391
 20
43020.910687
 30
0.0
 11
184251.032391
 21
43020.910687
 31
0.0
  0
LINE
  5
CCAB
330
CF75
100
AcDbEntity
  8
A733_ストリートファニチャ
 62
     7
370
     9
100
AcDbLine
 10
184266.032391
 20
43011.410687
 30
0.0
 11
184236.032391
 21
43011.410687
 31
0.0
  0
LINE
  5
CCAC
330
CF75
100
AcDbEntity
  8
A733_ストリートファニチャ
 62
     7
370
     9
100
AcDbLine
 10
184266.032391
 20
42993.410687
 30
0.0
 11
184236.032391
 21
42993.410687
 31
0.0
  0
LINE
  5
CCAD
330
CF75
100
AcDbEntity
  8
A733_ストリートファニチャ
 62
     7
370
     9
100
AcDbLine
 10
183392.532391
 20
43039.410687
 30
0.0
 11
184242.032391
 21
43039.410687
 31
0.0
  0
LINE
  5
CCAE
330
CF75
100
AcDbEntity
  8
A733_ストリートファニチャ
 62
     7
370
     9
100
AcDbLine
 10
189412.532391
 20
43216.410687
 30
0.0
 11
187636.032391
 21
43216.410687
 31
0.0
  0
LINE
  5
CCAF
330
CF75
100
AcDbEntity
  8
A733_ストリートファニチャ
 62
     7
370
     9
100
AcDbLine
 10
185811.032391
 20
43336.410687
 30
0.0
 11
187581.032391
 21
43336.410687
 31
0.0
  0
LINE
  5
CCB0
330
CF75
100
AcDbEntity
  8
A733_ストリートファニチャ
 62
     7
370
     9
100
AcDbLine
 10
189412.532391
 20
43296.410687
 30
0.0
 11
187601.032391
 21
43296.410687
 31
0.0
  0
LINE
  5
CCB1
330
CF75
100
AcDbEntity
  8
A733_ストリートファニチャ
 62
     7
370
     9
100
AcDbLine
 10
187781.032391
 20
43296.410687
 30
0.0
 11
187781.032391
 21
43336.410687
 31
0.0
  0
LINE
  5
CCB2
330
CF75
100
AcDbEntity
  8
A733_ストリートファニチャ
 62
     7
370
     9
100
AcDbLine
 10
187781.032391
 20
43336.410687
 30
0.0
 11
187581.032391
 21
43336.410687
 31
0.0
  0
LINE
  5
CCB3
330
CF75
100
AcDbEntity
  8
A733_ストリートファニチャ
 62
     7
370
     9
100
AcDbLine
 10
188821.032391
 20
42746.410687
 30
0.0
 11
187696.032391
 21
42746.410687
 31
0.0
  0
LINE
  5
CCB4
330
CF75
100
AcDbEntity
  8
A733_ストリートファニチャ
 62
     7
370
     9
100
AcDbLine
 10
185841.032391
 20
42986.410687
 30
0.0
 11
187551.032391
 21
42986.410687
 31
0.0
  0
LINE
  5
CCB5
330
CF75
100
AcDbEntity
  8
A733_ストリートファニチャ
 62
     7
370
     9
100
AcDbLine
 10
185841.032391
 20
43056.410687
 30
0.0
 11
187551.032391
 21
43056.410687
 31
0.0
  0
LINE
  5
CCB6
330
CF75
100
AcDbEntity
  8
A733_ストリートファニチャ
 62
     7
370
     9
100
AcDbLine
 10
187586.032391
 20
42986.410687
 30
0.0
 11
187586.032391
 21
43056.410687
 31
0.0
  0
LINE
  5
CCB7
330
CF75
100
AcDbEntity
  8
A733_ストリートファニチャ
 62
     7
370
     9
100
AcDbLine
 10
187548.532391
 20
43011.410687
 30
0.0
 11
187582.032391
 21
43011.410687
 31
0.0
  0
LINE
  5
CCB8
330
CF75
100
AcDbEntity
  8
A733_ストリートファニチャ
 62
     7
370
     9
100
AcDbLine
 10
187548.532391
 20
42993.410687
 30
0.0
 11
187582.032391
 21
42993.410687
 31
0.0
  0
LINE
  5
CCB9
330
CF75
100
AcDbEntity
  8
A733_ストリートファニチャ
 62
     7
370
     9
100
AcDbLine
 10
187560.532391
 20
42993.410687
 30
0.0
 11
187560.532391
 21
43011.410687
 31
0.0
  0
LINE
  5
CCBA
330
CF75
100
AcDbEntity
  8
A733_ストリートファニチャ
 62
     7
370
     9
100
AcDbLine
 10
187572.032391
 20
42993.410687
 30
0.0
 11
187572.032391
 21
43011.410687
 31
0.0
  0
LINE
  5
CCBB
330
CF75
100
AcDbEntity
  8
A733_ストリートファニチャ
 62
     7
370
     9
100
AcDbLine
 10
187636.032391
 20
43216.410687
 30
0.0
 11
187636.032391
 21
43081.410687
 31
0.0
  0
LINE
  5
CCBC
330
CF75
100
AcDbEntity
  8
A733_ストリートファニチャ
 62
     7
370
     9
100
AcDbLine
 10
187611.032391
 20
43056.410687
 30
0.0
 11
187571.032391
 21
43056.410687
 31
0.0
  0
LINE
  5
CCBD
330
CF75
100
AcDbEntity
  8
A733_ストリートファニチャ
 62
     7
370
     9
100
AcDbLine
 10
187571.032391
 20
42986.410687
 30
0.0
 11
187611.032391
 21
42986.410687
 31
0.0
  0
LINE
  5
CCBE
330
CF75
100
AcDbEntity
  8
A733_ストリートファニチャ
 62
     7
370
     9
100
AcDbLine
 10
187611.032391
 20
43056.410687
 30
0.0
 11
187611.032391
 21
43047.410687
 31
0.0
  0
LINE
  5
CCBF
330
CF75
100
AcDbEntity
  8
A733_ストリートファニチャ
 62
     7
370
     9
100
AcDbLine
 10
187611.032391
 20
42986.410687
 30
0.0
 11
187611.032391
 21
42995.410687
 31
0.0
  0
LINE
  5
CCC0
330
CF75
100
AcDbEntity
  8
A733_ストリートファニチャ
 62
     7
370
     9
100
AcDbLine
 10
187636.032391
 20
43081.410687
 30
0.0
 11
187696.032391
 21
43081.410687
 31
0.0
  0
LINE
  5
CCC1
330
CF75
100
AcDbEntity
  8
A733_ストリートファニチャ
 62
     7
370
     9
100
AcDbLine
 10
187696.032391
 20
43081.410687
 30
0.0
 11
187696.032391
 21
42746.410687
 31
0.0
  0
LINE
  5
CCC2
330
CF75
100
AcDbEntity
  8
A733_ストリートファニチャ
 62
     7
370
     9
100
AcDbLine
 10
187616.032391
 20
43056.410687
 30
0.0
 11
187616.032391
 21
43071.410687
 31
0.0
  0
LINE
  5
CCC3
330
CF75
100
AcDbEntity
  8
A733_ストリートファニチャ
 62
     7
370
     9
100
AcDbLine
 10
187616.032391
 20
43056.410687
 30
0.0
 11
187601.032391
 21
43056.410687
 31
0.0
  0
LINE
  5
CCC4
330
CF75
100
AcDbEntity
  8
A733_ストリートファニチャ
 62
     7
370
     9
100
AcDbLine
 10
187601.032391
 20
43056.410687
 30
0.0
 11
187601.032391
 21
43071.410687
 31
0.0
  0
LINE
  5
CCC5
330
CF75
100
AcDbEntity
  8
A733_ストリートファニチャ
 62
     7
370
     9
100
AcDbLine
 10
187616.032391
 20
43071.410687
 30
0.0
 11
187601.032391
 21
43071.410687
 31
0.0
  0
LINE
  5
CCC6
330
CF75
100
AcDbEntity
  8
A733_ストリートファニチャ
 62
     7
370
     9
100
AcDbLine
 10
187581.032391
 20
43056.410687
 30
0.0
 11
187581.032391
 21
43336.410687
 31
0.0
  0
LINE
  5
CCC7
330
CF75
100
AcDbEntity
  8
A733_ストリートファニチャ
 62
     7
370
     9
100
AcDbLine
 10
187601.032391
 20
43071.410687
 30
0.0
 11
187601.032391
 21
43296.410687
 31
0.0
  0
LINE
  5
CCC8
330
CF75
100
AcDbEntity
  8
A733_ストリートファニチャ
 62
     7
370
     9
100
AcDbLine
 10
187586.032391
 20
42986.410687
 30
0.0
 11
187586.032391
 21
42633.410687
 31
0.0
  0
LINE
  5
CCC9
330
CF75
100
AcDbEntity
  8
A733_ストリートファニチャ
 62
     7
370
     9
100
AcDbLine
 10
187721.032391
 20
42646.410687
 30
0.0
 11
187721.032391
 21
42496.410687
 31
0.0
  0
LINE
  5
CCCA
330
CF75
100
AcDbEntity
  8
A733_ストリートファニチャ
 62
     7
370
     9
100
AcDbLine
 10
187721.032391
 20
42496.410687
 30
0.0
 11
185671.032391
 21
42496.410687
 31
0.0
  0
LINE
  5
CCCB
330
CF75
100
AcDbEntity
  8
A733_ストリートファニチャ
 62
     7
370
     9
100
AcDbLine
 10
185837.532391
 20
43039.410687
 30
0.0
 11
186687.032391
 21
43039.410687
 31
0.0
  0
LINE
  5
CCCC
330
CF75
100
AcDbEntity
  8
A733_ストリートファニチャ
 62
     7
370
     9
100
AcDbLine
 10
186711.032391
 20
43048.410687
 30
0.0
 11
186711.032391
 21
43020.910687
 31
0.0
  0
LINE
  5
CCCD
330
CF75
100
AcDbEntity
  8
A733_ストリートファニチャ
 62
     7
370
     9
100
AcDbLine
 10
186699.032391
 20
43011.410687
 30
0.0
 11
186699.032391
 21
42993.410687
 31
0.0
  0
LINE
  5
CCCE
330
CF75
100
AcDbEntity
  8
A733_ストリートファニチャ
 62
     7
370
     9
100
AcDbLine
 10
186681.032391
 20
43048.410687
 30
0.0
 11
186711.032391
 21
43048.410687
 31
0.0
  0
LINE
  5
CCCF
330
CF75
100
AcDbEntity
  8
A733_ストリートファニチャ
 62
     7
370
     9
100
AcDbLine
 10
186693.032391
 20
43030.410687
 30
0.0
 11
186693.032391
 21
43048.410687
 31
0.0
  0
LINE
  5
CCD0
330
CF75
100
AcDbEntity
  8
A733_ストリートファニチャ
 62
     7
370
     9
100
AcDbLine
 10
186681.032391
 20
42993.410687
 30
0.0
 11
186681.032391
 21
43011.410687
 31
0.0
  0
LINE
  5
CCD1
330
CF75
100
AcDbEntity
  8
A733_ストリートファニチャ
 62
     7
370
     9
100
AcDbLine
 10
186681.032391
 20
43030.410687
 30
0.0
 11
186711.032391
 21
43030.410687
 31
0.0
  0
LINE
  5
CCD2
330
CF75
100
AcDbEntity
  8
A733_ストリートファニチャ
 62
     7
370
     9
100
AcDbLine
 10
186711.032391
 20
43020.910687
 30
0.0
 11
186696.032391
 21
43020.910687
 31
0.0
  0
LINE
  5
CCD3
330
CF75
100
AcDbEntity
  8
A733_ストリートファニチャ
 62
     7
370
     9
100
AcDbLine
 10
186711.032391
 20
43011.410687
 30
0.0
 11
186681.032391
 21
43011.410687
 31
0.0
  0
LINE
  5
CCD4
330
CF75
100
AcDbEntity
  8
A733_ストリートファニチャ
 62
     7
370
     9
100
AcDbLine
 10
186711.032391
 20
42993.410687
 30
0.0
 11
186681.032391
 21
42993.410687
 31
0.0
  0
LINE
  5
CCD5
330
CF75
100
AcDbEntity
  8
A733_ストリートファニチャ
 62
     7
370
     9
100
AcDbLine
 10
186705.032391
 20
43002.410687
 30
0.0
 11
187554.532391
 21
43002.410687
 31
0.0
  0
POINT
  5
CCD6
330
CF75
100
AcDbEntity
  8
A733_ストリートファニチャ
 62
     7
370
     9
100
AcDbPoint
 10
189075.74326
 20
34504.410687
 30
0.0
 50
-90.0
  0
POINT
  5
CCD7
330
CF75
100
AcDbEntity
  8
A733_ストリートファニチャ
 62
     7
370
     9
100
AcDbPoint
 10
189166.032391
 20
35054.410687
 30
0.0
 50
-90.0
  0
LINE
  5
CCD8
330
CF75
100
AcDbEntity
  8
A733_ストリートファニチャ
 62
     7
370
     9
100
AcDbLine
 10
189166.032391
 20
34504.410687
 30
0.0
 11
188741.032391
 21
34504.410687
 31
0.0
  0
LINE
  5
CCD9
330
CF75
100
AcDbEntity
  8
A733_ストリートファニチャ
 62
     7
370
     9
100
AcDbLine
 10
188741.032391
 20
33959.410687
 30
0.0
 11
188741.032391
 21
34504.410687
 31
0.0
  0
POINT
  5
CCDA
330
CF75
100
AcDbEntity
  8
A733_ストリートファニチャ
 62
     7
370
     9
100
AcDbPoint
 10
186647.060184
 20
33959.410687
 30
0.0
 50
-90.0
  0
POINT
  5
CCDB
330
CF75
100
AcDbEntity
  8
A733_ストリートファニチャ
 62
     7
370
     9
100
AcDbPoint
 10
186647.060184
 20
33881.910687
 30
0.0
 50
-90.0
  0
LINE
  5
CCDC
330
CF75
100
AcDbEntity
  8
A733_ストリートファニチャ
 62
     7
370
     9
100
AcDbLine
 10
185624.532391
 20
33972.410687
 30
0.0
 11
185649.532391
 21
33972.410687
 31
0.0
  0
LINE
  5
CCDD
330
CF75
100
AcDbEntity
  8
A733_ストリートファニチャ
 62
     7
370
     9
100
AcDbLine
 10
185649.532391
 20
33972.410687
 30
0.0
 11
185649.532391
 21
33952.410687
 31
0.0
  0
LINE
  5
CCDE
330
CF75
100
AcDbEntity
  8
A733_ストリートファニチャ
 62
     7
370
     9
100
AcDbLine
 10
185624.532391
 20
33972.410687
 30
0.0
 11
185624.532391
 21
33927.410687
 31
0.0
  0
LINE
  5
CCDF
330
CF75
100
AcDbEntity
  8
A733_ストリートファニチャ
 62
     7
370
     9
100
AcDbLine
 10
185649.532391
 20
33872.410687
 30
0.0
 11
185649.532391
 21
33892.410687
 31
0.0
  0
LINE
  5
CCE0
330
CF75
100
AcDbEntity
  8
A733_ストリートファニチャ
 62
     7
370
     9
100
AcDbLine
 10
185609.532391
 20
33927.410687
 30
0.0
 11
185624.532391
 21
33927.410687
 31
0.0
  0
LINE
  5
CCE1
330
CF75
100
AcDbEntity
  8
A733_ストリートファニチャ
 62
     7
370
     9
100
AcDbLine
 10
185609.532391
 20
33927.410687
 30
0.0
 11
185609.532391
 21
33872.410687
 31
0.0
  0
LINE
  5
CCE2
330
CF75
100
AcDbEntity
  8
A733_ストリートファニチャ
 62
     7
370
     9
100
AcDbLine
 10
185609.532391
 20
33872.410687
 30
0.0
 11
185649.532391
 21
33872.410687
 31
0.0
  0
LINE
  5
CCE3
330
CF75
100
AcDbEntity
  8
A733_ストリートファニチャ
 62
     7
370
     9
100
AcDbLine
 10
183794.532391
 20
33972.410687
 30
0.0
 11
183769.532391
 21
33972.410687
 31
0.0
  0
LINE
  5
CCE4
330
CF75
100
AcDbEntity
  8
A733_ストリートファニチャ
 62
     7
370
     9
100
AcDbLine
 10
183769.532391
 20
33972.410687
 30
0.0
 11
183769.532391
 21
33952.410687
 31
0.0
  0
LINE
  5
CCE5
330
CF75
100
AcDbEntity
  8
A733_ストリートファニチャ
 62
     7
370
     9
100
AcDbLine
 10
183794.532391
 20
33972.410687
 30
0.0
 11
183794.532391
 21
33927.410687
 31
0.0
  0
LINE
  5
CCE6
330
CF75
100
AcDbEntity
  8
A733_ストリートファニチャ
 62
     7
370
     9
100
AcDbLine
 10
183769.532391
 20
33872.410687
 30
0.0
 11
183769.532391
 21
33892.410687
 31
0.0
  0
LINE
  5
CCE7
330
CF75
100
AcDbEntity
  8
A733_ストリートファニチャ
 62
     7
370
     9
100
AcDbLine
 10
183809.532391
 20
33927.410687
 30
0.0
 11
183794.532391
 21
33927.410687
 31
0.0
  0
LINE
  5
CCE8
330
CF75
100
AcDbEntity
  8
A733_ストリートファニチャ
 62
     7
370
     9
100
AcDbLine
 10
183809.532391
 20
33927.410687
 30
0.0
 11
183809.532391
 21
33872.410687
 31
0.0
  0
LINE
  5
CCE9
330
CF75
100
AcDbEntity
  8
A733_ストリートファニチャ
 62
     7
370
     9
100
AcDbLine
 10
183809.532391
 20
33872.410687
 30
0.0
 11
183769.532391
 21
33872.410687
 31
0.0
  0
LINE
  5
CCEA
330
CF75
100
AcDbEntity
  8
A733_ストリートファニチャ
 62
     7
370
     9
100
AcDbLine
 10
182434.532391
 20
33959.410687
 30
0.0
 11
183769.532391
 21
33959.410687
 31
0.0
  0
LINE
  5
CCEB
330
CF75
100
AcDbEntity
  8
A733_ストリートファニチャ
 62
     7
370
     9
100
AcDbLine
 10
185674.532391
 20
33881.910687
 30
0.0
 11
185674.532391
 21
33946.910687
 31
0.0
  0
LINE
  5
CCEC
330
CF75
100
AcDbEntity
  8
A733_ストリートファニチャ
 62
     7
370
     9
100
AcDbLine
 10
185649.532391
 20
33959.410687
 30
0.0
 11
188741.032391
 21
33959.410687
 31
0.0
  0
LINE
  5
CCED
330
CF75
100
AcDbEntity
  8
A733_ストリートファニチャ
 62
     7
370
     9
100
AcDbLine
 10
185624.532391
 20
33569.410687
 30
0.0
 11
188867.032391
 21
33569.410687
 31
0.0
  0
LINE
  5
CCEE
330
CF75
100
AcDbEntity
  8
A733_ストリートファニチャ
 62
     7
370
     9
100
AcDbLine
 10
183334.532391
 20
33569.410687
 30
0.0
 11
183794.532391
 21
33569.410687
 31
0.0
  0
LINE
  5
CCEF
330
CF75
100
AcDbEntity
  8
A733_ストリートファニチャ
 62
     7
370
     9
100
AcDbLine
 10
183794.532391
 20
33872.410687
 30
0.0
 11
183794.532391
 21
33569.410687
 31
0.0
  0
LINE
  5
CCF0
330
CF75
100
AcDbEntity
  8
A733_ストリートファニチャ
 62
     7
370
     9
100
AcDbLine
 10
185624.532391
 20
33872.410687
 30
0.0
 11
185624.532391
 21
33569.410687
 31
0.0
  0
LINE
  5
CCF1
330
CF75
100
AcDbEntity
  8
A733_ストリートファニチャ
 62
     7
370
     9
100
AcDbLine
 10
185624.532391
 20
33859.410687
 30
0.0
 11
188842.032391
 21
33859.410687
 31
0.0
  0
LINE
  5
CCF2
330
CF75
100
AcDbEntity
  8
A733_ストリートファニチャ
 62
     7
370
     9
100
AcDbLine
 10
182334.532391
 20
33859.410687
 30
0.0
 11
183794.532391
 21
33859.410687
 31
0.0
  0
ARC
  5
CCF3
330
CF75
100
AcDbEntity
  8
A733_ストリートファニチャ
 62
     7
370
     9
100
AcDbCircle
 10
183794.532391
 20
33972.410687
 30
0.0
 40
915.0000000000018
100
AcDbArc
 50
0.0
 51
90.0
  0
ARC
  5
CCF4
330
CF75
100
AcDbEntity
  8
A733_ストリートファニチャ
 62
     7
370
     9
100
AcDbCircle
 10
185624.532391
 20
33972.410687
 30
0.0
 40
915.0000000000018
100
AcDbArc
 50
90.0
 51
180.0
  0
LINE
  5
CCF5
330
CF75
100
AcDbEntity
  8
A733_ストリートファニチャ
 62
     7
370
     9
100
AcDbLine
 10
189881.032391
 20
38245.410687
 30
0.0
 11
189881.032391
 21
37518.410687
 31
0.0
  0
LINE
  5
CCF6
330
CF75
100
AcDbEntity
  8
A733_ストリートファニチャ
 62
     7
370
     9
100
AcDbLine
 10
189336.032391
 20
38245.410687
 30
0.0
 11
189881.032391
 21
38245.410687
 31
0.0
  0
LINE
  5
CCF7
330
CF75
100
AcDbEntity
  8
A733_ストリートファニチャ
 62
     7
370
     9
100
AcDbLine
 10
189805.032391
 20
34985.410687
 30
0.0
 11
189581.032391
 21
34985.410687
 31
0.0
  0
LINE
  5
CCF8
330
CF75
100
AcDbEntity
  8
A733_ストリートファニチャ
 62
     7
370
     9
100
AcDbLine
 10
189581.032391
 20
34985.410687
 30
0.0
 11
189581.032391
 21
36828.410687
 31
0.0
  0
LINE
  5
CCF9
330
CF75
100
AcDbEntity
  8
A733_ストリートファニチャ
 62
     7
370
     9
100
AcDbLine
 10
189805.032391
 20
36828.410687
 30
0.0
 11
189581.032391
 21
36828.410687
 31
0.0
  0
LINE
  5
CCFA
330
CF75
100
AcDbEntity
  8
A733_ストリートファニチャ
 62
     7
370
     9
100
AcDbLine
 10
189581.032391
 20
38290.410687
 30
0.0
 11
189926.032391
 21
38290.410687
 31
0.0
  0
LINE
  5
CCFB
330
CF75
100
AcDbEntity
  8
A733_ストリートファニチャ
 62
     7
370
     9
100
AcDbLine
 10
189926.032391
 20
37473.410687
 30
0.0
 11
189805.032391
 21
37473.410687
 31
0.0
  0
LINE
  5
CCFC
330
CF75
100
AcDbEntity
  8
A733_ストリートファニチャ
 62
     7
370
     9
100
AcDbLine
 10
189805.032391
 20
37473.410687
 30
0.0
 11
189805.032391
 21
36828.410687
 31
0.0
  0
LINE
  5
CCFD
330
CF75
100
AcDbEntity
  8
A733_ストリートファニチャ
 62
     7
370
     9
100
AcDbLine
 10
189805.032391
 20
34985.410687
 30
0.0
 11
189805.032391
 21
33731.410687
 31
0.0
  0
LINE
  5
CCFE
330
CF75
100
AcDbEntity
  8
A733_ストリートファニチャ
 62
     7
370
     9
100
AcDbLine
 10
188867.032391
 20
33441.410687
 30
0.0
 11
189926.032391
 21
33441.410687
 31
0.0
  0
LINE
  5
CCFF
330
CF75
100
AcDbEntity
  8
A733_ストリートファニチャ
 62
     7
370
     9
100
AcDbLine
 10
189805.032391
 20
33731.410687
 30
0.0
 11
189926.032391
 21
33731.410687
 31
0.0
  0
LINE
  5
CD00
330
CF75
100
AcDbEntity
  8
A733_ストリートファニチャ
 62
     7
370
     9
100
AcDbLine
 10
188821.032391
 20
42356.410687
 30
0.0
 11
189926.032391
 21
42356.410687
 31
0.0
  0
LINE
  5
CD01
330
CF75
100
AcDbEntity
  8
A733_ストリートファニチャ
 62
     7
370
     9
100
AcDbLine
 10
189537.532391
 20
42691.410687
 30
0.0
 11
189926.032391
 21
42691.410687
 31
0.0
  0
LINE
  5
CD02
330
CF75
100
AcDbEntity
  8
A733_ストリートファニチャ
 62
     7
370
     9
100
AcDbLine
 10
189617.532391
 20
42771.410687
 30
0.0
 11
189926.032391
 21
42771.410687
 31
0.0
  0
LINE
  5
CD03
330
CF75
100
AcDbEntity
  8
A733_ストリートファニチャ
 62
     7
370
     9
100
AcDbLine
 10
183361.032391
 20
42633.410687
 30
0.0
 11
185141.032391
 21
42633.410687
 31
0.0
  0
LINE
  5
CD04
330
CF75
100
AcDbEntity
  8
A733_ストリートファニチャ
 62
     7
370
     9
100
AcDbLine
 10
185806.032391
 20
42633.410687
 30
0.0
 11
187586.032391
 21
42633.410687
 31
0.0
  0
LINE
  5
CD05
330
CF75
100
AcDbEntity
  8
A733_ストリートファニチャ
 62
     7
370
     9
100
AcDbLine
 10
181879.532391
 20
42062.592036
 30
0.0
 11
181729.532391
 21
42212.592036
 31
0.0
  0
LINE
  5
CD06
330
CF75
100
AcDbEntity
  8
A733_ストリートファニチャ
 62
     7
370
     9
100
AcDbLine
 10
181879.532391
 20
41850.460002
 30
0.0
 11
181729.532391
 21
42000.460002
 31
0.0
  0
LINE
  5
CD07
330
CF75
100
AcDbEntity
  8
A733_ストリートファニチャ
 62
     7
370
     9
100
AcDbLine
 10
181879.532391
 20
41638.327968
 30
0.0
 11
181729.532391
 21
41788.327968
 31
0.0
  0
LINE
  5
CD08
330
CF75
100
AcDbEntity
  8
A733_ストリートファニチャ
 62
     7
370
     9
100
AcDbLine
 10
181879.532391
 20
39304.87559
 30
0.0
 11
181729.532391
 21
39454.87559
 31
0.0
  0
LINE
  5
CD09
330
CF75
100
AcDbEntity
  8
A733_ストリートファニチャ
 62
     7
370
     9
100
AcDbLine
 10
181879.532391
 20
39092.743555
 30
0.0
 11
181729.532391
 21
39242.743555
 31
0.0
  0
LINE
  5
CD0A
330
CF75
100
AcDbEntity
  8
A733_ストリートファニチャ
 62
     7
370
     9
100
AcDbLine
 10
181879.532391
 20
37395.687281
 30
0.0
 11
181729.532391
 21
37545.687281
 31
0.0
  0
LINE
  5
CD0B
330
CF75
100
AcDbEntity
  8
A733_ストリートファニチャ
 62
     7
370
     9
100
AcDbLine
 10
181879.532391
 20
34850.102868
 30
0.0
 11
181729.532391
 21
35000.102868
 31
0.0
  0
LINE
  5
CD0C
330
CF75
100
AcDbEntity
  8
A733_ストリートファニチャ
 62
     7
370
     9
100
AcDbLine
 10
181879.532391
 20
34637.970834
 30
0.0
 11
181729.532391
 21
34787.970834
 31
0.0
  0
LINE
  5
CD0D
330
CF75
100
AcDbEntity
  8
A733_ストリートファニチャ
 62
     7
370
     9
100
AcDbLine
 10
181879.532391
 20
34425.8388
 30
0.0
 11
181729.532391
 21
34575.8388
 31
0.0
  0
LINE
  5
CD0E
330
CF75
100
AcDbEntity
  8
A733_ストリートファニチャ
 62
     7
370
     9
100
AcDbLine
 10
188620.334943
 20
42746.410687
 30
0.0
 11
188470.334943
 21
42896.410687
 31
0.0
  0
LINE
  5
CD0F
330
CF75
100
AcDbEntity
  8
A733_ストリートファニチャ
 62
     7
370
     9
100
AcDbLine
 10
188408.202909
 20
42746.410687
 30
0.0
 11
188258.202909
 21
42896.410687
 31
0.0
  0
LINE
  5
CD10
330
CF75
100
AcDbEntity
  8
A733_ストリートファニチャ
 62
     7
370
     9
100
AcDbLine
 10
188196.070874
 20
42746.410687
 30
0.0
 11
188046.070874
 21
42896.410687
 31
0.0
  0
LINE
  5
CD11
330
CF75
100
AcDbEntity
  8
A733_ストリートファニチャ
 62
     7
370
     9
100
AcDbLine
 10
187983.93884
 20
42746.410687
 30
0.0
 11
187833.93884
 21
42896.410687
 31
0.0
  0
LINE
  5
CD12
330
CF75
100
AcDbEntity
  8
A733_ストリートファニチャ
 62
     7
370
     9
100
AcDbLine
 10
185650.486462
 20
42746.410687
 30
0.0
 11
185500.486462
 21
42896.410687
 31
0.0
  0
LINE
  5
CD13
330
CF75
100
AcDbEntity
  8
A733_ストリートファニチャ
 62
     7
370
     9
100
AcDbLine
 10
185438.354428
 20
42746.410687
 30
0.0
 11
185288.354428
 21
42896.410687
 31
0.0
  0
LINE
  5
CD14
330
CF75
100
AcDbEntity
  8
A733_ストリートファニチャ
 62
     7
370
     9
100
AcDbLine
 10
183104.90205
 20
42746.410687
 30
0.0
 11
182954.90205
 21
42896.410687
 31
0.0
  0
LINE
  5
CD15
330
CF75
100
AcDbEntity
  8
A733_ストリートファニチャ
 62
     7
370
     9
100
AcDbLine
 10
182892.770015
 20
42746.410687
 30
0.0
 11
182742.770015
 21
42896.410687
 31
0.0
  0
LINE
  5
CD16
330
CF75
100
AcDbEntity
  8
A733_ストリートファニチャ
 62
     7
370
     9
100
AcDbLine
 10
182680.637981
 20
42746.410687
 30
0.0
 11
182530.637981
 21
42896.410687
 31
0.0
  0
LINE
  5
CD17
330
CF75
100
AcDbEntity
  8
A733_ストリートファニチャ
 62
     7
370
     9
100
AcDbLine
 10
189926.032391
 20
42501.373411
 30
0.0
 11
189920.995115
 21
42506.410687
 31
0.0
  0
LINE
  5
CD18
330
CF75
100
AcDbEntity
  8
A733_ストリートファニチャ
 62
     7
370
     9
100
AcDbLine
 10
189858.86308
 20
42356.410687
 30
0.0
 11
189708.86308
 21
42506.410687
 31
0.0
  0
POINT
  5
CD19
330
CF75
100
AcDbEntity
  8
A733_ストリートファニチャ
 62
     7
370
     9
100
AcDbPoint
 10
189266.032391
 20
37961.813657
 30
0.0
 50
-90.0
  0
POINT
  5
CD1A
330
CF75
100
AcDbEntity
  8
A733_ストリートファニチャ
 62
     7
370
     9
100
AcDbPoint
 10
189166.032391
 20
37961.813657
 30
0.0
 50
-90.0
  0
POINT
  5
CD1B
330
CF75
100
AcDbEntity
  8
A733_ストリートファニチャ
 62
     7
370
     9
100
AcDbPoint
 10
189166.032391
 20
38211.813657
 30
0.0
 50
-90.0
  0
POINT
  5
CD1C
330
CF75
100
AcDbEntity
  8
A733_ストリートファニチャ
 62
     7
370
     9
100
AcDbPoint
 10
189243.532391
 20
38211.813657
 30
0.0
 50
-90.0
  0
LINE
  5
CD1D
330
CF75
100
AcDbEntity
  8
A733_ストリートファニチャ
 62
     7
370
     9
100
AcDbLine
 10
189581.032391
 20
38290.410687
 30
0.0
 11
189581.032391
 21
42356.410687
 31
0.0
  0
LINE
  5
CD1E
330
CF75
100
AcDbEntity
  8
A733_ストリートファニチャ
 62
     7
370
     9
100
AcDbLine
 10
189581.032391
 20
42321.410687
 30
0.0
 11
189926.032391
 21
42321.410687
 31
0.0
  0
LINE
  5
CD1F
330
CF75
100
AcDbEntity
  8
A733_ストリートファニチャ
 62
     7
370
     9
100
AcDbLine
 10
189581.032391
 20
41151.410687
 30
0.0
 11
189581.032391
 21
42321.410687
 31
0.0
  0
POINT
  5
CD20
330
CF75
100
AcDbEntity
  8
A733_ストリートファニチャ
 62
     7
370
     9
100
AcDbPoint
 10
181879.532391
 20
37358.233239
 30
0.0
 50
-90.0
  0
POINT
  5
CD21
330
CF75
100
AcDbEntity
  8
A733_ストリートファニチャ
 62
     7
370
     9
100
AcDbPoint
 10
181979.532391
 20
37358.233239
 30
0.0
 50
-90.0
  0
POINT
  5
CD22
330
CF75
100
AcDbEntity
  8
A733_ストリートファニチャ
 62
     7
370
     9
100
AcDbPoint
 10
181979.532391
 20
37608.233239
 30
0.0
 50
-90.0
  0
POINT
  5
CD23
330
CF75
100
AcDbEntity
  8
A733_ストリートファニチャ
 62
     7
370
     9
100
AcDbPoint
 10
181902.032391
 20
37608.233239
 30
0.0
 50
-90.0
  0
LINE
  5
CD24
330
CF75
100
AcDbEntity
  8
A733_ストリートファニチャ
 62
     7
370
     9
100
AcDbLine
 10
189926.032391
 20
42321.410687
 30
0.0
 11
189581.032391
 21
42321.410687
 31
0.0
  0
LINE
  5
CD25
330
CF75
100
AcDbEntity
  8
A733_ストリートファニチャ
 62
     7
370
     9
100
AcDbLine
 10
189926.032391
 20
42333.910687
 30
0.0
 11
189581.032391
 21
42333.910687
 31
0.0
  0
POINT
  5
CD26
330
CF75
100
AcDbEntity
  8
A733_ストリートファニチャ
 62
     7
370
     9
100
AcDbPoint
 10
186397.060184
 20
33959.410687
 30
0.0
 50
-90.0
  0
POINT
  5
CD27
330
CF75
100
AcDbEntity
  8
A733_ストリートファニチャ
 62
     7
370
     9
100
AcDbPoint
 10
186397.060184
 20
33859.410687
 30
0.0
 50
-90.0
  0
LINE
  5
CD28
330
CF75
100
AcDbEntity
  8
A733_ストリートファニチャ
 62
     7
370
     9
100
AcDbLine
 10
181639.532391
 20
35285.410687
 30
0.0
 11
181992.532391
 21
35285.410687
 31
0.0
  0
LINE
  5
CD29
330
CF75
100
AcDbEntity
  8
A733_ストリートファニチャ
 62
     7
370
     9
100
AcDbLine
 10
181639.532391
 20
37115.410687
 30
0.0
 11
181992.532391
 21
37115.410687
 31
0.0
  0
LINE
  5
CD2A
330
CF75
100
AcDbEntity
  8
A733_ストリートファニチャ
 62
     7
370
     9
100
AcDbLine
 10
181639.532391
 20
37730.410687
 30
0.0
 11
181992.532391
 21
37730.410687
 31
0.0
  0
LINE
  5
CD2B
330
CF75
100
AcDbEntity
  8
A733_ストリートファニチャ
 62
     7
370
     9
100
AcDbLine
 10
181639.532391
 20
38980.410687
 30
0.0
 11
181992.532391
 21
38980.410687
 31
0.0
  0
LINE
  5
CD2C
330
CF75
100
AcDbEntity
  8
A733_ストリートファニチャ
 62
     7
370
     9
100
AcDbLine
 10
181639.532391
 20
39595.410687
 30
0.0
 11
181992.532391
 21
39595.410687
 31
0.0
  0
LINE
  5
CD2D
330
CF75
100
AcDbEntity
  8
A733_ストリートファニチャ
 62
     7
370
     9
100
AcDbLine
 10
181639.532391
 20
41425.410687
 30
0.0
 11
181992.532391
 21
41425.410687
 31
0.0
  0
LINE
  5
CD2E
330
CF75
100
AcDbEntity
  8
A733_ストリートファニチャ
 62
     7
370
     9
100
AcDbLine
 10
181992.532391
 20
41400.410687
 30
0.0
 11
181992.532391
 21
41425.410687
 31
0.0
  0
LINE
  5
CD2F
330
CF75
100
AcDbEntity
  8
A733_ストリートファニチャ
 62
     7
370
     9
100
AcDbLine
 10
181979.532391
 20
42191.410687
 30
0.0
 11
181979.532391
 21
41425.410687
 31
0.0
  0
LINE
  5
CD30
330
CF75
100
AcDbEntity
  8
A733_ストリートファニチャ
 62
     7
370
     9
100
AcDbLine
 10
181992.532391
 20
39620.410687
 30
0.0
 11
181992.532391
 21
39595.410687
 31
0.0
  0
LINE
  5
CD31
330
CF75
100
AcDbEntity
  8
A733_ストリートファニチャ
 62
     7
370
     9
100
AcDbLine
 10
181979.532391
 20
39595.410687
 30
0.0
 11
181979.532391
 21
41425.410687
 31
0.0
  0
LINE
  5
CD32
330
CF75
100
AcDbEntity
  8
A733_ストリートファニチャ
 62
     7
370
     9
100
AcDbLine
 10
181992.532391
 20
38955.410687
 30
0.0
 11
181992.532391
 21
38980.410687
 31
0.0
  0
LINE
  5
CD33
330
CF75
100
AcDbEntity
  8
A733_ストリートファニチャ
 62
     7
370
     9
100
AcDbLine
 10
181979.532391
 20
39595.410687
 30
0.0
 11
181979.532391
 21
38980.410687
 31
0.0
  0
LINE
  5
CD34
330
CF75
100
AcDbEntity
  8
A733_ストリートファニチャ
 62
     7
370
     9
100
AcDbLine
 10
181992.532391
 20
37755.410687
 30
0.0
 11
181992.532391
 21
37730.410687
 31
0.0
  0
LINE
  5
CD35
330
CF75
100
AcDbEntity
  8
A733_ストリートファニチャ
 62
     7
370
     9
100
AcDbLine
 10
181979.532391
 20
37730.410687
 30
0.0
 11
181979.532391
 21
38980.410687
 31
0.0
  0
LINE
  5
CD36
330
CF75
100
AcDbEntity
  8
A733_ストリートファニチャ
 62
     7
370
     9
100
AcDbLine
 10
181992.532391
 20
37090.410687
 30
0.0
 11
181992.532391
 21
37115.410687
 31
0.0
  0
LINE
  5
CD37
330
CF75
100
AcDbEntity
  8
A733_ストリートファニチャ
 62
     7
370
     9
100
AcDbLine
 10
181979.532391
 20
37730.410687
 30
0.0
 11
181979.532391
 21
37115.410687
 31
0.0
  0
LINE
  5
CD38
330
CF75
100
AcDbEntity
  8
A733_ストリートファニチャ
 62
     7
370
     9
100
AcDbLine
 10
181992.532391
 20
35310.410687
 30
0.0
 11
181992.532391
 21
35285.410687
 31
0.0
  0
LINE
  5
CD39
330
CF75
100
AcDbEntity
  8
A733_ストリートファニチャ
 62
     7
370
     9
100
AcDbLine
 10
181979.532391
 20
34504.410687
 30
0.0
 11
181979.532391
 21
35285.410687
 31
0.0
  0
LINE
  5
CD3A
330
CF75
100
AcDbEntity
  8
A733_ストリートファニチャ
 62
     7
370
     9
100
AcDbLine
 10
181979.532391
 20
35285.410687
 30
0.0
 11
181979.532391
 21
37115.410687
 31
0.0
  0
LINE
  5
CD3B
330
CF75
100
AcDbEntity
  8
A733_ストリートファニチャ
 62
     7
370
     9
100
AcDbLine
 10
183336.032391
 20
42986.410687
 30
0.0
 11
183336.032391
 21
42633.410687
 31
0.0
  0
LINE
  5
CD3C
330
CF75
100
AcDbEntity
  8
A733_ストリートファニチャ
 62
     7
370
     9
100
AcDbLine
 10
183361.032391
 20
42633.410687
 30
0.0
 11
183336.032391
 21
42633.410687
 31
0.0
  0
LINE
  5
CD3D
330
CF75
100
AcDbEntity
  8
A733_ストリートファニチャ
 62
     7
370
     9
100
AcDbLine
 10
185166.032391
 20
42986.410687
 30
0.0
 11
185166.032391
 21
42633.410687
 31
0.0
  0
LINE
  5
CD3E
330
CF75
100
AcDbEntity
  8
A733_ストリートファニチャ
 62
     7
370
     9
100
AcDbLine
 10
185141.032391
 20
42633.410687
 30
0.0
 11
185166.032391
 21
42633.410687
 31
0.0
  0
LINE
  5
CD3F
330
CF75
100
AcDbEntity
  8
A733_ストリートファニチャ
 62
     7
370
     9
100
AcDbLine
 10
185781.032391
 20
42986.410687
 30
0.0
 11
185781.032391
 21
42633.410687
 31
0.0
  0
LINE
  5
CD40
330
CF75
100
AcDbEntity
  8
A733_ストリートファニチャ
 62
     7
370
     9
100
AcDbLine
 10
185806.032391
 20
42633.410687
 30
0.0
 11
185781.032391
 21
42633.410687
 31
0.0
  0
LINE
  5
CD41
330
CF75
100
AcDbEntity
  8
A733_ストリートファニチャ
 62
     7
370
     9
100
AcDbLine
 10
187611.032391
 20
42986.410687
 30
0.0
 11
187611.032391
 21
42633.410687
 31
0.0
  0
LINE
  5
CD42
330
CF75
100
AcDbEntity
  8
A733_ストリートファニチャ
 62
     7
370
     9
100
AcDbLine
 10
187586.032391
 20
42633.410687
 30
0.0
 11
187611.032391
 21
42633.410687
 31
0.0
  0
LINE
  5
CD43
330
CF75
100
AcDbEntity
  8
A733_ストリートファニチャ
 62
     7
370
     9
100
AcDbLine
 10
183336.032391
 20
42646.410687
 30
0.0
 11
182434.532391
 21
42646.410687
 31
0.0
  0
LINE
  5
CD44
330
CF75
100
AcDbEntity
  8
A733_ストリートファニチャ
 62
     7
370
     9
100
AcDbLine
 10
185166.032391
 20
42646.410687
 30
0.0
 11
183336.032391
 21
42646.410687
 31
0.0
  0
LINE
  5
CD45
330
CF75
100
AcDbEntity
  8
A733_ストリートファニチャ
 62
     7
370
     9
100
AcDbLine
 10
185781.032391
 20
42646.410687
 30
0.0
 11
185166.032391
 21
42646.410687
 31
0.0
  0
LINE
  5
CD46
330
CF75
100
AcDbEntity
  8
A733_ストリートファニチャ
 62
     7
370
     9
100
AcDbLine
 10
187611.032391
 20
42646.410687
 30
0.0
 11
185781.032391
 21
42646.410687
 31
0.0
  0
LINE
  5
CD47
330
CF75
100
AcDbEntity
  8
A733_ストリートファニチャ
 62
     7
370
     9
100
AcDbLine
 10
181979.532391
 20
35175.410687
 30
0.0
 11
182129.532391
 21
35175.410687
 31
0.0
  0
LINE
  5
CD48
330
CF75
100
AcDbEntity
  8
A733_ストリートファニチャ
 62
     7
370
     9
100
AcDbLine
 10
182129.532391
 20
37225.410687
 30
0.0
 11
182129.532391
 21
35175.410687
 31
0.0
  0
LINE
  5
CD49
330
CF75
100
AcDbEntity
  8
A733_ストリートファニチャ
 62
     7
370
     9
100
AcDbLine
 10
181979.532391
 20
37225.410687
 30
0.0
 11
182129.532391
 21
37225.410687
 31
0.0
  0
LINE
  5
CD4A
330
CF75
100
AcDbEntity
  8
A733_ストリートファニチャ
 62
     7
370
     9
100
AcDbLine
 10
189336.032391
 20
34940.410687
 30
0.0
 11
189336.032391
 21
36873.410687
 31
0.0
  0
LINE
  5
CD4B
330
CF75
100
AcDbEntity
  8
A733_ストリートファニチャ
 62
     7
370
     9
100
AcDbLine
 10
189536.032391
 20
34940.410687
 30
0.0
 11
189536.032391
 21
36873.410687
 31
0.0
  0
LINE
  5
CD4C
330
CF75
100
AcDbEntity
  8
A733_ストリートファニチャ
 62
     7
370
     9
100
AcDbLine
 10
183289.532391
 20
33614.410687
 30
0.0
 11
183289.532391
 21
33814.410687
 31
0.0
  0
LINE
  5
CD4D
330
CF75
100
AcDbEntity
  8
A733_ストリートファニチャ
 62
     7
370
     9
100
AcDbLine
 10
189336.032391
 20
38245.410687
 30
0.0
 11
189336.032391
 21
42356.410687
 31
0.0
  0
LINE
  5
CD4E
330
CF75
100
AcDbEntity
  8
A733_ストリートファニチャ
 62
     7
370
     9
100
AcDbLine
 10
189536.032391
 20
38245.410687
 30
0.0
 11
189536.032391
 21
42356.410687
 31
0.0
  0
LINE
  5
CD4F
330
CF75
100
AcDbEntity
  8
A733_ストリートファニチャ
 62
     7
370
     9
100
AcDbLine
 10
183289.532391
 20
33614.410687
 30
0.0
 11
183749.532391
 21
33614.410687
 31
0.0
  0
LINE
  5
CD50
330
CF75
100
AcDbEntity
  8
A733_ストリートファニチャ
 62
     7
370
     9
100
AcDbLine
 10
183749.532391
 20
33814.410687
 30
0.0
 11
183749.532391
 21
33614.410687
 31
0.0
  0
LINE
  5
CD51
330
CF75
100
AcDbEntity
  8
A733_ストリートファニチャ
 62
     7
370
     9
100
AcDbLine
 10
183289.532391
 20
33814.410687
 30
0.0
 11
183749.532391
 21
33814.410687
 31
0.0
  0
LINE
  5
CD52
330
CF75
100
AcDbEntity
  8
A733_ストリートファニチャ
 62
     7
370
     9
100
AcDbLine
 10
185669.532391
 20
33614.410687
 30
0.0
 11
188912.032391
 21
33614.410687
 31
0.0
  0
LINE
  5
CD53
330
CF75
100
AcDbEntity
  8
A733_ストリートファニチャ
 62
     7
370
     9
100
AcDbLine
 10
185669.532391
 20
33814.410687
 30
0.0
 11
185669.532391
 21
33614.410687
 31
0.0
  0
LINE
  5
CD54
330
CF75
100
AcDbEntity
  8
A733_ストリートファニチャ
 62
     7
370
     9
100
AcDbLine
 10
185669.532391
 20
33814.410687
 30
0.0
 11
188912.032391
 21
33814.410687
 31
0.0
  0
LINE
  5
CD55
330
CF75
100
AcDbEntity
  8
A733_ストリートファニチャ
 62
     7
370
     9
100
AcDbLine
 10
189760.032391
 20
33686.410687
 30
0.0
 11
189926.032391
 21
33686.410687
 31
0.0
  0
LINE
  5
CD56
330
CF75
100
AcDbEntity
  8
A733_ストリートファニチャ
 62
     7
370
     9
100
AcDbLine
 10
189760.032391
 20
33486.410687
 30
0.0
 11
189926.032391
 21
33486.410687
 31
0.0
  0
LINE
  5
CD57
330
CF75
100
AcDbEntity
  8
A733_ストリートファニチャ
 62
     7
370
     9
100
AcDbLine
 10
189222.466977
 20
42356.410687
 30
0.0
 11
189072.466977
 21
42506.410687
 31
0.0
  0
LINE
  5
CD58
330
CF75
100
AcDbEntity
  8
A733_ストリートファニチャ
 62
     7
370
     9
100
AcDbLine
 10
189010.334943
 20
42356.410687
 30
0.0
 11
188860.334943
 21
42506.410687
 31
0.0
  0
LINE
  5
CD59
330
CF75
100
AcDbEntity
  8
A733_ストリートファニチャ
 62
     7
370
     9
100
AcDbLine
 10
181879.532391
 20
42274.724071
 30
0.0
 11
181862.845775
 21
42291.410687
 31
0.0
  0
LINE
  5
CD5A
330
CF75
100
AcDbEntity
  8
A733_ストリートファニチャ
 62
     7
370
     9
100
AcDbLine
 10
182468.505947
 20
42746.410687
 30
0.0
 11
182334.532391
 21
42880.384243
 31
0.0
  0
LINE
  5
CD5B
330
CF75
100
AcDbEntity
  8
A733_ストリートファニチャ
 62
     7
370
     9
100
AcDbLine
 10
188751.032391
 20
42827.845273
 30
0.0
 11
188682.466977
 21
42896.410687
 31
0.0
  0
LINE
  5
CD5C
330
CF75
100
AcDbEntity
  8
A733_ストリートファニチャ
 62
     7
370
     9
100
AcDbLine
 10
189266.032391
 20
42356.410687
 30
0.0
 11
189266.032391
 21
34404.410687
 31
0.0
  0
POINT
  5
CD5D
330
CF75
100
AcDbEntity
  8
A733_ストリートファニチャ
 62
     7
370
     9
100
AcDbPoint
 10
189166.032391
 20
41806.410687
 30
0.0
 50
-90.0
  0
LINE
  5
CD5E
330
CF75
100
AcDbEntity
  8
A733_ストリートファニチャ
 62
     7
370
     9
100
AcDbLine
 10
188721.032391
 20
42646.410687
 30
0.0
 11
187611.032391
 21
42646.410687
 31
0.0
  0
LINE
  5
CD5F
330
CF75
100
AcDbEntity
  8
A733_ストリートファニチャ
 62
     7
370
     9
100
AcDbLine
 10
188721.032391
 20
42646.410687
 30
0.0
 11
188721.032391
 21
42256.410687
 31
0.0
  0
LINE
  5
CD60
330
CF75
100
AcDbEntity
  8
A733_ストリートファニチャ
 62
     7
370
     9
100
AcDbLine
 10
189166.032391
 20
42256.410687
 30
0.0
 11
188721.032391
 21
42256.410687
 31
0.0
  0
POINT
  5
CD61
330
CF75
100
AcDbEntity
  8
A733_ストリートファニチャ
 62
     7
370
     9
100
AcDbPoint
 10
188721.032391
 20
41806.410687
 30
0.0
 50
-90.0
  0
POINT
  5
CD62
330
CF75
100
AcDbEntity
  8
A733_ストリートファニチャ
 62
     7
370
     9
100
AcDbPoint
 10
189157.04138
 20
42256.410687
 30
0.0
 50
-90.0
  0
POINT
  5
CD63
330
CF75
100
AcDbEntity
  8
A733_ストリートファニチャ
 62
     7
370
     9
100
AcDbPoint
 10
189157.04138
 20
42333.910687
 30
0.0
 50
-90.0
  0
POINT
  5
CD64
330
CF75
100
AcDbEntity
  8
A733_ストリートファニチャ
 62
     7
370
     9
100
AcDbPoint
 10
188907.04138
 20
42356.410687
 30
0.0
 50
-90.0
  0
POINT
  5
CD65
330
CF75
100
AcDbEntity
  8
A733_ストリートファニチャ
 62
     7
370
     9
100
AcDbPoint
 10
188721.032391
 20
42635.473388
 30
0.0
 50
-90.0
  0
POINT
  5
CD66
330
CF75
100
AcDbEntity
  8
A733_ストリートファニチャ
 62
     7
370
     9
100
AcDbPoint
 10
188798.532391
 20
42635.473388
 30
0.0
 50
-90.0
  0
POINT
  5
CD67
330
CF75
100
AcDbEntity
  8
A733_ストリートファニチャ
 62
     7
370
     9
100
AcDbPoint
 10
188821.032391
 20
42436.001477
 30
0.0
 50
-90.0
  0
POINT
  5
CD68
330
CF75
100
AcDbEntity
  8
A733_ストリートファニチャ
 62
     7
370
     9
100
AcDbPoint
 10
188721.032391
 20
42436.001477
 30
0.0
 50
-90.0
  0
LINE
  5
CD69
330
CF75
100
AcDbEntity
  8
A733_ストリートファニチャ
 62
     7
370
     9
100
AcDbLine
 10
189166.032391
 20
39680.410687
 30
0.0
 11
189156.032391
 21
39680.410687
 31
0.0
  0
LINE
  5
CD6A
330
CF75
100
AcDbEntity
  8
A733_ストリートファニチャ
 62
     7
370
     9
100
AcDbLine
 10
189646.731046
 20
42356.410687
 30
0.0
 11
189581.032391
 21
42422.109342
 31
0.0
  0
SOLID
  5
CD6B
330
CF75
100
AcDbEntity
  8
A733_ストリートファニチャ
 62
     7
370
     9
100
AcDbTrace
 10
-185251.032391
 20
42746.410687
 30
0.0
 11
-185696.032391
 21
43081.410687
 31
0.0
 12
-185696.032391
 22
42746.410687
 32
0.0
 13
-185696.032391
 23
42746.410687
 33
0.0
210
0.0
220
0.0
230
-1.0
  0
SOLID
  5
CD6C
330
CF75
100
AcDbEntity
  8
A733_ストリートファニチャ
 62
     7
370
     9
100
AcDbTrace
 10
185251.032391
 20
43081.410687
 30
0.0
 11
185191.032391
 21
43216.410687
 31
0.0
 12
185191.032391
 22
43081.410687
 32
0.0
 13
185191.032391
 23
43081.410687
 33
0.0
  0
SOLID
  5
CD6D
330
CF75
100
AcDbEntity
  8
A733_ストリートファニチャ
 62
     7
370
     9
100
AcDbTrace
 10
185756.032391
 20
43216.410687
 30
0.0
 11
185251.032391
 21
42746.410687
 31
0.0
 12
185251.032391
 22
43081.410687
 32
0.0
 13
185251.032391
 23
43081.410687
 33
0.0
  0
SOLID
  5
CD6E
330
CF75
100
AcDbEntity
  8
A733_ストリートファニチャ
 62
     7
370
     9
100
AcDbTrace
 10
-185756.032391
 20
43216.410687
 30
0.0
 11
-185191.032391
 21
43216.410687
 31
0.0
 12
-185251.032391
 22
43081.410687
 32
0.0
 13
-185251.032391
 23
43081.410687
 33
0.0
210
0.0
220
0.0
230
-1.0
  0
SOLID
  5
CD6F
330
CF75
100
AcDbEntity
  8
A733_ストリートファニチャ
 62
     7
370
     9
100
AcDbTrace
 10
-185756.032391
 20
43216.410687
 30
0.0
 11
-185696.032391
 21
43081.410687
 31
0.0
 12
-185756.032391
 22
43081.410687
 32
0.0
 13
-185756.032391
 23
43081.410687
 33
0.0
210
0.0
220
0.0
230
-1.0
  0
SOLID
  5
CD70
330
CF75
100
AcDbEntity
  8
A733_ストリートファニチャ
 62
     7
370
     9
100
AcDbTrace
 10
-185251.032391
 20
42746.410687
 30
0.0
 11
-185756.032391
 21
43216.410687
 31
0.0
 12
-185696.032391
 22
43081.410687
 32
0.0
 13
-185696.032391
 23
43081.410687
 33
0.0
210
0.0
220
0.0
230
-1.0
  0
SOLID
  5
CD71
330
CF75
100
AcDbEntity
  8
A733_ストリートファニチャ
 62
     7
370
     9
100
AcDbTrace
 10
181544.532391
 20
39005.410687
 30
0.0
 11
181409.532391
 21
39570.410687
 31
0.0
 12
181409.532391
 22
39005.410687
 32
0.0
 13
181409.532391
 23
39005.410687
 33
0.0
  0
SOLID
  5
CD72
330
CF75
100
AcDbEntity
  8
A733_ストリートファニチャ
 62
     7
370
     9
100
AcDbTrace
 10
181409.532391
 20
39570.410687
 30
0.0
 11
181544.532391
 21
39510.410687
 31
0.0
 12
181544.532391
 22
39570.410687
 32
0.0
 13
181544.532391
 23
39570.410687
 33
0.0
  0
SOLID
  5
CD73
330
CF75
100
AcDbEntity
  8
A733_ストリートファニチャ
 62
     7
370
     9
100
AcDbTrace
 10
-181544.532391
 20
39005.410687
 30
0.0
 11
-181409.532391
 21
39570.410687
 31
0.0
 12
-181544.532391
 22
39065.410687
 32
0.0
 13
-181544.532391
 23
39065.410687
 33
0.0
210
0.0
220
0.0
230
-1.0
  0
SOLID
  5
CD74
330
CF75
100
AcDbEntity
  8
A733_ストリートファニチャ
 62
     7
370
     9
100
AcDbTrace
 10
181879.532391
 20
39065.410687
 30
0.0
 11
181409.532391
 21
39570.410687
 31
0.0
 12
181544.532391
 22
39065.410687
 32
0.0
 13
181544.532391
 23
39065.410687
 33
0.0
  0
SOLID
  5
CD75
330
CF75
100
AcDbEntity
  8
A733_ストリートファニチャ
 62
     7
370
     9
100
AcDbTrace
 10
-181544.532391
 20
39510.410687
 30
0.0
 11
-181879.532391
 21
39065.410687
 31
0.0
 12
-181879.532391
 22
39510.410687
 32
0.0
 13
-181879.532391
 23
39510.410687
 33
0.0
210
0.0
220
0.0
230
-1.0
  0
SOLID
  5
CD76
330
CF75
100
AcDbEntity
  8
A733_ストリートファニチャ
 62
     7
370
     9
100
AcDbTrace
 10
-181879.532391
 20
39065.410687
 30
0.0
 11
-181409.532391
 21
39570.410687
 31
0.0
 12
-181544.532391
 22
39510.410687
 32
0.0
 13
-181544.532391
 23
39510.410687
 33
0.0
210
0.0
220
0.0
230
-1.0
  0
SOLID
  5
CD77
330
CF75
100
AcDbEntity
  8
A733_ストリートファニチャ
 62
     7
370
     9
100
AcDbTrace
 10
181544.532391
 20
37140.410687
 30
0.0
 11
181409.532391
 21
37705.410687
 31
0.0
 12
181409.532391
 22
37140.410687
 32
0.0
 13
181409.532391
 23
37140.410687
 33
0.0
  0
SOLID
  5
CD78
330
CF75
100
AcDbEntity
  8
A733_ストリートファニチャ
 62
     7
370
     9
100
AcDbTrace
 10
181409.532391
 20
37705.410687
 30
0.0
 11
181544.532391
 21
37645.410687
 31
0.0
 12
181544.532391
 22
37705.410687
 32
0.0
 13
181544.532391
 23
37705.410687
 33
0.0
  0
SOLID
  5
CD79
330
CF75
100
AcDbEntity
  8
A733_ストリートファニチャ
 62
     7
370
     9
100
AcDbTrace
 10
-181544.532391
 20
37140.410687
 30
0.0
 11
-181409.532391
 21
37705.410687
 31
0.0
 12
-181544.532391
 22
37200.410687
 32
0.0
 13
-181544.532391
 23
37200.410687
 33
0.0
210
0.0
220
0.0
230
-1.0
  0
SOLID
  5
CD7A
330
CF75
100
AcDbEntity
  8
A733_ストリートファニチャ
 62
     7
370
     9
100
AcDbTrace
 10
181879.532391
 20
37200.410687
 30
0.0
 11
181409.532391
 21
37705.410687
 31
0.0
 12
181544.532391
 22
37200.410687
 32
0.0
 13
181544.532391
 23
37200.410687
 33
0.0
  0
SOLID
  5
CD7B
330
CF75
100
AcDbEntity
  8
A733_ストリートファニチャ
 62
     7
370
     9
100
AcDbTrace
 10
-181544.532391
 20
37645.410687
 30
0.0
 11
-181879.532391
 21
37200.410687
 31
0.0
 12
-181879.532391
 22
37645.410687
 32
0.0
 13
-181879.532391
 23
37645.410687
 33
0.0
210
0.0
220
0.0
230
-1.0
  0
SOLID
  5
CD7C
330
CF75
100
AcDbEntity
  8
A733_ストリートファニチャ
 62
     7
370
     9
100
AcDbTrace
 10
-181879.532391
 20
37200.410687
 30
0.0
 11
-181409.532391
 21
37705.410687
 31
0.0
 12
-181544.532391
 22
37645.410687
 32
0.0
 13
-181544.532391
 23
37645.410687
 33
0.0
210
0.0
220
0.0
230
-1.0
  0
SOLID
  5
CD7D
330
CF75
100
AcDbEntity
  8
A733_ストリートファニチャ
 62
     7
370
     9
100
AcDbTrace
 10
-189760.032391
 20
34940.410687
 30
0.0
 11
-188912.032391
 21
33486.410687
 31
0.0
 12
-189760.032391
 22
33486.410687
 32
0.0
 13
-189760.032391
 23
33486.410687
 33
0.0
210
0.0
220
0.0
230
-1.0
  0
SOLID
  5
CD7E
330
CF75
100
AcDbEntity
  8
A733_ストリートファニチャ
 62
     7
370
     9
100
AcDbTrace
 10
189760.032391
 20
34940.410687
 30
0.0
 11
189336.032391
 21
34334.410687
 31
0.0
 12
189336.032391
 22
34940.410687
 32
0.0
 13
189336.032391
 23
34940.410687
 33
0.0
  0
SOLID
  5
CD7F
330
CF75
100
AcDbEntity
  8
A733_ストリートファニチャ
 62
     7
370
     9
100
AcDbTrace
 10
188912.032391
 20
33486.410687
 30
0.0
 11
189336.032391
 21
34334.410687
 31
0.0
 12
188912.032391
 22
34334.410687
 32
0.0
 13
188912.032391
 23
34334.410687
 33
0.0
  0
SOLID
  5
CD80
330
CF75
100
AcDbEntity
  8
A733_ストリートファニチャ
 62
     7
370
     9
100
AcDbTrace
 10
189760.032391
 20
34940.410687
 30
0.0
 11
188912.032391
 21
33486.410687
 31
0.0
 12
189336.032391
 22
34334.410687
 32
0.0
 13
189336.032391
 23
34334.410687
 33
0.0
  0
SOLID
  5
CD81
330
CF75
100
AcDbEntity
  8
A733_ストリートファニチャ
 62
     7
370
     9
100
AcDbTrace
 10
-181879.532391
 20
34334.410687
 30
0.0
 11
-182257.532391
 21
33789.410687
 31
0.0
 12
-182257.532391
 22
34334.410687
 32
0.0
 13
-182257.532391
 23
34334.410687
 33
0.0
210
0.0
220
0.0
230
-1.0
  0
SOLID
  5
CD82
330
CF75
100
AcDbEntity
  8
A733_ストリートファニチャ
 62
     7
370
     9
100
AcDbTrace
 10
-181409.532391
 20
34099.410687
 30
0.0
 11
-181879.532391
 21
35200.410687
 31
0.0
 12
-181879.532391
 22
34334.410687
 32
0.0
 13
-181879.532391
 23
34334.410687
 33
0.0
210
0.0
220
0.0
230
-1.0
  0
SOLID
  5
CD83
330
CF75
100
AcDbEntity
  8
A733_ストリートファニチャ
 62
     7
370
     9
100
AcDbTrace
 10
182257.532391
 20
33789.410687
 30
0.0
 11
183289.532391
 21
33244.410687
 31
0.0
 12
183289.532391
 22
33789.410687
 32
0.0
 13
183289.532391
 23
33789.410687
 33
0.0
  0
SOLID
  5
CD84
330
CF75
100
AcDbEntity
  8
A733_ストリートファニチャ
 62
     7
370
     9
100
AcDbTrace
 10
181409.532391
 20
34099.410687
 30
0.0
 11
181544.532391
 21
35260.410687
 31
0.0
 12
181409.532391
 22
35260.410687
 32
0.0
 13
181409.532391
 23
35260.410687
 33
0.0
  0
SOLID
  5
CD85
330
CF75
100
AcDbEntity
  8
A733_ストリートファニチャ
 62
     7
370
     9
100
AcDbTrace
 10
181879.532391
 20
35200.410687
 30
0.0
 11
181409.532391
 21
34099.410687
 31
0.0
 12
181544.532391
 22
35200.410687
 32
0.0
 13
181544.532391
 23
35200.410687
 33
0.0
  0
SOLID
  5
CD86
330
CF75
100
AcDbEntity
  8
A733_ストリートファニチャ
 62
     7
370
     9
100
AcDbTrace
 10
-181544.532391
 20
35260.410687
 30
0.0
 11
-181409.532391
 21
34099.410687
 31
0.0
 12
-181544.532391
 22
35200.410687
 32
0.0
 13
-181544.532391
 23
35200.410687
 33
0.0
210
0.0
220
0.0
230
-1.0
  0
SOLID
  5
CD87
330
CF75
100
AcDbEntity
  8
A733_ストリートファニチャ
 62
     7
370
     9
100
AcDbTrace
 10
-189881.032391
 20
37518.410687
 30
0.0
 11
-189336.032391
 21
38245.410687
 31
0.0
 12
-189881.032391
 22
38245.410687
 32
0.0
 13
-189881.032391
 23
38245.410687
 33
0.0
210
0.0
220
0.0
230
-1.0
  0
SOLID
  5
CD88
330
CF75
100
AcDbEntity
  8
A733_ストリートファニチャ
 62
     7
370
     9
100
AcDbTrace
 10
-189760.032391
 20
37518.410687
 30
0.0
 11
-189336.032391
 21
36873.410687
 31
0.0
 12
-189760.032391
 22
36873.410687
 32
0.0
 13
-189760.032391
 23
36873.410687
 33
0.0
210
0.0
220
0.0
230
-1.0
  0
SOLID
  5
CD89
330
CF75
100
AcDbEntity
  8
A733_ストリートファニチャ
 62
     7
370
     9
100
AcDbTrace
 10
189336.032391
 20
38245.410687
 30
0.0
 11
189881.032391
 21
37518.410687
 31
0.0
 12
189760.032391
 22
37518.410687
 32
0.0
 13
189760.032391
 23
37518.410687
 33
0.0
  0
SOLID
  5
CD8A
330
CF75
100
AcDbEntity
  8
A733_ストリートファニチャ
 62
     7
370
     9
100
AcDbTrace
 10
-189336.032391
 20
38245.410687
 30
0.0
 11
-189336.032391
 21
36873.410687
 31
0.0
 12
-189760.032391
 22
37518.410687
 32
0.0
 13
-189760.032391
 23
37518.410687
 33
0.0
210
0.0
220
0.0
230
-1.0
  0
SOLID
  5
CD8B
330
CF75
100
AcDbEntity
  8
A733_ストリートファニチャ
 62
     7
370
     9
100
AcDbTrace
 10
189475.032391
 20
43199.663862
 30
0.0
 11
189520.785566
 21
43153.910687
 31
0.0
 12
189500.920738
 22
43179.799034
 32
0.0
 13
189500.920738
 23
43179.799034
 33
0.0
  0
SOLID
  5
CD8C
330
CF75
100
AcDbEntity
  8
A733_ストリートファニチャ
 62
     7
370
     9
100
AcDbTrace
 10
-189475.032391
 20
43199.663862
 30
0.0
 11
-189533.273119
 21
43123.763067
 31
0.0
 12
-189520.785566
 22
43153.910687
 32
0.0
 13
-189520.785566
 23
43153.910687
 33
0.0
210
0.0
220
0.0
230
-1.0
  0
SOLID
  5
CD8D
330
CF75
100
AcDbEntity
  8
A733_ストリートファニチャ
 62
     7
370
     9
100
AcDbTrace
 10
-189475.032391
 20
43199.663862
 30
0.0
 11
-189537.532391
 21
43091.410687
 31
0.0
 12
-189533.273119
 22
43123.763067
 32
0.0
 13
-189533.273119
 23
43123.763067
 33
0.0
210
0.0
220
0.0
230
-1.0
  0
SOLID
  5
CD8E
330
CF75
100
AcDbEntity
  8
A733_ストリートファニチャ
 62
     7
370
     9
100
AcDbTrace
 10
-189475.032391
 20
43199.663862
 30
0.0
 11
-189537.532391
 21
42691.410687
 31
0.0
 12
-189537.532391
 22
43091.410687
 32
0.0
 13
-189537.532391
 23
43091.410687
 33
0.0
210
0.0
220
0.0
230
-1.0
  0
SOLID
  5
CD8F
330
CF75
100
AcDbEntity
  8
A733_ストリートファニチャ
 62
     7
370
     9
100
AcDbTrace
 10
188821.032391
 20
42356.410687
 30
0.0
 11
189475.032391
 21
43199.663862
 31
0.0
 12
188821.032391
 22
42746.410687
 32
0.0
 13
188821.032391
 23
42746.410687
 33
0.0
  0
SOLID
  5
CD90
330
CF75
100
AcDbEntity
  8
A733_ストリートファニチャ
 62
     7
370
     9
100
AcDbTrace
 10
-189475.032391
 20
43199.663862
 30
0.0
 11
-187696.032391
 21
42746.410687
 31
0.0
 12
-188821.032391
 22
42746.410687
 32
0.0
 13
-188821.032391
 23
42746.410687
 33
0.0
210
0.0
220
0.0
230
-1.0
  0
SOLID
  5
CD91
330
CF75
100
AcDbEntity
  8
A733_ストリートファニチャ
 62
     7
370
     9
100
AcDbTrace
 10
187696.032391
 20
42746.410687
 30
0.0
 11
189475.032391
 21
43199.663862
 31
0.0
 12
187696.032391
 22
43081.410687
 32
0.0
 13
187696.032391
 23
43081.410687
 33
0.0
  0
SOLID
  5
CD92
330
CF75
100
AcDbEntity
  8
A733_ストリートファニチャ
 62
     7
370
     9
100
AcDbTrace
 10
-189475.032391
 20
43199.663862
 30
0.0
 11
-187636.032391
 21
43081.410687
 31
0.0
 12
-187696.032391
 22
43081.410687
 32
0.0
 13
-187696.032391
 23
43081.410687
 33
0.0
210
0.0
220
0.0
230
-1.0
  0
SOLID
  5
CD93
330
CF75
100
AcDbEntity
  8
A733_ストリートファニチャ
 62
     7
370
     9
100
AcDbTrace
 10
187636.032391
 20
43081.410687
 30
0.0
 11
189475.032391
 21
43199.663862
 31
0.0
 12
187636.032391
 22
43216.410687
 32
0.0
 13
187636.032391
 23
43216.410687
 33
0.0
  0
SOLID
  5
CD94
330
CF75
100
AcDbEntity
  8
A733_ストリートファニチャ
 62
     7
370
     9
100
AcDbTrace
 10
189475.032391
 20
43199.663862
 30
0.0
 11
189412.532391
 21
43216.410687
 31
0.0
 12
189444.884771
 22
43212.151415
 32
0.0
 13
189444.884771
 23
43212.151415
 33
0.0
  0
SOLID
  5
CD95
330
CF75
100
AcDbEntity
  8
A733_ストリートファニチャ
 62
     7
370
     9
100
AcDbTrace
 10
187636.032391
 20
43216.410687
 30
0.0
 11
189475.032391
 21
43199.663862
 31
0.0
 12
189412.532391
 22
43216.410687
 32
0.0
 13
189412.532391
 23
43216.410687
 33
0.0
  0
SOLID
  5
CD96
330
CF75
100
AcDbEntity
  8
A733_ストリートファニチャ
 62
     7
370
     9
100
AcDbTrace
 10
-188821.032391
 20
42356.410687
 30
0.0
 11
-189475.032391
 21
43199.663862
 31
0.0
 12
-189537.532391
 22
42691.410687
 32
0.0
 13
-189537.532391
 23
42691.410687
 33
0.0
210
0.0
220
0.0
230
-1.0
  0
SOLID
  5
CD97
330
CF75
100
AcDbEntity
  8
A733_ストリートファニチャ
 62
     7
370
     9
100
AcDbTrace
 10
181426.279215
 20
43153.910687
 30
0.0
 11
181472.032391
 21
43199.663862
 31
0.0
 12
181446.144043
 22
43179.799034
 32
0.0
 13
181446.144043
 23
43179.799034
 33
0.0
  0
SOLID
  5
CD98
330
CF75
100
AcDbEntity
  8
A733_ストリートファニチャ
 62
     7
370
     9
100
AcDbTrace
 10
181426.279215
 20
43153.910687
 30
0.0
 11
181502.18001
 21
43212.151415
 31
0.0
 12
181472.032391
 22
43199.663862
 32
0.0
 13
181472.032391
 23
43199.663862
 33
0.0
  0
SOLID
  5
CD99
330
CF75
100
AcDbEntity
  8
A733_ストリートファニチャ
 62
     7
370
     9
100
AcDbTrace
 10
181426.279215
 20
43153.910687
 30
0.0
 11
181534.532391
 21
43216.410687
 31
0.0
 12
181502.18001
 22
43212.151415
 32
0.0
 13
181502.18001
 23
43212.151415
 33
0.0
  0
SOLID
  5
CD9A
330
CF75
100
AcDbEntity
  8
A733_ストリートファニチャ
 62
     7
370
     9
100
AcDbTrace
 10
181426.279215
 20
43153.910687
 30
0.0
 11
183311.032391
 21
43216.410687
 31
0.0
 12
181534.532391
 22
43216.410687
 32
0.0
 13
181534.532391
 23
43216.410687
 33
0.0
  0
SOLID
  5
CD9B
330
CF75
100
AcDbEntity
  8
A733_ストリートファニチャ
 62
     7
370
     9
100
AcDbTrace
 10
181426.279215
 20
43153.910687
 30
0.0
 11
183311.032391
 21
43081.410687
 31
0.0
 12
183311.032391
 22
43216.410687
 32
0.0
 13
183311.032391
 23
43216.410687
 33
0.0
  0
SOLID
  5
CD9C
330
CF75
100
AcDbEntity
  8
A733_ストリートファニチャ
 62
     7
370
     9
100
AcDbTrace
 10
-183311.032391
 20
43081.410687
 30
0.0
 11
-181426.279215
 21
43153.910687
 31
0.0
 12
-183251.032391
 22
43081.410687
 32
0.0
 13
-183251.032391
 23
43081.410687
 33
0.0
210
0.0
220
0.0
230
-1.0
  0
SOLID
  5
CD9D
330
CF75
100
AcDbEntity
  8
A733_ストリートファニチャ
 62
     7
370
     9
100
AcDbTrace
 10
181426.279215
 20
43153.910687
 30
0.0
 11
183251.032391
 21
42746.410687
 31
0.0
 12
183251.032391
 22
43081.410687
 32
0.0
 13
183251.032391
 23
43081.410687
 33
0.0
  0
SOLID
  5
CD9E
330
CF75
100
AcDbEntity
  8
A733_ストリートファニチャ
 62
     7
370
     9
100
AcDbTrace
 10
-183251.032391
 20
42746.410687
 30
0.0
 11
-181426.279215
 21
43153.910687
 31
0.0
 12
-182257.532391
 22
42746.410687
 32
0.0
 13
-182257.532391
 23
42746.410687
 33
0.0
210
0.0
220
0.0
230
-1.0
  0
SOLID
  5
CD9F
330
CF75
100
AcDbEntity
  8
A733_ストリートファニチャ
 62
     7
370
     9
100
AcDbTrace
 10
181426.279215
 20
43153.910687
 30
0.0
 11
182257.532391
 21
42368.410687
 31
0.0
 12
182257.532391
 22
42746.410687
 32
0.0
 13
182257.532391
 23
42746.410687
 33
0.0
  0
SOLID
  5
CDA0
330
CF75
100
AcDbEntity
  8
A733_ストリートファニチャ
 62
     7
370
     9
100
AcDbTrace
 10
-182257.532391
 20
42368.410687
 30
0.0
 11
-181426.279215
 21
43153.910687
 31
0.0
 12
-181879.532391
 22
42368.410687
 32
0.0
 13
-181879.532391
 23
42368.410687
 33
0.0
210
0.0
220
0.0
230
-1.0
  0
SOLID
  5
CDA1
330
CF75
100
AcDbEntity
  8
A733_ストリートファニチャ
 62
     7
370
     9
100
AcDbTrace
 10
-181426.279215
 20
43153.910687
 30
0.0
 11
-181879.532391
 21
41510.410687
 31
0.0
 12
-181879.532391
 22
42368.410687
 32
0.0
 13
-181879.532391
 23
42368.410687
 33
0.0
210
0.0
220
0.0
230
-1.0
  0
SOLID
  5
CDA2
330
CF75
100
AcDbEntity
  8
A733_ストリートファニチャ
 62
     7
370
     9
100
AcDbTrace
 10
181879.532391
 20
41510.410687
 30
0.0
 11
181426.279215
 21
43153.910687
 31
0.0
 12
181544.532391
 22
41510.410687
 32
0.0
 13
181544.532391
 23
41510.410687
 33
0.0
  0
SOLID
  5
CDA3
330
CF75
100
AcDbEntity
  8
A733_ストリートファニチャ
 62
     7
370
     9
100
AcDbTrace
 10
-181426.279215
 20
43153.910687
 30
0.0
 11
-181544.532391
 21
41450.410687
 31
0.0
 12
-181544.532391
 22
41510.410687
 32
0.0
 13
-181544.532391
 23
41510.410687
 33
0.0
210
0.0
220
0.0
230
-1.0
  0
SOLID
  5
CDA4
330
CF75
100
AcDbEntity
  8
A733_ストリートファニチャ
 62
     7
370
     9
100
AcDbTrace
 10
181544.532391
 20
41450.410687
 30
0.0
 11
181426.279215
 21
43153.910687
 31
0.0
 12
181409.532391
 22
41450.410687
 32
0.0
 13
181409.532391
 23
41450.410687
 33
0.0
  0
SOLID
  5
CDA5
330
CF75
100
AcDbEntity
  8
A733_ストリートファニチャ
 62
     7
370
     9
100
AcDbTrace
 10
181426.279215
 20
43153.910687
 30
0.0
 11
181409.532391
 21
43091.410687
 31
0.0
 12
181413.791662
 22
43123.763067
 32
0.0
 13
181413.791662
 23
43123.763067
 33
0.0
  0
SOLID
  5
CDA6
330
CF75
100
AcDbEntity
  8
A733_ストリートファニチャ
 62
     7
370
     9
100
AcDbTrace
 10
181409.532391
 20
41450.410687
 30
0.0
 11
181426.279215
 21
43153.910687
 31
0.0
 12
181409.532391
 22
43091.410687
 32
0.0
 13
181409.532391
 23
43091.410687
 33
0.0
  0
POINT
  5
CDA7
330
CF75
100
AcDbEntity
  8
A733_ストリートファニチャ
 62
     7
370
     9
100
AcDbPoint
 10
188910.602278
 20
42540.700113
 30
0.0
 50
-90.0
  0
LINE
  5
CDA8
330
CF75
100
AcDbEntity
  8
A733_ストリートファニチャ
 62
     7
370
     9
100
AcDbLine
 10
181034.532391
 20
34099.410687
 30
0.0
 11
181034.532391
 21
33520.410687
 31
0.0
  0
LINE
  5
CDA9
330
CF75
100
AcDbEntity
  8
A733_ストリートファニチャ
 62
     7
370
     9
100
AcDbLine
 10
181409.532391
 20
34099.410687
 30
0.0
 11
181409.532391
 21
33520.410687
 31
0.0
  0
LINE
  5
CDAA
330
CF75
100
AcDbEntity
  8
A733_ストリートファニチャ
 62
     7
370
     9
100
AcDbLine
 10
182494.880868
 20
33520.410687
 30
0.0
 11
182344.880868
 21
33670.410687
 31
0.0
  0
LINE
  5
CDAB
330
CF75
100
AcDbEntity
  8
A733_ストリートファニチャ
 62
     7
370
     9
100
AcDbLine
 10
182282.748834
 20
33520.410687
 30
0.0
 11
182132.748834
 21
33670.410687
 31
0.0
  0
LINE
  5
CDAC
330
CF75
100
AcDbEntity
  8
A733_ストリートファニチャ
 62
     7
370
     9
100
AcDbLine
 10
182070.616799
 20
33520.410687
 30
0.0
 11
181920.616799
 21
33670.410687
 31
0.0
  0
LINE
  5
CDAD
330
CF75
100
AcDbEntity
  8
A733_ストリートファニチャ
 62
     7
370
     9
100
AcDbLine
 10
181858.484765
 20
33520.410687
 30
0.0
 11
181708.484765
 21
33670.410687
 31
0.0
  0
LINE
  5
CDAE
330
CF75
100
AcDbEntity
  8
A733_ストリートファニチャ
 62
     7
370
     9
100
AcDbLine
 10
181646.352731
 20
33520.410687
 30
0.0
 11
181496.352731
 21
33670.410687
 31
0.0
  0
LINE
  5
CDAF
330
CF75
100
AcDbEntity
  8
A733_ストリートファニチャ
 62
     7
370
     9
100
AcDbLine
 10
181434.220696
 20
33520.410687
 30
0.0
 11
181284.220696
 21
33670.410687
 31
0.0
  0
LINE
  5
CDB0
330
CF75
100
AcDbEntity
  8
A733_ストリートファニチャ
 62
     7
370
     9
100
AcDbLine
 10
181222.088662
 20
33520.410687
 30
0.0
 11
181072.088662
 21
33670.410687
 31
0.0
  0
LINE
  5
CDB1
330
CF75
100
AcDbEntity
  8
A733_ストリートファニチャ
 62
     7
370
     9
100
AcDbLine
 10
182257.532391
 20
33789.410687
 30
0.0
 11
182257.532391
 21
33520.410687
 31
0.0
  0
LINE
  5
CDB2
330
CF75
100
AcDbEntity
  8
A733_ストリートファニチャ
 62
     7
370
     9
100
AcDbLine
 10
182257.532391
 20
33520.410687
 30
0.0
 11
181409.532391
 21
34334.410687
 31
0.0
  0
LINE
  5
CDB3
330
CF75
100
AcDbEntity
  8
A733_ストリートファニチャ
 62
     7
370
     9
100
AcDbLine
 10
182257.532391
 20
34334.410687
 30
0.0
 11
181409.532391
 21
33520.410687
 31
0.0
  0
LINE
  5
CDB4
330
CF75
100
AcDbEntity
  8
A733_ストリートファニチャ
 62
     7
370
     9
100
AcDbLine
 10
182532.532391
 20
33520.410687
 30
0.0
 11
181034.532391
 21
33520.410687
 31
0.0
  0
LINE
  5
CDB5
330
CF75
100
AcDbEntity
  8
A733_ストリートファニチャ
 62
     7
370
     9
100
AcDbLine
 10
182532.532391
 20
33520.410687
 30
0.0
 11
182532.532391
 21
33244.410687
 31
0.0
  0
LINE
  5
CDB6
330
CF75
100
AcDbEntity
  8
A733_ストリートファニチャ
 62
     7
370
     9
100
AcDbLine
 10
182532.532391
 20
33495.410687
 30
0.0
 11
181034.532391
 21
33495.410687
 31
0.0
  0
LINE
  5
CDB7
330
CF75
100
AcDbEntity
  8
A733_ストリートファニチャ
 62
     7
370
     9
100
AcDbLine
 10
181034.532391
 20
33470.410687
 30
0.0
 11
182532.532391
 21
33470.410687
 31
0.0
  0
LINE
  5
CDB8
330
CF75
100
AcDbEntity
  8
A733_ストリートファニチャ
 62
     7
370
     9
100
AcDbLine
 10
182532.532391
 20
33520.410687
 30
0.0
 11
182532.532391
 21
33789.410687
 31
0.0
  0
LINE
  5
CDB9
330
CF75
100
AcDbEntity
  8
A733_ストリートファニチャ
 62
     7
370
     9
100
AcDbLine
 10
182487.532391
 20
33470.410687
 30
0.0
 11
182487.532391
 21
33199.410687
 31
0.0
  0
SOLID
  5
CDBA
330
CF75
100
AcDbEntity
  8
A733_ストリートファニチャ
 62
     7
370
     9
100
AcDbTrace
 10
182257.532391
 20
33789.410687
 30
0.0
 11
181034.532391
 21
33520.410687
 31
0.0
 12
181879.532391
 22
34334.410687
 32
0.0
 13
181879.532391
 23
34334.410687
 33
0.0
  0
SOLID
  5
CDBB
330
CF75
100
AcDbEntity
  8
A733_ストリートファニチャ
 62
     7
370
     9
100
AcDbTrace
 10
181034.532391
 20
33520.410687
 30
0.0
 11
182532.532391
 21
33520.410687
 31
0.0
 12
182257.532391
 22
33789.410687
 32
0.0
 13
182257.532391
 23
33789.410687
 33
0.0
  0
SOLID
  5
CDBC
330
CF75
100
AcDbEntity
  8
A733_ストリートファニチャ
 62
     7
370
     9
100
AcDbTrace
 10
-183289.532391
 20
33244.410687
 30
0.0
 11
-182532.532391
 21
33520.410687
 31
0.0
 12
-182532.532391
 22
33244.410687
 32
0.0
 13
-182532.532391
 23
33244.410687
 33
0.0
210
0.0
220
0.0
230
-1.0
  0
SOLID
  5
CDBD
330
CF75
100
AcDbEntity
  8
A733_ストリートファニチャ
 62
     7
370
     9
100
AcDbTrace
 10
-182257.532391
 20
33789.410687
 30
0.0
 11
-183289.532391
 21
33244.410687
 31
0.0
 12
-182532.532391
 22
33520.410687
 32
0.0
 13
-182532.532391
 23
33520.410687
 33
0.0
210
0.0
220
0.0
230
-1.0
  0
SOLID
  5
CDBE
330
CF75
100
AcDbEntity
  8
A733_ストリートファニチャ
 62
     7
370
     9
100
AcDbTrace
 10
181034.532391
 20
33520.410687
 30
0.0
 11
181409.532391
 21
34099.410687
 31
0.0
 12
181034.532391
 22
34099.410687
 32
0.0
 13
181034.532391
 23
34099.410687
 33
0.0
  0
SOLID
  5
CDBF
330
CF75
100
AcDbEntity
  8
A733_ストリートファニチャ
 62
     7
370
     9
100
AcDbTrace
 10
181879.532391
 20
34334.410687
 30
0.0
 11
181034.532391
 21
33520.410687
 31
0.0
 12
181409.532391
 22
34099.410687
 32
0.0
 13
181409.532391
 23
34099.410687
 33
0.0
  0
POINT
  5
CDC0
330
CF75
100
AcDbEntity
  8
A733_ストリートファニチャ
 62
     7
370
     9
100
AcDbPoint
 10
189166.032391
 20
37711.813657
 30
0.0
 50
-90.0
  0
POINT
  5
CDC1
330
CF75
100
AcDbEntity
  8
A733_ストリートファニチャ
 62
     7
370
     9
100
AcDbPoint
 10
188716.032391
 20
37711.813657
 30
0.0
 50
-90.0
  0
SOLID
  5
CDC2
330
CF75
100
AcDbEntity
  8
A733_ストリートファニチャ
 62
     7
370
     9
100
AcDbTrace
 10
-188912.032391
 20
33814.410687
 30
0.0
 11
-185669.532391
 21
33814.410687
 31
0.0
 12
-188912.032391
 22
33614.410687
 32
0.0
 13
-185669.532391
 23
33614.410687
 33
0.0
210
0.0
220
0.0
230
-1.0
  0
SOLID
  5
CDC3
330
CF75
100
AcDbEntity
  8
A733_ストリートファニチャ
 62
     7
370
     9
100
AcDbTrace
 10
-183749.532391
 20
33814.410687
 30
0.0
 11
-183289.532391
 21
33814.410687
 31
0.0
 12
-183749.532391
 22
33614.410687
 32
0.0
 13
-183289.532391
 23
33614.410687
 33
0.0
210
0.0
220
0.0
230
-1.0
  0
LINE
  5
CDC4
330
CF75
100
AcDbEntity
  8
A733_ストリートファニチャ
 62
     7
370
    13
100
AcDbLine
 10
185624.532391
 20
33972.410687
 30
0.0
 11
185624.532391
 21
34887.410687
 31
0.0
  0
LINE
  5
CDC5
330
CF75
100
AcDbEntity
  8
A733_ストリートファニチャ
 62
     7
370
    13
100
AcDbLine
 10
183794.532391
 20
33972.410687
 30
0.0
 11
183794.532391
 21
34887.410687
 31
0.0
  0
LINE
  5
CDC6
330
CF75
100
AcDbEntity
  8
A733_ストリートファニチャ
 62
     7
370
    13
100
AcDbLine
 10
187991.032391
 20
33959.410687
 30
0.0
 11
187991.032391
 21
33969.410687
 31
0.0
  0
LINE
  5
CDC7
330
CF75
100
AcDbEntity
  8
A733_ストリートファニチャ
 62
     7
370
    13
100
AcDbLine
 10
187091.032391
 20
33969.410687
 30
0.0
 11
187991.032391
 21
33969.410687
 31
0.0
  0
LINE
  5
CDC8
330
CF75
100
AcDbEntity
  8
A733_ストリートファニチャ
 62
     7
370
    13
100
AcDbLine
 10
187091.032391
 20
33959.410687
 30
0.0
 11
187091.032391
 21
33969.410687
 31
0.0
  0
LINE
  5
CDC9
330
CF75
100
AcDbEntity
  8
A733_ストリートファニチャ
 62
     7
370
    13
100
AcDbLine
 10
189166.032391
 20
41680.410687
 30
0.0
 11
189156.032391
 21
41680.410687
 31
0.0
  0
LINE
  5
CDCA
330
CF75
100
AcDbEntity
  8
A733_ストリートファニチャ
 62
     7
370
    13
100
AcDbLine
 10
189156.032391
 20
41680.410687
 30
0.0
 11
189156.032391
 21
41080.410687
 31
0.0
  0
LINE
  5
CDCB
330
CF75
100
AcDbEntity
  8
A733_ストリートファニチャ
 62
     7
370
    13
100
AcDbLine
 10
189083.532391
 20
42256.410687
 30
0.0
 11
189083.532391
 21
34504.410687
 31
0.0
  0
LINE
  5
CDCC
330
CF75
100
AcDbEntity
  8
A733_ストリートファニチャ
 62
     7
370
    13
100
AcDbLine
 10
189166.032391
 20
41080.410687
 30
0.0
 11
189156.032391
 21
41080.410687
 31
0.0
  0
LINE
  5
CDCD
330
CF75
100
AcDbEntity
  8
A733_ストリートファニチャ
 62
     7
370
    13
100
AcDbLine
 10
189156.032391
 20
40680.410687
 30
0.0
 11
189156.032391
 21
40080.410687
 31
0.0
  0
LINE
  5
CDCE
330
CF75
100
AcDbEntity
  8
A733_ストリートファニチャ
 62
     7
370
    13
100
AcDbLine
 10
189166.032391
 20
40680.410687
 30
0.0
 11
189156.032391
 21
40680.410687
 31
0.0
  0
LINE
  5
CDCF
330
CF75
100
AcDbEntity
  8
A733_ストリートファニチャ
 62
     7
370
    13
100
AcDbLine
 10
189166.032391
 20
40080.410687
 30
0.0
 11
189156.032391
 21
40080.410687
 31
0.0
  0
LINE
  5
CDD0
330
CF75
100
AcDbEntity
  8
A733_ストリートファニチャ
 62
     7
370
    13
100
AcDbLine
 10
189166.032391
 20
42256.410687
 30
0.0
 11
189166.032391
 21
34504.410687
 31
0.0
  0
LINE
  5
CDD1
330
CF75
100
AcDbEntity
  8
A733_ストリートファニチャ
 62
     7
370
    13
100
AcDbLine
 10
189156.032391
 20
39680.410687
 30
0.0
 11
189156.032391
 21
39080.410687
 31
0.0
  0
LINE
  5
CDD2
330
CF75
100
AcDbEntity
  8
A733_ストリートファニチャ
 62
     7
370
    13
100
AcDbLine
 10
189166.032391
 20
39080.410687
 30
0.0
 11
189156.032391
 21
39080.410687
 31
0.0
  0
LINE
  5
CDD3
330
CF75
100
AcDbEntity
  8
A733_ストリートファニチャ
 62
     7
370
    13
100
AcDbLine
 10
189156.032391
 20
38680.410687
 30
0.0
 11
189156.032391
 21
38080.410687
 31
0.0
  0
LINE
  5
CDD4
330
CF75
100
AcDbEntity
  8
A733_ストリートファニチャ
 62
     7
370
    13
100
AcDbLine
 10
189166.032391
 20
38680.410687
 30
0.0
 11
189156.032391
 21
38680.410687
 31
0.0
  0
LINE
  5
CDD5
330
CF75
100
AcDbEntity
  8
A733_ストリートファニチャ
 62
     7
370
    13
100
AcDbLine
 10
189166.032391
 20
38080.410687
 30
0.0
 11
189156.032391
 21
38080.410687
 31
0.0
  0
LINE
  5
CDD6
330
CF75
100
AcDbEntity
  8
A733_ストリートファニチャ
 62
     7
370
    13
100
AcDbLine
 10
189156.032391
 20
37680.410687
 30
0.0
 11
189156.032391
 21
37080.410687
 31
0.0
  0
LINE
  5
CDD7
330
CF75
100
AcDbEntity
  8
A733_ストリートファニチャ
 62
     7
370
    13
100
AcDbLine
 10
189166.032391
 20
37680.410687
 30
0.0
 11
189156.032391
 21
37680.410687
 31
0.0
  0
LINE
  5
CDD8
330
CF75
100
AcDbEntity
  8
A733_ストリートファニチャ
 62
     7
370
    13
100
AcDbLine
 10
189166.032391
 20
37080.410687
 30
0.0
 11
189156.032391
 21
37080.410687
 31
0.0
  0
LINE
  5
CDD9
330
CF75
100
AcDbEntity
  8
A733_ストリートファニチャ
 62
     7
370
    13
100
AcDbLine
 10
189156.032391
 20
36680.410687
 30
0.0
 11
189156.032391
 21
36080.410687
 31
0.0
  0
LINE
  5
CDDA
330
CF75
100
AcDbEntity
  8
A733_ストリートファニチャ
 62
     7
370
    13
100
AcDbLine
 10
189166.032391
 20
36680.410687
 30
0.0
 11
189156.032391
 21
36680.410687
 31
0.0
  0
LINE
  5
CDDB
330
CF75
100
AcDbEntity
  8
A733_ストリートファニチャ
 62
     7
370
    13
100
AcDbLine
 10
189166.032391
 20
36080.410687
 30
0.0
 11
189156.032391
 21
36080.410687
 31
0.0
  0
LINE
  5
CDDC
330
CF75
100
AcDbEntity
  8
A733_ストリートファニチャ
 62
     7
370
    13
100
AcDbLine
 10
189156.032391
 20
35680.410687
 30
0.0
 11
189156.032391
 21
35080.410687
 31
0.0
  0
LINE
  5
CDDD
330
CF75
100
AcDbEntity
  8
A733_ストリートファニチャ
 62
     7
370
    13
100
AcDbLine
 10
189166.032391
 20
35080.410687
 30
0.0
 11
189156.032391
 21
35080.410687
 31
0.0
  0
LINE
  5
CDDE
330
CF75
100
AcDbEntity
  8
A733_ストリートファニチャ
 62
     7
370
    13
100
AcDbLine
 10
189166.032391
 20
35680.410687
 30
0.0
 11
189156.032391
 21
35680.410687
 31
0.0
  0
LINE
  5
CDDF
330
CF75
100
AcDbEntity
  8
A733_ストリートファニチャ
 62
     7
370
    13
100
AcDbLine
 10
188716.032391
 20
42256.410687
 30
0.0
 11
188716.032391
 21
34504.410687
 31
0.0
  0
LINE
  5
CDE0
330
CF75
100
AcDbEntity
  8
A733_ストリートファニチャ
 62
     7
370
    13
100
AcDbLine
 10
188716.032391
 20
34504.410687
 30
0.0
 11
189166.032391
 21
34504.410687
 31
0.0
  0
POINT
  5
CDE1
330
CF75
100
AcDbEntity
  8
A733_ストリートファニチャ
 62
     7
370
    13
100
AcDbPoint
 10
188907.04138
 20
42256.410687
 30
0.0
 50
-90.0
  0
LINE
  5
CDE2
330
CF75
100
AcDbEntity
  8
A733_ストリートファニチャ
 62
     7
370
    13
100
AcDbLine
 10
188716.032391
 20
42256.410687
 30
0.0
 11
189166.032391
 21
42256.410687
 31
0.0
  0
SOLID
  5
CDE3
330
CF75
100
AcDbEntity
  8
A733_ストリートファニチャ
 62
     7
370
     9
100
AcDbTrace
 10
-189926.032391
 20
42691.410687
 30
0.0
 11
-189537.532391
 21
42691.410687
 31
0.0
 12
-189926.032391
 22
42647.831543
 32
0.0
 13
-189926.032391
 23
42647.831543
 33
0.0
210
0.0
220
0.0
230
-1.0
  0
SOLID
  5
CDE6
330
CF75
100
AcDbEntity
  8
A733_ストリートファニチャ
 62
     7
370
     9
100
AcDbTrace
 10
-189926.032391
 20
42647.831543
 30
0.0
 11
-189537.532391
 21
42691.410687
 31
0.0
 12
-189926.032391
 22
42645.544924
 32
0.0
 13
-189926.032391
 23
42645.544924
 33
0.0
210
0.0
220
0.0
230
-1.0
  0
SOLID
  5
CDE9
330
CF75
100
AcDbEntity
  8
A733_ストリートファニチャ
 62
     7
370
     9
100
AcDbTrace
 10
-189926.032391
 20
42645.544924
 30
0.0
 11
-189537.532391
 21
42691.410687
 31
0.0
 12
-189926.032391
 22
42577.595645
 32
0.0
 13
-189926.032391
 23
42577.595645
 33
0.0
210
0.0
220
0.0
230
-1.0
  0
SOLID
  5
CDEC
330
CF75
100
AcDbEntity
  8
A733_ストリートファニチャ
 62
     7
370
     9
100
AcDbTrace
 10
-189926.032391
 20
42577.595645
 30
0.0
 11
-189537.532391
 21
42691.410687
 31
0.0
 12
-189926.032391
 22
42356.410687
 32
0.0
 13
-188821.032391
 23
42356.410687
 33
0.0
210
0.0
220
0.0
230
-1.0
  0
SOLID
  5
CDEF
330
CF75
100
AcDbEntity
  8
A733_ストリートファニチャ
 62
     7
370
     9
100
AcDbTrace
 10
-189926.032391
 20
33686.410687
 30
0.0
 11
-189760.032391
 21
33686.410687
 31
0.0
 12
-189926.032391
 22
33486.410687
 32
0.0
 13
-189760.032391
 23
33486.410687
 33
0.0
210
0.0
220
0.0
230
-1.0
  0
LINE
  5
CDF2
330
CF75
100
AcDbEntity
  8
A221_記入文字
  6
Continuous
 62
     7
370
    13
100
AcDbLine
 10
186247.782391
 20
36516.910687
 30
0.0
 11
186247.782391
 21
38316.910687
 31
0.0
  0
LINE
  5
CDF3
330
CF75
100
AcDbEntity
  8
A221_記入文字
  6
Continuous
 62
     7
370
    13
100
AcDbLine
 10
186697.782391
 20
36516.910687
 30
0.0
 11
186697.782391
 21
38316.910687
 31
0.0
  0
LINE
  5
CDF4
330
CF75
100
AcDbEntity
  8
A221_記入文字
  6
Continuous
 62
     7
370
    13
100
AcDbLine
 10
184447.782391
 20
36516.910687
 30
0.0
 11
184447.782391
 21
38316.910687
 31
0.0
  0
LINE
  5
CDF5
330
CF75
100
AcDbEntity
  8
A221_記入文字
  6
Continuous
 62
     7
370
    13
100
AcDbLine
 10
183997.782391
 20
36516.910687
 30
0.0
 11
183997.782391
 21
38316.910687
 31
0.0
  0
LINE
  5
CDF6
330
CF75
100
AcDbEntity
  8
A221_記入文字
  6
Continuous
 62
     7
370
    13
100
AcDbLine
 10
187147.782391
 20
36516.910687
 30
0.0
 11
187147.782391
 21
38316.910687
 31
0.0
  0
LINE
  5
CDF7
330
CF75
100
AcDbEntity
  8
A221_記入文字
  6
Continuous
 62
     7
370
    13
100
AcDbLine
 10
183547.782391
 20
36516.910687
 30
0.0
 11
183547.782391
 21
38316.910687
 31
0.0
  0
LINE
  5
CDF8
330
CF75
100
AcDbEntity
  8
A221_記入文字
  6
Continuous
 62
     7
370
    13
100
AcDbLine
 10
187147.782391
 20
39216.910687
 30
0.0
 11
187147.782391
 21
41016.910687
 31
0.0
  0
LINE
  5
CDF9
330
CF75
100
AcDbEntity
  8
A221_記入文字
  6
Continuous
 62
     7
370
    13
100
AcDbLine
 10
186697.782391
 20
39216.910687
 30
0.0
 11
186697.782391
 21
41016.910687
 31
0.0
  0
LINE
  5
CDFA
330
CF75
100
AcDbEntity
  8
A221_記入文字
  6
Continuous
 62
     7
370
    13
100
AcDbLine
 10
186247.782391
 20
39216.910687
 30
0.0
 11
186247.782391
 21
41016.910687
 31
0.0
  0
LINE
  5
CDFB
330
CF75
100
AcDbEntity
  8
A221_記入文字
  6
Continuous
 62
     7
370
    13
100
AcDbLine
 10
184447.782391
 20
39216.910687
 30
0.0
 11
184447.782391
 21
41016.910687
 31
0.0
  0
LINE
  5
CDFC
330
CF75
100
AcDbEntity
  8
A221_記入文字
  6
Continuous
 62
     7
370
    13
100
AcDbLine
 10
183997.782391
 20
39216.910687
 30
0.0
 11
183997.782391
 21
41016.910687
 31
0.0
  0
LINE
  5
CDFD
330
CF75
100
AcDbEntity
  8
A221_記入文字
  6
Continuous
 62
     7
370
    13
100
AcDbLine
 10
183547.782391
 20
39216.910687
 30
0.0
 11
183547.782391
 21
41016.910687
 31
0.0
  0
LINE
  5
CDFE
330
CF75
100
AcDbEntity
  8
A221_記入文字
  6
Continuous
 62
     7
370
    13
100
AcDbLine
 10
183547.782391
 20
39216.910687
 30
0.0
 11
184447.782391
 21
39216.910687
 31
0.0
  0
LINE
  5
CDFF
330
CF75
100
AcDbEntity
  8
A221_記入文字
  6
Continuous
 62
     7
370
    13
100
AcDbLine
 10
183547.782391
 20
41016.910687
 30
0.0
 11
184447.782391
 21
41016.910687
 31
0.0
  0
LINE
  5
CE00
330
CF75
100
AcDbEntity
  8
A221_記入文字
  6
Continuous
 62
     7
370
    13
100
AcDbLine
 10
186247.782391
 20
41016.910687
 30
0.0
 11
187147.782391
 21
41016.910687
 31
0.0
  0
LINE
  5
CE01
330
CF75
100
AcDbEntity
  8
A221_記入文字
  6
Continuous
 62
     7
370
    13
100
AcDbLine
 10
186247.782391
 20
39216.910687
 30
0.0
 11
187147.782391
 21
39216.910687
 31
0.0
  0
LINE
  5
CE02
330
CF75
100
AcDbEntity
  8
A221_記入文字
  6
Continuous
 62
     7
370
    13
100
AcDbLine
 10
183547.782391
 20
38316.910687
 30
0.0
 11
184447.782391
 21
38316.910687
 31
0.0
  0
LINE
  5
CE03
330
CF75
100
AcDbEntity
  8
A221_記入文字
  6
Continuous
 62
     7
370
    13
100
AcDbLine
 10
186247.782391
 20
38316.910687
 30
0.0
 11
187147.782391
 21
38316.910687
 31
0.0
  0
LINE
  5
CE04
330
CF75
100
AcDbEntity
  8
A221_記入文字
  6
Continuous
 62
     7
370
    13
100
AcDbLine
 10
186247.782391
 20
36516.910687
 30
0.0
 11
187147.782391
 21
36516.910687
 31
0.0
  0
LINE
  5
CE05
330
CF75
100
AcDbEntity
  8
A221_記入文字
  6
Continuous
 62
     7
370
    13
100
AcDbLine
 10
183547.782391
 20
36516.910687
 30
0.0
 11
184447.782391
 21
36516.910687
 31
0.0
  0
LINE
  5
CE06
330
CF75
100
AcDbEntity
  8
A822_別途：家具
  6
Continuous
 62
     7
370
     9
100
AcDbLine
 10
187427.782391
 20
37276.910687
 30
0.0
 11
187427.782391
 21
37556.910687
 31
0.0
  0
LINE
  5
CE07
330
CF75
100
AcDbEntity
  8
A822_別途：家具
  6
Continuous
 62
     7
370
    13
100
AcDbLine
 10
187427.782391
 20
37566.910687
 30
0.0
 11
187147.782391
 21
37566.910687
 31
0.0
  0
LINE
  5
CE08
330
CF75
100
AcDbEntity
  8
A822_別途：家具
  6
Continuous
 62
     7
370
    13
100
AcDbLine
 10
187427.782391
 20
37266.910687
 30
0.0
 11
187147.782391
 21
37266.910687
 31
0.0
  0
ELLIPSE
  5
CE09
330
CF75
100
AcDbEntity
  8
A822_別途：家具
  6
Continuous
 62
     7
370
    13
100
AcDbEllipse
 10
187427.782391
 20
37416.910687
 30
0.0
 11
0.0
 21
150.0000000000116
 31
0.0
210
0.0
220
0.0
230
-1.0
 40
0.3333333333333075
 41
0.0
 42
3.141592653589793
  0
LINE
  5
CE0A
330
CF75
100
AcDbEntity
  8
A822_別途：家具
  6
Continuous
 62
     7
370
     9
100
AcDbLine
 10
187427.782391
 20
37276.910687
 30
0.0
 11
187147.782391
 21
37276.910687
 31
0.0
  0
LINE
  5
CE0B
330
CF75
100
AcDbEntity
  8
A822_別途：家具
  6
Continuous
 62
     7
370
     9
100
AcDbLine
 10
187427.782391
 20
37556.910687
 30
0.0
 11
187147.782391
 21
37556.910687
 31
0.0
  0
SPLINE
  5
CE0C
330
CF75
100
AcDbEntity
  8
A822_別途：家具
  6
Continuous
 62
     7
370
     9
100
AcDbSpline
210
0.0
220
0.0
230
1.0
 70
     8
 71
     3
 72
    18
 73
    14
 74
     0
 42
0.0000000001
 43
0.0000000001
 40
0.0
 40
0.0
 40
0.0
 40
0.0
 40
0.125
 40
0.125
 40
0.25
 40
0.25
 40
0.5
 40
0.5
 40
0.75
 40
0.75
 40
0.875
 40
0.875
 40
1.0
 40
1.0
 40
1.0
 40
1.0
 10
187427.7823907606
 20
37556.91068678186
 30
0.0
 10
187430.621962522
 20
37556.91068678184
 30
0.0
 10
187434.4943832018
 20
37555.13263618346
 30
0.0
 10
187444.2667759115
 20
37542.72363939537
 30
0.0
 10
187449.3597491845
 20
37532.64627352469
 30
0.0
 10
187462.2123942794
 20
37494.08833824026
 30
0.0
 10
187467.7823907606
 20
37457.40223122332
 30
0.0
 10
187467.7823907606
 20
37376.41914234048
 30
0.0
 10
187462.2123942794
 20
37339.73303532347
 30
0.0
 10
187449.3597491845
 20
37301.17510003904
 30
0.0
 10
187444.2667759115
 20
37291.09773416829
 30
0.0
 10
187434.4943832018
 20
37278.68873738032
 30
0.0
 10
187430.621962522
 20
37276.91068678192
 30
0.0
 10
187427.7823907606
 20
37276.91068678189
 30
0.0
  0
LINE
  5
CE0F
330
CF75
100
AcDbEntity
  8
A822_別途：家具
  6
Continuous
 62
     7
370
     9
100
AcDbLine
 10
187427.782391
 20
36751.910687
 30
0.0
 11
187427.782391
 21
37031.910687
 31
0.0
  0
LINE
  5
CE10
330
CF75
100
AcDbEntity
  8
A822_別途：家具
  6
Continuous
 62
     7
370
    13
100
AcDbLine
 10
187427.782391
 20
37041.910687
 30
0.0
 11
187147.782391
 21
37041.910687
 31
0.0
  0
LINE
  5
CE11
330
CF75
100
AcDbEntity
  8
A822_別途：家具
  6
Continuous
 62
     7
370
    13
100
AcDbLine
 10
187427.782391
 20
36741.910687
 30
0.0
 11
187147.782391
 21
36741.910687
 31
0.0
  0
ELLIPSE
  5
CE12
330
CF75
100
AcDbEntity
  8
A822_別途：家具
  6
Continuous
 62
     7
370
    13
100
AcDbEllipse
 10
187427.782391
 20
36891.910687
 30
0.0
 11
0.0
 21
150.0000000000116
 31
0.0
210
0.0
220
0.0
230
-1.0
 40
0.3333333333333075
 41
0.0
 42
3.141592653589793
  0
LINE
  5
CE13
330
CF75
100
AcDbEntity
  8
A822_別途：家具
  6
Continuous
 62
     7
370
     9
100
AcDbLine
 10
187427.782391
 20
36751.910687
 30
0.0
 11
187147.782391
 21
36751.910687
 31
0.0
  0
LINE
  5
CE14
330
CF75
100
AcDbEntity
  8
A822_別途：家具
  6
Continuous
 62
     7
370
     9
100
AcDbLine
 10
187427.782391
 20
37031.910687
 30
0.0
 11
187147.782391
 21
37031.910687
 31
0.0
  0
SPLINE
  5
CE15
330
CF75
100
AcDbEntity
  8
A822_別途：家具
  6
Continuous
 62
     7
370
     9
100
AcDbSpline
210
0.0
220
0.0
230
1.0
 70
     8
 71
     3
 72
    18
 73
    14
 74
     0
 42
0.0000000001
 43
0.0000000001
 40
0.0
 40
0.0
 40
0.0
 40
0.0
 40
0.125
 40
0.125
 40
0.25
 40
0.25
 40
0.5
 40
0.5
 40
0.75
 40
0.75
 40
0.875
 40
0.875
 40
1.0
 40
1.0
 40
1.0
 40
1.0
 10
187427.7823907606
 20
37031.91068678189
 30
0.0
 10
187430.621962522
 20
37031.91068678187
 30
0.0
 10
187434.4943832018
 20
37030.13263618348
 30
0.0
 10
187444.2667759115
 20
37017.72363939539
 30
0.0
 10
187449.3597491845
 20
37007.64627352471
 30
0.0
 10
187462.2123942794
 20
36969.08833824029
 30
0.0
 10
187467.7823907606
 20
36932.40223122335
 30
0.0
 10
187467.7823907606
 20
36851.4191423405
 30
0.0
 10
187462.2123942794
 20
36814.73303532349
 30
0.0
 10
187449.3597491845
 20
36776.17510003907
 30
0.0
 10
187444.2667759115
 20
36766.09773416831
 30
0.0
 10
187434.4943832018
 20
36753.68873738034
 30
0.0
 10
187430.621962522
 20
36751.91068678194
 30
0.0
 10
187427.7823907606
 20
36751.91068678191
 30
0.0
  0
LINE
  5
CE18
330
CF75
100
AcDbEntity
  8
A822_別途：家具
  6
Continuous
 62
     7
370
     9
100
AcDbLine
 10
187427.782391
 20
37801.910687
 30
0.0
 11
187427.782391
 21
38081.910687
 31
0.0
  0
LINE
  5
CE19
330
CF75
100
AcDbEntity
  8
A822_別途：家具
  6
Continuous
 62
     7
370
    13
100
AcDbLine
 10
187427.782391
 20
38091.910687
 30
0.0
 11
187147.782391
 21
38091.910687
 31
0.0
  0
LINE
  5
CE1A
330
CF75
100
AcDbEntity
  8
A822_別途：家具
  6
Continuous
 62
     7
370
    13
100
AcDbLine
 10
187427.782391
 20
37791.910687
 30
0.0
 11
187147.782391
 21
37791.910687
 31
0.0
  0
ELLIPSE
  5
CE1B
330
CF75
100
AcDbEntity
  8
A822_別途：家具
  6
Continuous
 62
     7
370
    13
100
AcDbEllipse
 10
187427.782391
 20
37941.910687
 30
0.0
 11
0.0
 21
150.0000000000116
 31
0.0
210
0.0
220
0.0
230
-1.0
 40
0.3333333333333075
 41
0.0
 42
3.141592653589793
  0
LINE
  5
CE1C
330
CF75
100
AcDbEntity
  8
A822_別途：家具
  6
Continuous
 62
     7
370
     9
100
AcDbLine
 10
187427.782391
 20
37801.910687
 30
0.0
 11
187147.782391
 21
37801.910687
 31
0.0
  0
LINE
  5
CE1D
330
CF75
100
AcDbEntity
  8
A822_別途：家具
  6
Continuous
 62
     7
370
     9
100
AcDbLine
 10
187427.782391
 20
38081.910687
 30
0.0
 11
187147.782391
 21
38081.910687
 31
0.0
  0
SPLINE
  5
CE1E
330
CF75
100
AcDbEntity
  8
A822_別途：家具
  6
Continuous
 62
     7
370
     9
100
AcDbSpline
210
0.0
220
0.0
230
1.0
 70
     8
 71
     3
 72
    18
 73
    14
 74
     0
 42
0.0000000001
 43
0.0000000001
 40
0.0
 40
0.0
 40
0.0
 40
0.0
 40
0.125
 40
0.125
 40
0.25
 40
0.25
 40
0.5
 40
0.5
 40
0.75
 40
0.75
 40
0.875
 40
0.875
 40
1.0
 40
1.0
 40
1.0
 40
1.0
 10
187427.7823907606
 20
38081.91068678189
 30
0.0
 10
187430.621962522
 20
38081.91068678187
 30
0.0
 10
187434.4943832018
 20
38080.13263618348
 30
0.0
 10
187444.2667759115
 20
38067.72363939539
 30
0.0
 10
187449.3597491845
 20
38057.64627352471
 30
0.0
 10
187462.2123942794
 20
38019.08833824029
 30
0.0
 10
187467.7823907606
 20
37982.40223122335
 30
0.0
 10
187467.7823907606
 20
37901.4191423405
 30
0.0
 10
187462.2123942794
 20
37864.73303532349
 30
0.0
 10
187449.3597491845
 20
37826.17510003907
 30
0.0
 10
187444.2667759115
 20
37816.09773416831
 30
0.0
 10
187434.4943832018
 20
37803.68873738034
 30
0.0
 10
187430.621962522
 20
37801.91068678194
 30
0.0
 10
187427.7823907606
 20
37801.91068678191
 30
0.0
  0
LINE
  5
CE21
330
CF75
100
AcDbEntity
  8
A822_別途：家具
  6
Continuous
 62
     7
370
     9
100
AcDbLine
 10
185967.782391
 20
37276.910687
 30
0.0
 11
185967.782391
 21
37556.910687
 31
0.0
  0
LINE
  5
CE22
330
CF75
100
AcDbEntity
  8
A822_別途：家具
  6
Continuous
 62
     7
370
    13
100
AcDbLine
 10
185967.782391
 20
37566.910687
 30
0.0
 11
186247.782391
 21
37566.910687
 31
0.0
  0
LINE
  5
CE23
330
CF75
100
AcDbEntity
  8
A822_別途：家具
  6
Continuous
 62
     7
370
    13
100
AcDbLine
 10
185967.782391
 20
37266.910687
 30
0.0
 11
186247.782391
 21
37266.910687
 31
0.0
  0
ELLIPSE
  5
CE24
330
CF75
100
AcDbEntity
  8
A822_別途：家具
  6
Continuous
 62
     7
370
    13
100
AcDbEllipse
 10
185967.782391
 20
37416.910687
 30
0.0
 11
0.0
 21
150.0000000000116
 31
0.0
210
0.0
220
0.0
230
1.0
 40
0.3333333333333075
 41
0.0
 42
3.141592653589793
  0
LINE
  5
CE25
330
CF75
100
AcDbEntity
  8
A822_別途：家具
  6
Continuous
 62
     7
370
     9
100
AcDbLine
 10
185967.782391
 20
37276.910687
 30
0.0
 11
186247.782391
 21
37276.910687
 31
0.0
  0
LINE
  5
CE26
330
CF75
100
AcDbEntity
  8
A822_別途：家具
  6
Continuous
 62
     7
370
     9
100
AcDbLine
 10
185967.782391
 20
37556.910687
 30
0.0
 11
186247.782391
 21
37556.910687
 31
0.0
  0
SPLINE
  5
CE27
330
CF75
100
AcDbEntity
  8
A822_別途：家具
  6
Continuous
 62
     7
370
     9
100
AcDbSpline
210
0.0
220
0.0
230
1.0
 70
     8
 71
     3
 72
    18
 73
    14
 74
     0
 42
0.0000000001
 43
0.0000000001
 40
0.0
 40
0.0
 40
0.0
 40
0.0
 40
0.125
 40
0.125
 40
0.25
 40
0.25
 40
0.5
 40
0.5
 40
0.75
 40
0.75
 40
0.875
 40
0.875
 40
1.0
 40
1.0
 40
1.0
 40
1.0
 10
185967.7823907606
 20
37556.91068678186
 30
0.0
 10
185964.9428189993
 20
37556.91068678184
 30
0.0
 10
185961.0703983194
 20
37555.13263618346
 30
0.0
 10
185951.2980056098
 20
37542.72363939537
 30
0.0
 10
185946.2050323367
 20
37532.64627352469
 30
0.0
 10
185933.3523872418
 20
37494.08833824026
 30
0.0
 10
185927.7823907606
 20
37457.40223122332
 30
0.0
 10
185927.7823907606
 20
37376.41914234048
 30
0.0
 10
185933.3523872418
 20
37339.73303532347
 30
0.0
 10
185946.2050323367
 20
37301.17510003904
 30
0.0
 10
185951.2980056098
 20
37291.09773416829
 30
0.0
 10
185961.0703983194
 20
37278.68873738032
 30
0.0
 10
185964.9428189993
 20
37276.91068678192
 30
0.0
 10
185967.7823907606
 20
37276.91068678189
 30
0.0
  0
LINE
  5
CE2A
330
CF75
100
AcDbEntity
  8
A822_別途：家具
  6
Continuous
 62
     7
370
     9
100
AcDbLine
 10
185967.782391
 20
36751.910687
 30
0.0
 11
185967.782391
 21
37031.910687
 31
0.0
  0
LINE
  5
CE2B
330
CF75
100
AcDbEntity
  8
A822_別途：家具
  6
Continuous
 62
     7
370
    13
100
AcDbLine
 10
185967.782391
 20
37041.910687
 30
0.0
 11
186247.782391
 21
37041.910687
 31
0.0
  0
LINE
  5
CE2C
330
CF75
100
AcDbEntity
  8
A822_別途：家具
  6
Continuous
 62
     7
370
    13
100
AcDbLine
 10
185967.782391
 20
36741.910687
 30
0.0
 11
186247.782391
 21
36741.910687
 31
0.0
  0
ELLIPSE
  5
CE2D
330
CF75
100
AcDbEntity
  8
A822_別途：家具
  6
Continuous
 62
     7
370
    13
100
AcDbEllipse
 10
185967.782391
 20
36891.910687
 30
0.0
 11
0.0
 21
150.0000000000116
 31
0.0
210
0.0
220
0.0
230
1.0
 40
0.3333333333333075
 41
0.0
 42
3.141592653589793
  0
LINE
  5
CE2E
330
CF75
100
AcDbEntity
  8
A822_別途：家具
  6
Continuous
 62
     7
370
     9
100
AcDbLine
 10
185967.782391
 20
36751.910687
 30
0.0
 11
186247.782391
 21
36751.910687
 31
0.0
  0
LINE
  5
CE2F
330
CF75
100
AcDbEntity
  8
A822_別途：家具
  6
Continuous
 62
     7
370
     9
100
AcDbLine
 10
185967.782391
 20
37031.910687
 30
0.0
 11
186247.782391
 21
37031.910687
 31
0.0
  0
SPLINE
  5
CE30
330
CF75
100
AcDbEntity
  8
A822_別途：家具
  6
Continuous
 62
     7
370
     9
100
AcDbSpline
210
0.0
220
0.0
230
1.0
 70
     8
 71
     3
 72
    18
 73
    14
 74
     0
 42
0.0000000001
 43
0.0000000001
 40
0.0
 40
0.0
 40
0.0
 40
0.0
 40
0.125
 40
0.125
 40
0.25
 40
0.25
 40
0.5
 40
0.5
 40
0.75
 40
0.75
 40
0.875
 40
0.875
 40
1.0
 40
1.0
 40
1.0
 40
1.0
 10
185967.7823907606
 20
37031.91068678189
 30
0.0
 10
185964.9428189993
 20
37031.91068678187
 30
0.0
 10
185961.0703983194
 20
37030.13263618348
 30
0.0
 10
185951.2980056098
 20
37017.72363939539
 30
0.0
 10
185946.2050323367
 20
37007.64627352471
 30
0.0
 10
185933.3523872418
 20
36969.08833824029
 30
0.0
 10
185927.7823907606
 20
36932.40223122335
 30
0.0
 10
185927.7823907606
 20
36851.4191423405
 30
0.0
 10
185933.3523872418
 20
36814.73303532349
 30
0.0
 10
185946.2050323367
 20
36776.17510003907
 30
0.0
 10
185951.2980056098
 20
36766.09773416831
 30
0.0
 10
185961.0703983194
 20
36753.68873738034
 30
0.0
 10
185964.9428189993
 20
36751.91068678194
 30
0.0
 10
185967.7823907606
 20
36751.91068678191
 30
0.0
  0
LINE
  5
CE33
330
CF75
100
AcDbEntity
  8
A822_別途：家具
  6
Continuous
 62
     7
370
     9
100
AcDbLine
 10
185967.782391
 20
37801.910687
 30
0.0
 11
185967.782391
 21
38081.910687
 31
0.0
  0
LINE
  5
CE34
330
CF75
100
AcDbEntity
  8
A822_別途：家具
  6
Continuous
 62
     7
370
    13
100
AcDbLine
 10
185967.782391
 20
38091.910687
 30
0.0
 11
186247.782391
 21
38091.910687
 31
0.0
  0
LINE
  5
CE35
330
CF75
100
AcDbEntity
  8
A822_別途：家具
  6
Continuous
 62
     7
370
    13
100
AcDbLine
 10
185967.782391
 20
37791.910687
 30
0.0
 11
186247.782391
 21
37791.910687
 31
0.0
  0
ELLIPSE
  5
CE36
330
CF75
100
AcDbEntity
  8
A822_別途：家具
  6
Continuous
 62
     7
370
    13
100
AcDbEllipse
 10
185967.782391
 20
37941.910687
 30
0.0
 11
0.0
 21
150.0000000000116
 31
0.0
210
0.0
220
0.0
230
1.0
 40
0.3333333333333075
 41
0.0
 42
3.141592653589793
  0
LINE
  5
CE37
330
CF75
100
AcDbEntity
  8
A822_別途：家具
  6
Continuous
 62
     7
370
     9
100
AcDbLine
 10
185967.782391
 20
37801.910687
 30
0.0
 11
186247.782391
 21
37801.910687
 31
0.0
  0
LINE
  5
CE38
330
CF75
100
AcDbEntity
  8
A822_別途：家具
  6
Continuous
 62
     7
370
     9
100
AcDbLine
 10
185967.782391
 20
38081.910687
 30
0.0
 11
186247.782391
 21
38081.910687
 31
0.0
  0
SPLINE
  5
CE39
330
CF75
100
AcDbEntity
  8
A822_別途：家具
  6
Continuous
 62
     7
370
     9
100
AcDbSpline
210
0.0
220
0.0
230
1.0
 70
     8
 71
     3
 72
    18
 73
    14
 74
     0
 42
0.0000000001
 43
0.0000000001
 40
0.0
 40
0.0
 40
0.0
 40
0.0
 40
0.125
 40
0.125
 40
0.25
 40
0.25
 40
0.5
 40
0.5
 40
0.75
 40
0.75
 40
0.875
 40
0.875
 40
1.0
 40
1.0
 40
1.0
 40
1.0
 10
185967.7823907606
 20
38081.91068678189
 30
0.0
 10
185964.9428189993
 20
38081.91068678187
 30
0.0
 10
185961.0703983194
 20
38080.13263618348
 30
0.0
 10
185951.2980056098
 20
38067.72363939539
 30
0.0
 10
185946.2050323367
 20
38057.64627352471
 30
0.0
 10
185933.3523872418
 20
38019.08833824029
 30
0.0
 10
185927.7823907606
 20
37982.40223122335
 30
0.0
 10
185927.7823907606
 20
37901.4191423405
 30
0.0
 10
185933.3523872418
 20
37864.73303532349
 30
0.0
 10
185946.2050323367
 20
37826.17510003907
 30
0.0
 10
185951.2980056098
 20
37816.09773416831
 30
0.0
 10
185961.0703983194
 20
37803.68873738034
 30
0.0
 10
185964.9428189993
 20
37801.91068678194
 30
0.0
 10
185967.7823907606
 20
37801.91068678191
 30
0.0
  0
LINE
  5
CE3C
330
CF75
100
AcDbEntity
  8
A822_別途：家具
  6
Continuous
 62
     7
370
     9
100
AcDbLine
 10
184727.782391
 20
37276.910687
 30
0.0
 11
184727.782391
 21
37556.910687
 31
0.0
  0
LINE
  5
CE3D
330
CF75
100
AcDbEntity
  8
A822_別途：家具
  6
Continuous
 62
     7
370
    13
100
AcDbLine
 10
184727.782391
 20
37566.910687
 30
0.0
 11
184447.782391
 21
37566.910687
 31
0.0
  0
LINE
  5
CE3E
330
CF75
100
AcDbEntity
  8
A822_別途：家具
  6
Continuous
 62
     7
370
    13
100
AcDbLine
 10
184727.782391
 20
37266.910687
 30
0.0
 11
184447.782391
 21
37266.910687
 31
0.0
  0
ELLIPSE
  5
CE3F
330
CF75
100
AcDbEntity
  8
A822_別途：家具
  6
Continuous
 62
     7
370
    13
100
AcDbEllipse
 10
184727.782391
 20
37416.910687
 30
0.0
 11
0.0
 21
150.0000000000116
 31
0.0
210
0.0
220
0.0
230
-1.0
 40
0.3333333333333075
 41
0.0
 42
3.141592653589793
  0
LINE
  5
CE40
330
CF75
100
AcDbEntity
  8
A822_別途：家具
  6
Continuous
 62
     7
370
     9
100
AcDbLine
 10
184727.782391
 20
37276.910687
 30
0.0
 11
184447.782391
 21
37276.910687
 31
0.0
  0
LINE
  5
CE41
330
CF75
100
AcDbEntity
  8
A822_別途：家具
  6
Continuous
 62
     7
370
     9
100
AcDbLine
 10
184727.782391
 20
37556.910687
 30
0.0
 11
184447.782391
 21
37556.910687
 31
0.0
  0
SPLINE
  5
CE42
330
CF75
100
AcDbEntity
  8
A822_別途：家具
  6
Continuous
 62
     7
370
     9
100
AcDbSpline
210
0.0
220
0.0
230
1.0
 70
     8
 71
     3
 72
    18
 73
    14
 74
     0
 42
0.0000000001
 43
0.0000000001
 40
0.0
 40
0.0
 40
0.0
 40
0.0
 40
0.125
 40
0.125
 40
0.25
 40
0.25
 40
0.5
 40
0.5
 40
0.75
 40
0.75
 40
0.875
 40
0.875
 40
1.0
 40
1.0
 40
1.0
 40
1.0
 10
184727.7823907606
 20
37556.91068678186
 30
0.0
 10
184730.621962522
 20
37556.91068678184
 30
0.0
 10
184734.4943832018
 20
37555.13263618346
 30
0.0
 10
184744.2667759115
 20
37542.72363939537
 30
0.0
 10
184749.3597491846
 20
37532.64627352469
 30
0.0
 10
184762.2123942794
 20
37494.08833824026
 30
0.0
 10
184767.7823907606
 20
37457.40223122332
 30
0.0
 10
184767.7823907606
 20
37376.41914234048
 30
0.0
 10
184762.2123942794
 20
37339.73303532347
 30
0.0
 10
184749.3597491846
 20
37301.17510003904
 30
0.0
 10
184744.2667759115
 20
37291.09773416829
 30
0.0
 10
184734.4943832018
 20
37278.68873738032
 30
0.0
 10
184730.621962522
 20
37276.91068678192
 30
0.0
 10
184727.7823907606
 20
37276.91068678189
 30
0.0
  0
LINE
  5
CE45
330
CF75
100
AcDbEntity
  8
A822_別途：家具
  6
Continuous
 62
     7
370
     9
100
AcDbLine
 10
184727.782391
 20
36751.910687
 30
0.0
 11
184727.782391
 21
37031.910687
 31
0.0
  0
LINE
  5
CE46
330
CF75
100
AcDbEntity
  8
A822_別途：家具
  6
Continuous
 62
     7
370
    13
100
AcDbLine
 10
184727.782391
 20
37041.910687
 30
0.0
 11
184447.782391
 21
37041.910687
 31
0.0
  0
LINE
  5
CE47
330
CF75
100
AcDbEntity
  8
A822_別途：家具
  6
Continuous
 62
     7
370
    13
100
AcDbLine
 10
184727.782391
 20
36741.910687
 30
0.0
 11
184447.782391
 21
36741.910687
 31
0.0
  0
ELLIPSE
  5
CE48
330
CF75
100
AcDbEntity
  8
A822_別途：家具
  6
Continuous
 62
     7
370
    13
100
AcDbEllipse
 10
184727.782391
 20
36891.910687
 30
0.0
 11
0.0
 21
150.0000000000116
 31
0.0
210
0.0
220
0.0
230
-1.0
 40
0.3333333333333075
 41
0.0
 42
3.141592653589793
  0
LINE
  5
CE49
330
CF75
100
AcDbEntity
  8
A822_別途：家具
  6
Continuous
 62
     7
370
     9
100
AcDbLine
 10
184727.782391
 20
36751.910687
 30
0.0
 11
184447.782391
 21
36751.910687
 31
0.0
  0
LINE
  5
CE4A
330
CF75
100
AcDbEntity
  8
A822_別途：家具
  6
Continuous
 62
     7
370
     9
100
AcDbLine
 10
184727.782391
 20
37031.910687
 30
0.0
 11
184447.782391
 21
37031.910687
 31
0.0
  0
SPLINE
  5
CE4B
330
CF75
100
AcDbEntity
  8
A822_別途：家具
  6
Continuous
 62
     7
370
     9
100
AcDbSpline
210
0.0
220
0.0
230
1.0
 70
     8
 71
     3
 72
    18
 73
    14
 74
     0
 42
0.0000000001
 43
0.0000000001
 40
0.0
 40
0.0
 40
0.0
 40
0.0
 40
0.125
 40
0.125
 40
0.25
 40
0.25
 40
0.5
 40
0.5
 40
0.75
 40
0.75
 40
0.875
 40
0.875
 40
1.0
 40
1.0
 40
1.0
 40
1.0
 10
184727.7823907606
 20
37031.91068678189
 30
0.0
 10
184730.621962522
 20
37031.91068678187
 30
0.0
 10
184734.4943832018
 20
37030.13263618348
 30
0.0
 10
184744.2667759115
 20
37017.72363939539
 30
0.0
 10
184749.3597491846
 20
37007.64627352471
 30
0.0
 10
184762.2123942794
 20
36969.08833824029
 30
0.0
 10
184767.7823907606
 20
36932.40223122335
 30
0.0
 10
184767.7823907606
 20
36851.4191423405
 30
0.0
 10
184762.2123942794
 20
36814.73303532349
 30
0.0
 10
184749.3597491846
 20
36776.17510003907
 30
0.0
 10
184744.2667759115
 20
36766.09773416831
 30
0.0
 10
184734.4943832018
 20
36753.68873738034
 30
0.0
 10
184730.621962522
 20
36751.91068678194
 30
0.0
 10
184727.7823907606
 20
36751.91068678191
 30
0.0
  0
LINE
  5
CE4E
330
CF75
100
AcDbEntity
  8
A822_別途：家具
  6
Continuous
 62
     7
370
     9
100
AcDbLine
 10
184727.782391
 20
37801.910687
 30
0.0
 11
184727.782391
 21
38081.910687
 31
0.0
  0
LINE
  5
CE4F
330
CF75
100
AcDbEntity
  8
A822_別途：家具
  6
Continuous
 62
     7
370
    13
100
AcDbLine
 10
184727.782391
 20
38091.910687
 30
0.0
 11
184447.782391
 21
38091.910687
 31
0.0
  0
LINE
  5
CE50
330
CF75
100
AcDbEntity
  8
A822_別途：家具
  6
Continuous
 62
     7
370
    13
100
AcDbLine
 10
184727.782391
 20
37791.910687
 30
0.0
 11
184447.782391
 21
37791.910687
 31
0.0
  0
ELLIPSE
  5
CE51
330
CF75
100
AcDbEntity
  8
A822_別途：家具
  6
Continuous
 62
     7
370
    13
100
AcDbEllipse
 10
184727.782391
 20
37941.910687
 30
0.0
 11
0.0
 21
150.0000000000116
 31
0.0
210
0.0
220
0.0
230
-1.0
 40
0.3333333333333075
 41
0.0
 42
3.141592653589793
  0
LINE
  5
CE52
330
CF75
100
AcDbEntity
  8
A822_別途：家具
  6
Continuous
 62
     7
370
     9
100
AcDbLine
 10
184727.782391
 20
37801.910687
 30
0.0
 11
184447.782391
 21
37801.910687
 31
0.0
  0
LINE
  5
CE53
330
CF75
100
AcDbEntity
  8
A822_別途：家具
  6
Continuous
 62
     7
370
     9
100
AcDbLine
 10
184727.782391
 20
38081.910687
 30
0.0
 11
184447.782391
 21
38081.910687
 31
0.0
  0
SPLINE
  5
CE54
330
CF75
100
AcDbEntity
  8
A822_別途：家具
  6
Continuous
 62
     7
370
     9
100
AcDbSpline
210
0.0
220
0.0
230
1.0
 70
     8
 71
     3
 72
    18
 73
    14
 74
     0
 42
0.0000000001
 43
0.0000000001
 40
0.0
 40
0.0
 40
0.0
 40
0.0
 40
0.125
 40
0.125
 40
0.25
 40
0.25
 40
0.5
 40
0.5
 40
0.75
 40
0.75
 40
0.875
 40
0.875
 40
1.0
 40
1.0
 40
1.0
 40
1.0
 10
184727.7823907606
 20
38081.91068678189
 30
0.0
 10
184730.621962522
 20
38081.91068678187
 30
0.0
 10
184734.4943832018
 20
38080.13263618348
 30
0.0
 10
184744.2667759115
 20
38067.72363939539
 30
0.0
 10
184749.3597491846
 20
38057.64627352471
 30
0.0
 10
184762.2123942794
 20
38019.08833824029
 30
0.0
 10
184767.7823907606
 20
37982.40223122335
 30
0.0
 10
184767.7823907606
 20
37901.4191423405
 30
0.0
 10
184762.2123942794
 20
37864.73303532349
 30
0.0
 10
184749.3597491846
 20
37826.17510003907
 30
0.0
 10
184744.2667759115
 20
37816.09773416831
 30
0.0
 10
184734.4943832018
 20
37803.68873738034
 30
0.0
 10
184730.621962522
 20
37801.91068678194
 30
0.0
 10
184727.7823907606
 20
37801.91068678191
 30
0.0
  0
LINE
  5
CE57
330
CF75
100
AcDbEntity
  8
A822_別途：家具
  6
Continuous
 62
     7
370
     9
100
AcDbLine
 10
183267.782391
 20
37276.910687
 30
0.0
 11
183267.782391
 21
37556.910687
 31
0.0
  0
LINE
  5
CE58
330
CF75
100
AcDbEntity
  8
A822_別途：家具
  6
Continuous
 62
     7
370
    13
100
AcDbLine
 10
183267.782391
 20
37566.910687
 30
0.0
 11
183547.782391
 21
37566.910687
 31
0.0
  0
LINE
  5
CE59
330
CF75
100
AcDbEntity
  8
A822_別途：家具
  6
Continuous
 62
     7
370
    13
100
AcDbLine
 10
183267.782391
 20
37266.910687
 30
0.0
 11
183547.782391
 21
37266.910687
 31
0.0
  0
ELLIPSE
  5
CE5A
330
CF75
100
AcDbEntity
  8
A822_別途：家具
  6
Continuous
 62
     7
370
    13
100
AcDbEllipse
 10
183267.782391
 20
37416.910687
 30
0.0
 11
0.0
 21
150.0000000000116
 31
0.0
210
0.0
220
0.0
230
1.0
 40
0.3333333333333075
 41
0.0
 42
3.141592653589793
  0
LINE
  5
CE5B
330
CF75
100
AcDbEntity
  8
A822_別途：家具
  6
Continuous
 62
     7
370
     9
100
AcDbLine
 10
183267.782391
 20
37276.910687
 30
0.0
 11
183547.782391
 21
37276.910687
 31
0.0
  0
LINE
  5
CE5C
330
CF75
100
AcDbEntity
  8
A822_別途：家具
  6
Continuous
 62
     7
370
     9
100
AcDbLine
 10
183267.782391
 20
37556.910687
 30
0.0
 11
183547.782391
 21
37556.910687
 31
0.0
  0
SPLINE
  5
CE5D
330
CF75
100
AcDbEntity
  8
A822_別途：家具
  6
Continuous
 62
     7
370
     9
100
AcDbSpline
210
0.0
220
0.0
230
1.0
 70
     8
 71
     3
 72
    18
 73
    14
 74
     0
 42
0.0000000001
 43
0.0000000001
 40
0.0
 40
0.0
 40
0.0
 40
0.0
 40
0.125
 40
0.125
 40
0.25
 40
0.25
 40
0.5
 40
0.5
 40
0.75
 40
0.75
 40
0.875
 40
0.875
 40
1.0
 40
1.0
 40
1.0
 40
1.0
 10
183267.7823907606
 20
37556.91068678186
 30
0.0
 10
183264.9428189993
 20
37556.91068678184
 30
0.0
 10
183261.0703983194
 20
37555.13263618346
 30
0.0
 10
183251.2980056098
 20
37542.72363939537
 30
0.0
 10
183246.2050323367
 20
37532.64627352469
 30
0.0
 10
183233.3523872419
 20
37494.08833824026
 30
0.0
 10
183227.7823907606
 20
37457.40223122332
 30
0.0
 10
183227.7823907606
 20
37376.41914234048
 30
0.0
 10
183233.3523872419
 20
37339.73303532347
 30
0.0
 10
183246.2050323367
 20
37301.17510003904
 30
0.0
 10
183251.2980056098
 20
37291.09773416829
 30
0.0
 10
183261.0703983194
 20
37278.68873738032
 30
0.0
 10
183264.9428189993
 20
37276.91068678192
 30
0.0
 10
183267.7823907606
 20
37276.91068678189
 30
0.0
  0
LINE
  5
CE60
330
CF75
100
AcDbEntity
  8
A822_別途：家具
  6
Continuous
 62
     7
370
     9
100
AcDbLine
 10
183267.782391
 20
36751.910687
 30
0.0
 11
183267.782391
 21
37031.910687
 31
0.0
  0
LINE
  5
CE61
330
CF75
100
AcDbEntity
  8
A822_別途：家具
  6
Continuous
 62
     7
370
    13
100
AcDbLine
 10
183267.782391
 20
37041.910687
 30
0.0
 11
183547.782391
 21
37041.910687
 31
0.0
  0
LINE
  5
CE62
330
CF75
100
AcDbEntity
  8
A822_別途：家具
  6
Continuous
 62
     7
370
    13
100
AcDbLine
 10
183267.782391
 20
36741.910687
 30
0.0
 11
183547.782391
 21
36741.910687
 31
0.0
  0
ELLIPSE
  5
CE63
330
CF75
100
AcDbEntity
  8
A822_別途：家具
  6
Continuous
 62
     7
370
    13
100
AcDbEllipse
 10
183267.782391
 20
36891.910687
 30
0.0
 11
0.0
 21
150.0000000000116
 31
0.0
210
0.0
220
0.0
230
1.0
 40
0.3333333333333075
 41
0.0
 42
3.141592653589793
  0
LINE
  5
CE64
330
CF75
100
AcDbEntity
  8
A822_別途：家具
  6
Continuous
 62
     7
370
     9
100
AcDbLine
 10
183267.782391
 20
36751.910687
 30
0.0
 11
183547.782391
 21
36751.910687
 31
0.0
  0
LINE
  5
CE65
330
CF75
100
AcDbEntity
  8
A822_別途：家具
  6
Continuous
 62
     7
370
     9
100
AcDbLine
 10
183267.782391
 20
37031.910687
 30
0.0
 11
183547.782391
 21
37031.910687
 31
0.0
  0
SPLINE
  5
CE66
330
CF75
100
AcDbEntity
  8
A822_別途：家具
  6
Continuous
 62
     7
370
     9
100
AcDbSpline
210
0.0
220
0.0
230
1.0
 70
     8
 71
     3
 72
    18
 73
    14
 74
     0
 42
0.0000000001
 43
0.0000000001
 40
0.0
 40
0.0
 40
0.0
 40
0.0
 40
0.125
 40
0.125
 40
0.25
 40
0.25
 40
0.5
 40
0.5
 40
0.75
 40
0.75
 40
0.875
 40
0.875
 40
1.0
 40
1.0
 40
1.0
 40
1.0
 10
183267.7823907606
 20
37031.91068678189
 30
0.0
 10
183264.9428189993
 20
37031.91068678187
 30
0.0
 10
183261.0703983194
 20
37030.13263618348
 30
0.0
 10
183251.2980056098
 20
37017.72363939539
 30
0.0
 10
183246.2050323367
 20
37007.64627352471
 30
0.0
 10
183233.3523872419
 20
36969.08833824029
 30
0.0
 10
183227.7823907606
 20
36932.40223122335
 30
0.0
 10
183227.7823907606
 20
36851.4191423405
 30
0.0
 10
183233.3523872419
 20
36814.73303532349
 30
0.0
 10
183246.2050323367
 20
36776.17510003907
 30
0.0
 10
183251.2980056098
 20
36766.09773416831
 30
0.0
 10
183261.0703983194
 20
36753.68873738034
 30
0.0
 10
183264.9428189993
 20
36751.91068678194
 30
0.0
 10
183267.7823907606
 20
36751.91068678191
 30
0.0
  0
LINE
  5
CE69
330
CF75
100
AcDbEntity
  8
A822_別途：家具
  6
Continuous
 62
     7
370
     9
100
AcDbLine
 10
183267.782391
 20
37801.910687
 30
0.0
 11
183267.782391
 21
38081.910687
 31
0.0
  0
LINE
  5
CE6A
330
CF75
100
AcDbEntity
  8
A822_別途：家具
  6
Continuous
 62
     7
370
    13
100
AcDbLine
 10
183267.782391
 20
38091.910687
 30
0.0
 11
183547.782391
 21
38091.910687
 31
0.0
  0
LINE
  5
CE6B
330
CF75
100
AcDbEntity
  8
A822_別途：家具
  6
Continuous
 62
     7
370
    13
100
AcDbLine
 10
183267.782391
 20
37791.910687
 30
0.0
 11
183547.782391
 21
37791.910687
 31
0.0
  0
ELLIPSE
  5
CE6C
330
CF75
100
AcDbEntity
  8
A822_別途：家具
  6
Continuous
 62
     7
370
    13
100
AcDbEllipse
 10
183267.782391
 20
37941.910687
 30
0.0
 11
0.0
 21
150.0000000000116
 31
0.0
210
0.0
220
0.0
230
1.0
 40
0.3333333333333075
 41
0.0
 42
3.141592653589793
  0
LINE
  5
CE6D
330
CF75
100
AcDbEntity
  8
A822_別途：家具
  6
Continuous
 62
     7
370
     9
100
AcDbLine
 10
183267.782391
 20
37801.910687
 30
0.0
 11
183547.782391
 21
37801.910687
 31
0.0
  0
LINE
  5
CE6E
330
CF75
100
AcDbEntity
  8
A822_別途：家具
  6
Continuous
 62
     7
370
     9
100
AcDbLine
 10
183267.782391
 20
38081.910687
 30
0.0
 11
183547.782391
 21
38081.910687
 31
0.0
  0
SPLINE
  5
CE6F
330
CF75
100
AcDbEntity
  8
A822_別途：家具
  6
Continuous
 62
     7
370
     9
100
AcDbSpline
210
0.0
220
0.0
230
1.0
 70
     8
 71
     3
 72
    18
 73
    14
 74
     0
 42
0.0000000001
 43
0.0000000001
 40
0.0
 40
0.0
 40
0.0
 40
0.0
 40
0.125
 40
0.125
 40
0.25
 40
0.25
 40
0.5
 40
0.5
 40
0.75
 40
0.75
 40
0.875
 40
0.875
 40
1.0
 40
1.0
 40
1.0
 40
1.0
 10
183267.7823907606
 20
38081.91068678189
 30
0.0
 10
183264.9428189993
 20
38081.91068678187
 30
0.0
 10
183261.0703983194
 20
38080.13263618348
 30
0.0
 10
183251.2980056098
 20
38067.72363939539
 30
0.0
 10
183246.2050323367
 20
38057.64627352471
 30
0.0
 10
183233.3523872419
 20
38019.08833824029
 30
0.0
 10
183227.7823907606
 20
37982.40223122335
 30
0.0
 10
183227.7823907606
 20
37901.4191423405
 30
0.0
 10
183233.3523872419
 20
37864.73303532349
 30
0.0
 10
183246.2050323367
 20
37826.17510003907
 30
0.0
 10
183251.2980056098
 20
37816.09773416831
 30
0.0
 10
183261.0703983194
 20
37803.68873738034
 30
0.0
 10
183264.9428189993
 20
37801.91068678194
 30
0.0
 10
183267.7823907606
 20
37801.91068678191
 30
0.0
  0
LINE
  5
CE72
330
CF75
100
AcDbEntity
  8
A822_別途：家具
  6
Continuous
 62
     7
370
     9
100
AcDbLine
 10
184727.782391
 20
39976.910687
 30
0.0
 11
184727.782391
 21
40256.910687
 31
0.0
  0
LINE
  5
CE73
330
CF75
100
AcDbEntity
  8
A822_別途：家具
  6
Continuous
 62
     7
370
    13
100
AcDbLine
 10
184727.782391
 20
40266.910687
 30
0.0
 11
184447.782391
 21
40266.910687
 31
0.0
  0
LINE
  5
CE74
330
CF75
100
AcDbEntity
  8
A822_別途：家具
  6
Continuous
 62
     7
370
    13
100
AcDbLine
 10
184727.782391
 20
39966.910687
 30
0.0
 11
184447.782391
 21
39966.910687
 31
0.0
  0
ELLIPSE
  5
CE75
330
CF75
100
AcDbEntity
  8
A822_別途：家具
  6
Continuous
 62
     7
370
    13
100
AcDbEllipse
 10
184727.782391
 20
40116.910687
 30
0.0
 11
0.0
 21
150.0000000000116
 31
0.0
210
0.0
220
0.0
230
-1.0
 40
0.3333333333333075
 41
0.0
 42
3.141592653589793
  0
LINE
  5
CE76
330
CF75
100
AcDbEntity
  8
A822_別途：家具
  6
Continuous
 62
     7
370
     9
100
AcDbLine
 10
184727.782391
 20
39976.910687
 30
0.0
 11
184447.782391
 21
39976.910687
 31
0.0
  0
LINE
  5
CE77
330
CF75
100
AcDbEntity
  8
A822_別途：家具
  6
Continuous
 62
     7
370
     9
100
AcDbLine
 10
184727.782391
 20
40256.910687
 30
0.0
 11
184447.782391
 21
40256.910687
 31
0.0
  0
SPLINE
  5
CE78
330
CF75
100
AcDbEntity
  8
A822_別途：家具
  6
Continuous
 62
     7
370
     9
100
AcDbSpline
210
0.0
220
0.0
230
1.0
 70
     8
 71
     3
 72
    18
 73
    14
 74
     0
 42
0.0000000001
 43
0.0000000001
 40
0.0
 40
0.0
 40
0.0
 40
0.0
 40
0.125
 40
0.125
 40
0.25
 40
0.25
 40
0.5
 40
0.5
 40
0.75
 40
0.75
 40
0.875
 40
0.875
 40
1.0
 40
1.0
 40
1.0
 40
1.0
 10
184727.7823907606
 20
40256.91068678185
 30
0.0
 10
184730.6219625219
 20
40256.91068678183
 30
0.0
 10
184734.4943832018
 20
40255.13263618344
 30
0.0
 10
184744.2667759114
 20
40242.72363939536
 30
0.0
 10
184749.3597491845
 20
40232.64627352467
 30
0.0
 10
184762.2123942793
 20
40194.08833824025
 30
0.0
 10
184767.7823907606
 20
40157.40223122331
 30
0.0
 10
184767.7823907606
 20
40076.41914234046
 30
0.0
 10
184762.2123942793
 20
40039.73303532346
 30
0.0
 10
184749.3597491845
 20
40001.17510003903
 30
0.0
 10
184744.2667759114
 20
39991.09773416828
 30
0.0
 10
184734.4943832018
 20
39978.68873738031
 30
0.0
 10
184730.6219625219
 20
39976.9106867819
 30
0.0
 10
184727.7823907606
 20
39976.91068678188
 30
0.0
  0
LINE
  5
CE7B
330
CF75
100
AcDbEntity
  8
A822_別途：家具
  6
Continuous
 62
     7
370
     9
100
AcDbLine
 10
184727.782391
 20
39451.910687
 30
0.0
 11
184727.782391
 21
39731.910687
 31
0.0
  0
LINE
  5
CE7C
330
CF75
100
AcDbEntity
  8
A822_別途：家具
  6
Continuous
 62
     7
370
    13
100
AcDbLine
 10
184727.782391
 20
39741.910687
 30
0.0
 11
184447.782391
 21
39741.910687
 31
0.0
  0
LINE
  5
CE7D
330
CF75
100
AcDbEntity
  8
A822_別途：家具
  6
Continuous
 62
     7
370
    13
100
AcDbLine
 10
184727.782391
 20
39441.910687
 30
0.0
 11
184447.782391
 21
39441.910687
 31
0.0
  0
ELLIPSE
  5
CE7E
330
CF75
100
AcDbEntity
  8
A822_別途：家具
  6
Continuous
 62
     7
370
    13
100
AcDbEllipse
 10
184727.782391
 20
39591.910687
 30
0.0
 11
0.0
 21
150.0000000000116
 31
0.0
210
0.0
220
0.0
230
-1.0
 40
0.3333333333333075
 41
0.0
 42
3.141592653589793
  0
LINE
  5
CE7F
330
CF75
100
AcDbEntity
  8
A822_別途：家具
  6
Continuous
 62
     7
370
     9
100
AcDbLine
 10
184727.782391
 20
39451.910687
 30
0.0
 11
184447.782391
 21
39451.910687
 31
0.0
  0
LINE
  5
CE80
330
CF75
100
AcDbEntity
  8
A822_別途：家具
  6
Continuous
 62
     7
370
     9
100
AcDbLine
 10
184727.782391
 20
39731.910687
 30
0.0
 11
184447.782391
 21
39731.910687
 31
0.0
  0
SPLINE
  5
CE81
330
CF75
100
AcDbEntity
  8
A822_別途：家具
  6
Continuous
 62
     7
370
     9
100
AcDbSpline
210
0.0
220
0.0
230
1.0
 70
     8
 71
     3
 72
    18
 73
    14
 74
     0
 42
0.0000000001
 43
0.0000000001
 40
0.0
 40
0.0
 40
0.0
 40
0.0
 40
0.125
 40
0.125
 40
0.25
 40
0.25
 40
0.5
 40
0.5
 40
0.75
 40
0.75
 40
0.875
 40
0.875
 40
1.0
 40
1.0
 40
1.0
 40
1.0
 10
184727.7823907606
 20
39731.91068678188
 30
0.0
 10
184730.6219625219
 20
39731.91068678186
 30
0.0
 10
184734.4943832018
 20
39730.13263618346
 30
0.0
 10
184744.2667759114
 20
39717.72363939538
 30
0.0
 10
184749.3597491845
 20
39707.64627352471
 30
0.0
 10
184762.2123942793
 20
39669.08833824028
 30
0.0
 10
184767.7823907606
 20
39632.40223122334
 30
0.0
 10
184767.7823907606
 20
39551.41914234049
 30
0.0
 10
184762.2123942793
 20
39514.73303532348
 30
0.0
 10
184749.3597491845
 20
39476.17510003905
 30
0.0
 10
184744.2667759114
 20
39466.09773416831
 30
0.0
 10
184734.4943832018
 20
39453.68873738034
 30
0.0
 10
184730.6219625219
 20
39451.91068678192
 30
0.0
 10
184727.7823907606
 20
39451.9106867819
 30
0.0
  0
LINE
  5
CE84
330
CF75
100
AcDbEntity
  8
A822_別途：家具
  6
Continuous
 62
     7
370
     9
100
AcDbLine
 10
184727.782391
 20
40501.910687
 30
0.0
 11
184727.782391
 21
40781.910687
 31
0.0
  0
LINE
  5
CE85
330
CF75
100
AcDbEntity
  8
A822_別途：家具
  6
Continuous
 62
     7
370
    13
100
AcDbLine
 10
184727.782391
 20
40791.910687
 30
0.0
 11
184447.782391
 21
40791.910687
 31
0.0
  0
LINE
  5
CE86
330
CF75
100
AcDbEntity
  8
A822_別途：家具
  6
Continuous
 62
     7
370
    13
100
AcDbLine
 10
184727.782391
 20
40491.910687
 30
0.0
 11
184447.782391
 21
40491.910687
 31
0.0
  0
ELLIPSE
  5
CE87
330
CF75
100
AcDbEntity
  8
A822_別途：家具
  6
Continuous
 62
     7
370
    13
100
AcDbEllipse
 10
184727.782391
 20
40641.910687
 30
0.0
 11
0.0
 21
150.0000000000116
 31
0.0
210
0.0
220
0.0
230
-1.0
 40
0.3333333333333075
 41
0.0
 42
3.141592653589793
  0
LINE
  5
CE88
330
CF75
100
AcDbEntity
  8
A822_別途：家具
  6
Continuous
 62
     7
370
     9
100
AcDbLine
 10
184727.782391
 20
40501.910687
 30
0.0
 11
184447.782391
 21
40501.910687
 31
0.0
  0
LINE
  5
CE89
330
CF75
100
AcDbEntity
  8
A822_別途：家具
  6
Continuous
 62
     7
370
     9
100
AcDbLine
 10
184727.782391
 20
40781.910687
 30
0.0
 11
184447.782391
 21
40781.910687
 31
0.0
  0
SPLINE
  5
CE8A
330
CF75
100
AcDbEntity
  8
A822_別途：家具
  6
Continuous
 62
     7
370
     9
100
AcDbSpline
210
0.0
220
0.0
230
1.0
 70
     8
 71
     3
 72
    18
 73
    14
 74
     0
 42
0.0000000001
 43
0.0000000001
 40
0.0
 40
0.0
 40
0.0
 40
0.0
 40
0.125
 40
0.125
 40
0.25
 40
0.25
 40
0.5
 40
0.5
 40
0.75
 40
0.75
 40
0.875
 40
0.875
 40
1.0
 40
1.0
 40
1.0
 40
1.0
 10
184727.7823907606
 20
40781.91068678187
 30
0.0
 10
184730.6219625219
 20
40781.91068678186
 30
0.0
 10
184734.4943832018
 20
40780.13263618347
 30
0.0
 10
184744.2667759114
 20
40767.72363939538
 30
0.0
 10
184749.3597491845
 20
40757.6462735247
 30
0.0
 10
184762.2123942793
 20
40719.08833824028
 30
0.0
 10
184767.7823907606
 20
40682.40223122333
 30
0.0
 10
184767.7823907606
 20
40601.41914234048
 30
0.0
 10
184762.2123942793
 20
40564.73303532348
 30
0.0
 10
184749.3597491845
 20
40526.17510003905
 30
0.0
 10
184744.2667759114
 20
40516.0977341683
 30
0.0
 10
184734.4943832018
 20
40503.68873738033
 30
0.0
 10
184730.6219625219
 20
40501.91068678191
 30
0.0
 10
184727.7823907606
 20
40501.9106867819
 30
0.0
  0
LINE
  5
CE8D
330
CF75
100
AcDbEntity
  8
A822_別途：家具
  6
Continuous
 62
     7
370
     9
100
AcDbLine
 10
183267.782391
 20
39976.910687
 30
0.0
 11
183267.782391
 21
40256.910687
 31
0.0
  0
LINE
  5
CE8E
330
CF75
100
AcDbEntity
  8
A822_別途：家具
  6
Continuous
 62
     7
370
    13
100
AcDbLine
 10
183267.782391
 20
40266.910687
 30
0.0
 11
183547.782391
 21
40266.910687
 31
0.0
  0
LINE
  5
CE8F
330
CF75
100
AcDbEntity
  8
A822_別途：家具
  6
Continuous
 62
     7
370
    13
100
AcDbLine
 10
183267.782391
 20
39966.910687
 30
0.0
 11
183547.782391
 21
39966.910687
 31
0.0
  0
ELLIPSE
  5
CE90
330
CF75
100
AcDbEntity
  8
A822_別途：家具
  6
Continuous
 62
     7
370
    13
100
AcDbEllipse
 10
183267.782391
 20
40116.910687
 30
0.0
 11
0.0
 21
150.0000000000116
 31
0.0
210
0.0
220
0.0
230
1.0
 40
0.3333333333333075
 41
0.0
 42
3.141592653589793
  0
LINE
  5
CE91
330
CF75
100
AcDbEntity
  8
A822_別途：家具
  6
Continuous
 62
     7
370
     9
100
AcDbLine
 10
183267.782391
 20
39976.910687
 30
0.0
 11
183547.782391
 21
39976.910687
 31
0.0
  0
LINE
  5
CE92
330
CF75
100
AcDbEntity
  8
A822_別途：家具
  6
Continuous
 62
     7
370
     9
100
AcDbLine
 10
183267.782391
 20
40256.910687
 30
0.0
 11
183547.782391
 21
40256.910687
 31
0.0
  0
SPLINE
  5
CE93
330
CF75
100
AcDbEntity
  8
A822_別途：家具
  6
Continuous
 62
     7
370
     9
100
AcDbSpline
210
0.0
220
0.0
230
1.0
 70
     8
 71
     3
 72
    18
 73
    14
 74
     0
 42
0.0000000001
 43
0.0000000001
 40
0.0
 40
0.0
 40
0.0
 40
0.0
 40
0.125
 40
0.125
 40
0.25
 40
0.25
 40
0.5
 40
0.5
 40
0.75
 40
0.75
 40
0.875
 40
0.875
 40
1.0
 40
1.0
 40
1.0
 40
1.0
 10
183267.7823907606
 20
40256.91068678185
 30
0.0
 10
183264.9428189992
 20
40256.91068678183
 30
0.0
 10
183261.0703983194
 20
40255.13263618344
 30
0.0
 10
183251.2980056097
 20
40242.72363939536
 30
0.0
 10
183246.2050323367
 20
40232.64627352467
 30
0.0
 10
183233.3523872418
 20
40194.08833824025
 30
0.0
 10
183227.7823907606
 20
40157.40223122331
 30
0.0
 10
183227.7823907606
 20
40076.41914234046
 30
0.0
 10
183233.3523872418
 20
40039.73303532346
 30
0.0
 10
183246.2050323367
 20
40001.17510003903
 30
0.0
 10
183251.2980056097
 20
39991.09773416828
 30
0.0
 10
183261.0703983194
 20
39978.68873738031
 30
0.0
 10
183264.9428189992
 20
39976.9106867819
 30
0.0
 10
183267.7823907606
 20
39976.91068678188
 30
0.0
  0
LINE
  5
CE96
330
CF75
100
AcDbEntity
  8
A822_別途：家具
  6
Continuous
 62
     7
370
     9
100
AcDbLine
 10
183267.782391
 20
39451.910687
 30
0.0
 11
183267.782391
 21
39731.910687
 31
0.0
  0
LINE
  5
CE97
330
CF75
100
AcDbEntity
  8
A822_別途：家具
  6
Continuous
 62
     7
370
    13
100
AcDbLine
 10
183267.782391
 20
39741.910687
 30
0.0
 11
183547.782391
 21
39741.910687
 31
0.0
  0
LINE
  5
CE98
330
CF75
100
AcDbEntity
  8
A822_別途：家具
  6
Continuous
 62
     7
370
    13
100
AcDbLine
 10
183267.782391
 20
39441.910687
 30
0.0
 11
183547.782391
 21
39441.910687
 31
0.0
  0
ELLIPSE
  5
CE99
330
CF75
100
AcDbEntity
  8
A822_別途：家具
  6
Continuous
 62
     7
370
    13
100
AcDbEllipse
 10
183267.782391
 20
39591.910687
 30
0.0
 11
0.0
 21
150.0000000000116
 31
0.0
210
0.0
220
0.0
230
1.0
 40
0.3333333333333075
 41
0.0
 42
3.141592653589793
  0
LINE
  5
CE9A
330
CF75
100
AcDbEntity
  8
A822_別途：家具
  6
Continuous
 62
     7
370
     9
100
AcDbLine
 10
183267.782391
 20
39451.910687
 30
0.0
 11
183547.782391
 21
39451.910687
 31
0.0
  0
LINE
  5
CE9B
330
CF75
100
AcDbEntity
  8
A822_別途：家具
  6
Continuous
 62
     7
370
     9
100
AcDbLine
 10
183267.782391
 20
39731.910687
 30
0.0
 11
183547.782391
 21
39731.910687
 31
0.0
  0
SPLINE
  5
CE9C
330
CF75
100
AcDbEntity
  8
A822_別途：家具
  6
Continuous
 62
     7
370
     9
100
AcDbSpline
210
0.0
220
0.0
230
1.0
 70
     8
 71
     3
 72
    18
 73
    14
 74
     0
 42
0.0000000001
 43
0.0000000001
 40
0.0
 40
0.0
 40
0.0
 40
0.0
 40
0.125
 40
0.125
 40
0.25
 40
0.25
 40
0.5
 40
0.5
 40
0.75
 40
0.75
 40
0.875
 40
0.875
 40
1.0
 40
1.0
 40
1.0
 40
1.0
 10
183267.7823907606
 20
39731.91068678188
 30
0.0
 10
183264.9428189992
 20
39731.91068678186
 30
0.0
 10
183261.0703983194
 20
39730.13263618346
 30
0.0
 10
183251.2980056097
 20
39717.72363939538
 30
0.0
 10
183246.2050323367
 20
39707.64627352471
 30
0.0
 10
183233.3523872418
 20
39669.08833824028
 30
0.0
 10
183227.7823907606
 20
39632.40223122334
 30
0.0
 10
183227.7823907606
 20
39551.41914234049
 30
0.0
 10
183233.3523872418
 20
39514.73303532348
 30
0.0
 10
183246.2050323367
 20
39476.17510003905
 30
0.0
 10
183251.2980056097
 20
39466.09773416831
 30
0.0
 10
183261.0703983194
 20
39453.68873738034
 30
0.0
 10
183264.9428189992
 20
39451.91068678192
 30
0.0
 10
183267.7823907606
 20
39451.9106867819
 30
0.0
  0
LINE
  5
CE9F
330
CF75
100
AcDbEntity
  8
A822_別途：家具
  6
Continuous
 62
     7
370
     9
100
AcDbLine
 10
183267.782391
 20
40501.910687
 30
0.0
 11
183267.782391
 21
40781.910687
 31
0.0
  0
LINE
  5
CEA0
330
CF75
100
AcDbEntity
  8
A822_別途：家具
  6
Continuous
 62
     7
370
    13
100
AcDbLine
 10
183267.782391
 20
40791.910687
 30
0.0
 11
183547.782391
 21
40791.910687
 31
0.0
  0
LINE
  5
CEA1
330
CF75
100
AcDbEntity
  8
A822_別途：家具
  6
Continuous
 62
     7
370
    13
100
AcDbLine
 10
183267.782391
 20
40491.910687
 30
0.0
 11
183547.782391
 21
40491.910687
 31
0.0
  0
ELLIPSE
  5
CEA2
330
CF75
100
AcDbEntity
  8
A822_別途：家具
  6
Continuous
 62
     7
370
    13
100
AcDbEllipse
 10
183267.782391
 20
40641.910687
 30
0.0
 11
0.0
 21
150.0000000000116
 31
0.0
210
0.0
220
0.0
230
1.0
 40
0.3333333333333075
 41
0.0
 42
3.141592653589793
  0
LINE
  5
CEA3
330
CF75
100
AcDbEntity
  8
A822_別途：家具
  6
Continuous
 62
     7
370
     9
100
AcDbLine
 10
183267.782391
 20
40501.910687
 30
0.0
 11
183547.782391
 21
40501.910687
 31
0.0
  0
LINE
  5
CEA4
330
CF75
100
AcDbEntity
  8
A822_別途：家具
  6
Continuous
 62
     7
370
     9
100
AcDbLine
 10
183267.782391
 20
40781.910687
 30
0.0
 11
183547.782391
 21
40781.910687
 31
0.0
  0
SPLINE
  5
CEA5
330
CF75
100
AcDbEntity
  8
A822_別途：家具
  6
Continuous
 62
     7
370
     9
100
AcDbSpline
210
0.0
220
0.0
230
1.0
 70
     8
 71
     3
 72
    18
 73
    14
 74
     0
 42
0.0000000001
 43
0.0000000001
 40
0.0
 40
0.0
 40
0.0
 40
0.0
 40
0.125
 40
0.125
 40
0.25
 40
0.25
 40
0.5
 40
0.5
 40
0.75
 40
0.75
 40
0.875
 40
0.875
 40
1.0
 40
1.0
 40
1.0
 40
1.0
 10
183267.7823907606
 20
40781.91068678187
 30
0.0
 10
183264.9428189992
 20
40781.91068678186
 30
0.0
 10
183261.0703983194
 20
40780.13263618347
 30
0.0
 10
183251.2980056097
 20
40767.72363939538
 30
0.0
 10
183246.2050323367
 20
40757.6462735247
 30
0.0
 10
183233.3523872418
 20
40719.08833824028
 30
0.0
 10
183227.7823907606
 20
40682.40223122333
 30
0.0
 10
183227.7823907606
 20
40601.41914234048
 30
0.0
 10
183233.3523872418
 20
40564.73303532348
 30
0.0
 10
183246.2050323367
 20
40526.17510003905
 30
0.0
 10
183251.2980056097
 20
40516.0977341683
 30
0.0
 10
183261.0703983194
 20
40503.68873738033
 30
0.0
 10
183264.9428189992
 20
40501.91068678191
 30
0.0
 10
183267.7823907606
 20
40501.9106867819
 30
0.0
  0
LINE
  5
CEA8
330
CF75
100
AcDbEntity
  8
A822_別途：家具
  6
Continuous
 62
     7
370
     9
100
AcDbLine
 10
187427.782391
 20
39976.910687
 30
0.0
 11
187427.782391
 21
40256.910687
 31
0.0
  0
LINE
  5
CEA9
330
CF75
100
AcDbEntity
  8
A822_別途：家具
  6
Continuous
 62
     7
370
    13
100
AcDbLine
 10
187427.782391
 20
40266.910687
 30
0.0
 11
187147.782391
 21
40266.910687
 31
0.0
  0
LINE
  5
CEAA
330
CF75
100
AcDbEntity
  8
A822_別途：家具
  6
Continuous
 62
     7
370
    13
100
AcDbLine
 10
187427.782391
 20
39966.910687
 30
0.0
 11
187147.782391
 21
39966.910687
 31
0.0
  0
ELLIPSE
  5
CEAB
330
CF75
100
AcDbEntity
  8
A822_別途：家具
  6
Continuous
 62
     7
370
    13
100
AcDbEllipse
 10
187427.782391
 20
40116.910687
 30
0.0
 11
0.0
 21
150.0000000000116
 31
0.0
210
0.0
220
0.0
230
-1.0
 40
0.3333333333333075
 41
0.0
 42
3.141592653589793
  0
LINE
  5
CEAC
330
CF75
100
AcDbEntity
  8
A822_別途：家具
  6
Continuous
 62
     7
370
     9
100
AcDbLine
 10
187427.782391
 20
39976.910687
 30
0.0
 11
187147.782391
 21
39976.910687
 31
0.0
  0
LINE
  5
CEAD
330
CF75
100
AcDbEntity
  8
A822_別途：家具
  6
Continuous
 62
     7
370
     9
100
AcDbLine
 10
187427.782391
 20
40256.910687
 30
0.0
 11
187147.782391
 21
40256.910687
 31
0.0
  0
SPLINE
  5
CEAE
330
CF75
100
AcDbEntity
  8
A822_別途：家具
  6
Continuous
 62
     7
370
     9
100
AcDbSpline
210
0.0
220
0.0
230
1.0
 70
     8
 71
     3
 72
    18
 73
    14
 74
     0
 42
0.0000000001
 43
0.0000000001
 40
0.0
 40
0.0
 40
0.0
 40
0.0
 40
0.125
 40
0.125
 40
0.25
 40
0.25
 40
0.5
 40
0.5
 40
0.75
 40
0.75
 40
0.875
 40
0.875
 40
1.0
 40
1.0
 40
1.0
 40
1.0
 10
187427.7823907606
 20
40256.91068678185
 30
0.0
 10
187430.621962522
 20
40256.91068678183
 30
0.0
 10
187434.4943832018
 20
40255.13263618344
 30
0.0
 10
187444.2667759115
 20
40242.72363939536
 30
0.0
 10
187449.3597491845
 20
40232.64627352467
 30
0.0
 10
187462.2123942794
 20
40194.08833824025
 30
0.0
 10
187467.7823907606
 20
40157.40223122331
 30
0.0
 10
187467.7823907606
 20
40076.41914234046
 30
0.0
 10
187462.2123942794
 20
40039.73303532346
 30
0.0
 10
187449.3597491845
 20
40001.17510003903
 30
0.0
 10
187444.2667759115
 20
39991.09773416828
 30
0.0
 10
187434.4943832018
 20
39978.68873738031
 30
0.0
 10
187430.621962522
 20
39976.9106867819
 30
0.0
 10
187427.7823907606
 20
39976.91068678188
 30
0.0
  0
LINE
  5
CEB1
330
CF75
100
AcDbEntity
  8
A822_別途：家具
  6
Continuous
 62
     7
370
     9
100
AcDbLine
 10
187427.782391
 20
39451.910687
 30
0.0
 11
187427.782391
 21
39731.910687
 31
0.0
  0
LINE
  5
CEB2
330
CF75
100
AcDbEntity
  8
A822_別途：家具
  6
Continuous
 62
     7
370
    13
100
AcDbLine
 10
187427.782391
 20
39741.910687
 30
0.0
 11
187147.782391
 21
39741.910687
 31
0.0
  0
LINE
  5
CEB3
330
CF75
100
AcDbEntity
  8
A822_別途：家具
  6
Continuous
 62
     7
370
    13
100
AcDbLine
 10
187427.782391
 20
39441.910687
 30
0.0
 11
187147.782391
 21
39441.910687
 31
0.0
  0
ELLIPSE
  5
CEB4
330
CF75
100
AcDbEntity
  8
A822_別途：家具
  6
Continuous
 62
     7
370
    13
100
AcDbEllipse
 10
187427.782391
 20
39591.910687
 30
0.0
 11
0.0
 21
150.0000000000116
 31
0.0
210
0.0
220
0.0
230
-1.0
 40
0.3333333333333075
 41
0.0
 42
3.141592653589793
  0
LINE
  5
CEB5
330
CF75
100
AcDbEntity
  8
A822_別途：家具
  6
Continuous
 62
     7
370
     9
100
AcDbLine
 10
187427.782391
 20
39451.910687
 30
0.0
 11
187147.782391
 21
39451.910687
 31
0.0
  0
LINE
  5
CEB6
330
CF75
100
AcDbEntity
  8
A822_別途：家具
  6
Continuous
 62
     7
370
     9
100
AcDbLine
 10
187427.782391
 20
39731.910687
 30
0.0
 11
187147.782391
 21
39731.910687
 31
0.0
  0
SPLINE
  5
CEB7
330
CF75
100
AcDbEntity
  8
A822_別途：家具
  6
Continuous
 62
     7
370
     9
100
AcDbSpline
210
0.0
220
0.0
230
1.0
 70
     8
 71
     3
 72
    18
 73
    14
 74
     0
 42
0.0000000001
 43
0.0000000001
 40
0.0
 40
0.0
 40
0.0
 40
0.0
 40
0.125
 40
0.125
 40
0.25
 40
0.25
 40
0.5
 40
0.5
 40
0.75
 40
0.75
 40
0.875
 40
0.875
 40
1.0
 40
1.0
 40
1.0
 40
1.0
 10
187427.7823907606
 20
39731.91068678188
 30
0.0
 10
187430.621962522
 20
39731.91068678186
 30
0.0
 10
187434.4943832018
 20
39730.13263618346
 30
0.0
 10
187444.2667759115
 20
39717.72363939538
 30
0.0
 10
187449.3597491845
 20
39707.64627352471
 30
0.0
 10
187462.2123942794
 20
39669.08833824028
 30
0.0
 10
187467.7823907606
 20
39632.40223122334
 30
0.0
 10
187467.7823907606
 20
39551.41914234049
 30
0.0
 10
187462.2123942794
 20
39514.73303532348
 30
0.0
 10
187449.3597491845
 20
39476.17510003905
 30
0.0
 10
187444.2667759115
 20
39466.09773416831
 30
0.0
 10
187434.4943832018
 20
39453.68873738034
 30
0.0
 10
187430.621962522
 20
39451.91068678192
 30
0.0
 10
187427.7823907606
 20
39451.9106867819
 30
0.0
  0
LINE
  5
CEBA
330
CF75
100
AcDbEntity
  8
A822_別途：家具
  6
Continuous
 62
     7
370
     9
100
AcDbLine
 10
187427.782391
 20
40501.910687
 30
0.0
 11
187427.782391
 21
40781.910687
 31
0.0
  0
LINE
  5
CEBB
330
CF75
100
AcDbEntity
  8
A822_別途：家具
  6
Continuous
 62
     7
370
    13
100
AcDbLine
 10
187427.782391
 20
40791.910687
 30
0.0
 11
187147.782391
 21
40791.910687
 31
0.0
  0
LINE
  5
CEBC
330
CF75
100
AcDbEntity
  8
A822_別途：家具
  6
Continuous
 62
     7
370
    13
100
AcDbLine
 10
187427.782391
 20
40491.910687
 30
0.0
 11
187147.782391
 21
40491.910687
 31
0.0
  0
ELLIPSE
  5
CEBD
330
CF75
100
AcDbEntity
  8
A822_別途：家具
  6
Continuous
 62
     7
370
    13
100
AcDbEllipse
 10
187427.782391
 20
40641.910687
 30
0.0
 11
0.0
 21
150.0000000000116
 31
0.0
210
0.0
220
0.0
230
-1.0
 40
0.3333333333333075
 41
0.0
 42
3.141592653589793
  0
LINE
  5
CEBE
330
CF75
100
AcDbEntity
  8
A822_別途：家具
  6
Continuous
 62
     7
370
     9
100
AcDbLine
 10
187427.782391
 20
40501.910687
 30
0.0
 11
187147.782391
 21
40501.910687
 31
0.0
  0
LINE
  5
CEBF
330
CF75
100
AcDbEntity
  8
A822_別途：家具
  6
Continuous
 62
     7
370
     9
100
AcDbLine
 10
187427.782391
 20
40781.910687
 30
0.0
 11
187147.782391
 21
40781.910687
 31
0.0
  0
SPLINE
  5
CEC0
330
CF75
100
AcDbEntity
  8
A822_別途：家具
  6
Continuous
 62
     7
370
     9
100
AcDbSpline
210
0.0
220
0.0
230
1.0
 70
     8
 71
     3
 72
    18
 73
    14
 74
     0
 42
0.0000000001
 43
0.0000000001
 40
0.0
 40
0.0
 40
0.0
 40
0.0
 40
0.125
 40
0.125
 40
0.25
 40
0.25
 40
0.5
 40
0.5
 40
0.75
 40
0.75
 40
0.875
 40
0.875
 40
1.0
 40
1.0
 40
1.0
 40
1.0
 10
187427.7823907606
 20
40781.91068678187
 30
0.0
 10
187430.621962522
 20
40781.91068678186
 30
0.0
 10
187434.4943832018
 20
40780.13263618347
 30
0.0
 10
187444.2667759115
 20
40767.72363939538
 30
0.0
 10
187449.3597491845
 20
40757.6462735247
 30
0.0
 10
187462.2123942794
 20
40719.08833824028
 30
0.0
 10
187467.7823907606
 20
40682.40223122333
 30
0.0
 10
187467.7823907606
 20
40601.41914234048
 30
0.0
 10
187462.2123942794
 20
40564.73303532348
 30
0.0
 10
187449.3597491845
 20
40526.17510003905
 30
0.0
 10
187444.2667759115
 20
40516.0977341683
 30
0.0
 10
187434.4943832018
 20
40503.68873738033
 30
0.0
 10
187430.621962522
 20
40501.91068678191
 30
0.0
 10
187427.7823907606
 20
40501.9106867819
 30
0.0
  0
LINE
  5
CEC3
330
CF75
100
AcDbEntity
  8
A822_別途：家具
  6
Continuous
 62
     7
370
     9
100
AcDbLine
 10
185967.782391
 20
39976.910687
 30
0.0
 11
185967.782391
 21
40256.910687
 31
0.0
  0
LINE
  5
CEC4
330
CF75
100
AcDbEntity
  8
A822_別途：家具
  6
Continuous
 62
     7
370
    13
100
AcDbLine
 10
185967.782391
 20
40266.910687
 30
0.0
 11
186247.782391
 21
40266.910687
 31
0.0
  0
LINE
  5
CEC5
330
CF75
100
AcDbEntity
  8
A822_別途：家具
  6
Continuous
 62
     7
370
    13
100
AcDbLine
 10
185967.782391
 20
39966.910687
 30
0.0
 11
186247.782391
 21
39966.910687
 31
0.0
  0
ELLIPSE
  5
CEC6
330
CF75
100
AcDbEntity
  8
A822_別途：家具
  6
Continuous
 62
     7
370
    13
100
AcDbEllipse
 10
185967.782391
 20
40116.910687
 30
0.0
 11
0.0
 21
150.0000000000116
 31
0.0
210
0.0
220
0.0
230
1.0
 40
0.3333333333333075
 41
0.0
 42
3.141592653589793
  0
LINE
  5
CEC7
330
CF75
100
AcDbEntity
  8
A822_別途：家具
  6
Continuous
 62
     7
370
     9
100
AcDbLine
 10
185967.782391
 20
39976.910687
 30
0.0
 11
186247.782391
 21
39976.910687
 31
0.0
  0
LINE
  5
CEC8
330
CF75
100
AcDbEntity
  8
A822_別途：家具
  6
Continuous
 62
     7
370
     9
100
AcDbLine
 10
185967.782391
 20
40256.910687
 30
0.0
 11
186247.782391
 21
40256.910687
 31
0.0
  0
SPLINE
  5
CEC9
330
CF75
100
AcDbEntity
  8
A822_別途：家具
  6
Continuous
 62
     7
370
     9
100
AcDbSpline
210
0.0
220
0.0
230
1.0
 70
     8
 71
     3
 72
    18
 73
    14
 74
     0
 42
0.0000000001
 43
0.0000000001
 40
0.0
 40
0.0
 40
0.0
 40
0.0
 40
0.125
 40
0.125
 40
0.25
 40
0.25
 40
0.5
 40
0.5
 40
0.75
 40
0.75
 40
0.875
 40
0.875
 40
1.0
 40
1.0
 40
1.0
 40
1.0
 10
185967.7823907606
 20
40256.91068678185
 30
0.0
 10
185964.9428189993
 20
40256.91068678183
 30
0.0
 10
185961.0703983194
 20
40255.13263618344
 30
0.0
 10
185951.2980056098
 20
40242.72363939536
 30
0.0
 10
185946.2050323367
 20
40232.64627352467
 30
0.0
 10
185933.3523872418
 20
40194.08833824025
 30
0.0
 10
185927.7823907606
 20
40157.40223122331
 30
0.0
 10
185927.7823907606
 20
40076.41914234046
 30
0.0
 10
185933.3523872418
 20
40039.73303532346
 30
0.0
 10
185946.2050323367
 20
40001.17510003903
 30
0.0
 10
185951.2980056098
 20
39991.09773416828
 30
0.0
 10
185961.0703983194
 20
39978.68873738031
 30
0.0
 10
185964.9428189993
 20
39976.9106867819
 30
0.0
 10
185967.7823907606
 20
39976.91068678188
 30
0.0
  0
LINE
  5
CECC
330
CF75
100
AcDbEntity
  8
A822_別途：家具
  6
Continuous
 62
     7
370
     9
100
AcDbLine
 10
185967.782391
 20
39451.910687
 30
0.0
 11
185967.782391
 21
39731.910687
 31
0.0
  0
LINE
  5
CECD
330
CF75
100
AcDbEntity
  8
A822_別途：家具
  6
Continuous
 62
     7
370
    13
100
AcDbLine
 10
185967.782391
 20
39741.910687
 30
0.0
 11
186247.782391
 21
39741.910687
 31
0.0
  0
LINE
  5
CECE
330
CF75
100
AcDbEntity
  8
A822_別途：家具
  6
Continuous
 62
     7
370
    13
100
AcDbLine
 10
185967.782391
 20
39441.910687
 30
0.0
 11
186247.782391
 21
39441.910687
 31
0.0
  0
ELLIPSE
  5
CECF
330
CF75
100
AcDbEntity
  8
A822_別途：家具
  6
Continuous
 62
     7
370
    13
100
AcDbEllipse
 10
185967.782391
 20
39591.910687
 30
0.0
 11
0.0
 21
150.0000000000116
 31
0.0
210
0.0
220
0.0
230
1.0
 40
0.3333333333333075
 41
0.0
 42
3.141592653589793
  0
LINE
  5
CED0
330
CF75
100
AcDbEntity
  8
A822_別途：家具
  6
Continuous
 62
     7
370
     9
100
AcDbLine
 10
185967.782391
 20
39451.910687
 30
0.0
 11
186247.782391
 21
39451.910687
 31
0.0
  0
LINE
  5
CED1
330
CF75
100
AcDbEntity
  8
A822_別途：家具
  6
Continuous
 62
     7
370
     9
100
AcDbLine
 10
185967.782391
 20
39731.910687
 30
0.0
 11
186247.782391
 21
39731.910687
 31
0.0
  0
SPLINE
  5
CED2
330
CF75
100
AcDbEntity
  8
A822_別途：家具
  6
Continuous
 62
     7
370
     9
100
AcDbSpline
210
0.0
220
0.0
230
1.0
 70
     8
 71
     3
 72
    18
 73
    14
 74
     0
 42
0.0000000001
 43
0.0000000001
 40
0.0
 40
0.0
 40
0.0
 40
0.0
 40
0.125
 40
0.125
 40
0.25
 40
0.25
 40
0.5
 40
0.5
 40
0.75
 40
0.75
 40
0.875
 40
0.875
 40
1.0
 40
1.0
 40
1.0
 40
1.0
 10
185967.7823907606
 20
39731.91068678188
 30
0.0
 10
185964.9428189993
 20
39731.91068678186
 30
0.0
 10
185961.0703983194
 20
39730.13263618346
 30
0.0
 10
185951.2980056098
 20
39717.72363939538
 30
0.0
 10
185946.2050323367
 20
39707.64627352471
 30
0.0
 10
185933.3523872418
 20
39669.08833824028
 30
0.0
 10
185927.7823907606
 20
39632.40223122334
 30
0.0
 10
185927.7823907606
 20
39551.41914234049
 30
0.0
 10
185933.3523872418
 20
39514.73303532348
 30
0.0
 10
185946.2050323367
 20
39476.17510003905
 30
0.0
 10
185951.2980056098
 20
39466.09773416831
 30
0.0
 10
185961.0703983194
 20
39453.68873738034
 30
0.0
 10
185964.9428189993
 20
39451.91068678192
 30
0.0
 10
185967.7823907606
 20
39451.9106867819
 30
0.0
  0
LINE
  5
CED5
330
CF75
100
AcDbEntity
  8
A822_別途：家具
  6
Continuous
 62
     7
370
     9
100
AcDbLine
 10
185967.782391
 20
40501.910687
 30
0.0
 11
185967.782391
 21
40781.910687
 31
0.0
  0
LINE
  5
CED6
330
CF75
100
AcDbEntity
  8
A822_別途：家具
  6
Continuous
 62
     7
370
    13
100
AcDbLine
 10
185967.782391
 20
40791.910687
 30
0.0
 11
186247.782391
 21
40791.910687
 31
0.0
  0
LINE
  5
CED7
330
CF75
100
AcDbEntity
  8
A822_別途：家具
  6
Continuous
 62
     7
370
    13
100
AcDbLine
 10
185967.782391
 20
40491.910687
 30
0.0
 11
186247.782391
 21
40491.910687
 31
0.0
  0
ELLIPSE
  5
CED8
330
CF75
100
AcDbEntity
  8
A822_別途：家具
  6
Continuous
 62
     7
370
    13
100
AcDbEllipse
 10
185967.782391
 20
40641.910687
 30
0.0
 11
0.0
 21
150.0000000000116
 31
0.0
210
0.0
220
0.0
230
1.0
 40
0.3333333333333075
 41
0.0
 42
3.141592653589793
  0
LINE
  5
CED9
330
CF75
100
AcDbEntity
  8
A822_別途：家具
  6
Continuous
 62
     7
370
     9
100
AcDbLine
 10
185967.782391
 20
40501.910687
 30
0.0
 11
186247.782391
 21
40501.910687
 31
0.0
  0
LINE
  5
CEDA
330
CF75
100
AcDbEntity
  8
A822_別途：家具
  6
Continuous
 62
     7
370
     9
100
AcDbLine
 10
185967.782391
 20
40781.910687
 30
0.0
 11
186247.782391
 21
40781.910687
 31
0.0
  0
SPLINE
  5
CEDB
330
CF75
100
AcDbEntity
  8
A822_別途：家具
  6
Continuous
 62
     7
370
     9
100
AcDbSpline
210
0.0
220
0.0
230
1.0
 70
     8
 71
     3
 72
    18
 73
    14
 74
     0
 42
0.0000000001
 43
0.0000000001
 40
0.0
 40
0.0
 40
0.0
 40
0.0
 40
0.125
 40
0.125
 40
0.25
 40
0.25
 40
0.5
 40
0.5
 40
0.75
 40
0.75
 40
0.875
 40
0.875
 40
1.0
 40
1.0
 40
1.0
 40
1.0
 10
185967.7823907606
 20
40781.91068678187
 30
0.0
 10
185964.9428189993
 20
40781.91068678186
 30
0.0
 10
185961.0703983194
 20
40780.13263618347
 30
0.0
 10
185951.2980056098
 20
40767.72363939538
 30
0.0
 10
185946.2050323367
 20
40757.6462735247
 30
0.0
 10
185933.3523872418
 20
40719.08833824028
 30
0.0
 10
185927.7823907606
 20
40682.40223122333
 30
0.0
 10
185927.7823907606
 20
40601.41914234048
 30
0.0
 10
185933.3523872418
 20
40564.73303532348
 30
0.0
 10
185946.2050323367
 20
40526.17510003905
 30
0.0
 10
185951.2980056098
 20
40516.0977341683
 30
0.0
 10
185961.0703983194
 20
40503.68873738033
 30
0.0
 10
185964.9428189993
 20
40501.91068678191
 30
0.0
 10
185967.7823907606
 20
40501.9106867819
 30
0.0
  0
ENDSEC
  0
SECTION
  2
OBJECTS
  0
DICTIONARY
  5
CF7A
330
0
100
AcDbDictionary
281
     1
  3
ACAD_COLOR
350
CFB6
  3
ACAD_GROUP
350
CFA3
  3
ACAD_LAYOUT
350
CF87
  3
ACAD_MATERIAL
350
CF7C
  3
ACAD_MLEADERSTYLE
350
CFB9
  3
ACAD_MLINESTYLE
350
CFA4
  3
ACAD_PLOTSETTINGS
350
CFA5
  3
ACAD_PLOTSTYLENAME
350
CF79
  3
ACAD_SCALELIST
350
CFB7
  3
ACAD_TABLESTYLE
350
CFB8
  3
ACAD_VISUALSTYLE
350
CF9D
  3
ACDB_RECOMPOSE_DATA
350
CFE2
  3
AcDbVariableDictionary
350
CFDB
  3
MicroStation
350
CFD1
  0
DICTIONARY
  5
CF90
330
CF8F
100
AcDbDictionary
280
     1
281
     1
  3
ACAD_LAYERSTATES
360
CF91
  0
DICTIONARY
  5
CFB6
102
{ACAD_REACTORS
330
CF7A
102
}
330
CF7A
100
AcDbDictionary
281
     1
  0
DICTIONARY
  5
CFA3
102
{ACAD_REACTORS
330
CF7A
102
}
330
CF7A
100
AcDbDictionary
281
     1
  0
DICTIONARY
  5
CF87
102
{ACAD_REACTORS
330
CF7A
102
}
330
CF7A
100
AcDbDictionary
281
     1
  3
Layout1
350
CF8C
  3
Model
350
CF86
  0
DICTIONARY
  5
CF7C
102
{ACAD_REACTORS
330
CF7A
102
}
330
CF7A
100
AcDbDictionary
281
     1
  3
ByBlock
350
CFAE
  3
ByLayer
350
CFA6
  3
Global
350
CF7B
  0
DICTIONARY
  5
CFB9
102
{ACAD_REACTORS
330
CF7A
102
}
330
CF7A
100
AcDbDictionary
281
     1
  0
DICTIONARY
  5
CFA4
102
{ACAD_REACTORS
330
CF7A
102
}
330
CF7A
100
AcDbDictionary
281
     1
  3
Standard
350
CFBA
  0
DICTIONARY
  5
CFA5
102
{ACAD_REACTORS
330
CF7A
102
}
330
CF7A
100
AcDbDictionary
281
     1
  0
ACDBDICTIONARYWDFLT
  5
CF79
102
{ACAD_REACTORS
330
CF7A
102
}
330
CF7A
100
AcDbDictionary
281
     1
  3
Normal
350
CF78
100
AcDbDictionaryWithDefault
340
CF78
  0
DICTIONARY
  5
CFB7
102
{ACAD_REACTORS
330
CF7A
102
}
330
CF7A
100
AcDbDictionary
281
     1
  3
A0
350
CFBE
  3
A1
350
CFBF
  3
A2
350
CFC0
  3
A3
350
CFC1
  3
A4
350
CFC2
  3
A5
350
CFC3
  3
A6
350
CFC4
  3
A7
350
CFC5
  3
A8
350
CFC6
  3
A9
350
CFC7
  3
B0
350
CFC8
  3
B1
350
CFC9
  3
B2
350
CFCA
  3
B3
350
CFCB
  3
B4
350
CFCC
  3
B5
350
CFCD
  3
B6
350
CFCE
  0
DICTIONARY
  5
CFB8
102
{ACAD_REACTORS
330
CF7A
102
}
330
CF7A
100
AcDbDictionary
281
     1
  3
Standard
350
CFBB
  0
DICTIONARY
  5
CF9D
102
{ACAD_REACTORS
330
CF7A
102
}
330
CF7A
100
AcDbDictionary
281
     1
  3
2dWireframe
350
CF9C
  3
3dWireframe
350
CFBD
  3
Realistic
350
CFBC
  0
XRECORD
  5
CFE2
102
{ACAD_REACTORS
330
CF7A
102
}
330
CF7A
100
AcDbXrecord
280
     1
 90
        1
330
CFBB
  0
DICTIONARY
  5
CFDB
102
{ACAD_REACTORS
330
CF7A
102
}
330
CF7A
100
AcDbDictionary
281
     1
  3
CANNOSCALE
350
CFDE
  3
CMLEADERSTYLE
350
CFDD
  3
CTABLESTYLE
350
CFDC
  0
DICTIONARY
  5
CFD1
102
{ACAD_REACTORS
330
CF7A
102
}
330
CF7A
100
AcDbDictionary
281
     1
  3
Header
350
5B
  0
DICTIONARY
  5
CF91
102
{ACAD_REACTORS
330
CF90
102
}
330
CF90
100
AcDbDictionary
281
     1
  0
LAYOUT
  5
CF8C
102
{ACAD_XDICTIONARY
360
CF8D
102
}
102
{ACAD_REACTORS
330
CF87
102
}
330
CF87
100
AcDbPlotSettings
  1

  2
none_device
  4
ISO_A4_(210.00_x_297.00_MM)
  6

 40
7.5
 41
20.0
 42
7.5
 43
20.0
 44
210.0
 45
297.0
 46
0.0
 47
0.0
 48
0.0
 49
0.0
140
0.0
141
0.0
142
1.0
143
1.0
 70
   688
 72
     1
 73
     1
 74
     5
  7

 75
    16
147
1.0
 76
     0
 77
     2
 78
   300
148
0.0
149
0.0
100
AcDbLayout
  1
Layout1
 70
     1
 71
     1
 10
-20.0
 20
-7.5
 11
277.0
 21
202.5
 12
0.0
 22
0.0
 32
0.0
 14
25.7
 24
19.5
 34
0.0
 15
231.3
 25
175.5
 35
0.0
146
0.0
 13
0.0
 23
0.0
 33
0.0
 16
1.0
 26
0.0
 36
0.0
 17
0.0
 27
1.0
 37
0.0
 76
     0
330
CF89
1001
ACAD_PSEXT
1000
None
1000
None
1000
Not applicable
1000
The layout will not be plotted unless a new plotter configuration name is selected.
1070
     0
  0
LAYOUT
  5
CF86
102
{ACAD_REACTORS
330
CF87
102
}
330
CF87
100
AcDbPlotSettings
  1

  2
none_device
  4
ISO_A4_(210.00_x_297.00_MM)
  6

 40
7.5
 41
20.0
 42
7.5
 43
20.0
 44
210.0
 45
297.0
 46
11.549999
 47
-13.65
 48
0.0
 49
0.0
140
0.0
141
0.0
142
1.0
143
8.704085
 70
 11952
 72
     1
 73
     0
 74
     0
  7

 75
     0
147
0.114889
 76
     0
 77
     2
 78
   300
148
0.0
149
0.0
100
AcDbLayout
  1
Model
 70
     1
 71
     0
 10
0.0
 20
0.0
 11
12.0
 21
9.0
 12
0.0
 22
0.0
 32
0.0
 14
0.0
 24
0.0
 34
0.0
 15
0.0
 25
0.0
 35
0.0
146
0.0
 13
0.0
 23
0.0
 33
0.0
 16
1.0
 26
0.0
 36
0.0
 17
0.0
 27
1.0
 37
0.0
 76
     0
330
CF75
1001
ACAD_PSEXT
1000
None
1000
None
1000
Not applicable
1000
The layout will not be plotted unless a new plotter configuration name is selected.
1070
     0
  0
MATERIAL
  5
CFAE
102
{ACAD_XDICTIONARY
360
CFAF
102
}
102
{ACAD_REACTORS
330
CF7C
102
}
330
CF7C
100
AcDbMaterial
  1
ByBlock
 72
     0
 43
0.00082
 43
0.0
 43
0.0
 43
0.0
 43
0.0
 43
0.00082
 43
0.0
 43
0.0
 43
0.0
 43
0.0
 43
1.0
 43
0.0
 43
0.0
 43
0.0
 43
0.0
 43
1.0
 77
     0
 47
0.00082
 47
0.0
 47
0.0
 47
0.0
 47
0.0
 47
0.00082
 47
0.0
 47
0.0
 47
0.0
 47
0.0
 47
1.0
 47
0.0
 47
0.0
 47
0.0
 47
0.0
 47
1.0
171
     0
 49
0.00082
 49
0.0
 49
0.0
 49
0.0
 49
0.0
 49
0.00082
 49
0.0
 49
0.0
 49
0.0
 49
0.0
 49
1.0
 49
0.0
 49
0.0
 49
0.0
 49
0.0
 49
1.0
175
     0
142
0.00082
142
0.0
142
0.0
142
0.0
142
0.0
142
0.00082
142
0.0
142
0.0
142
0.0
142
0.0
142
1.0
142
0.0
142
0.0
142
0.0
142
0.0
142
1.0
179
     0
144
0.00082
144
0.0
144
0.0
144
0.0
144
0.0
144
0.00082
144
0.0
144
0.0
144
0.0
144
0.0
144
1.0
144
0.0
144
0.0
144
0.0
144
0.0
144
1.0
147
0.00082
147
0.0
147
0.0
147
0.0
147
0.0
147
0.00082
147
0.0
147
0.0
147
0.0
147
0.0
147
1.0
147
0.0
147
0.0
147
0.0
147
0.0
147
1.0
  0
MATERIAL
  5
CFA6
102
{ACAD_XDICTIONARY
360
CFA7
102
}
102
{ACAD_REACTORS
330
CF7C
102
}
330
CF7C
100
AcDbMaterial
  1
ByLayer
 72
     0
 43
0.00082
 43
0.0
 43
0.0
 43
0.0
 43
0.0
 43
0.00082
 43
0.0
 43
0.0
 43
0.0
 43
0.0
 43
1.0
 43
0.0
 43
0.0
 43
0.0
 43
0.0
 43
1.0
 77
     0
 47
0.00082
 47
0.0
 47
0.0
 47
0.0
 47
0.0
 47
0.00082
 47
0.0
 47
0.0
 47
0.0
 47
0.0
 47
1.0
 47
0.0
 47
0.0
 47
0.0
 47
0.0
 47
1.0
171
     0
 49
0.00082
 49
0.0
 49
0.0
 49
0.0
 49
0.0
 49
0.00082
 49
0.0
 49
0.0
 49
0.0
 49
0.0
 49
1.0
 49
0.0
 49
0.0
 49
0.0
 49
0.0
 49
1.0
175
     0
142
0.00082
142
0.0
142
0.0
142
0.0
142
0.0
142
0.00082
142
0.0
142
0.0
142
0.0
142
0.0
142
1.0
142
0.0
142
0.0
142
0.0
142
0.0
142
1.0
179
     0
144
0.00082
144
0.0
144
0.0
144
0.0
144
0.0
144
0.00082
144
0.0
144
0.0
144
0.0
144
0.0
144
1.0
144
0.0
144
0.0
144
0.0
144
0.0
144
1.0
147
0.00082
147
0.0
147
0.0
147
0.0
147
0.0
147
0.00082
147
0.0
147
0.0
147
0.0
147
0.0
147
1.0
147
0.0
147
0.0
147
0.0
147
0.0
147
1.0
  0
MATERIAL
  5
CF7B
102
{ACAD_XDICTIONARY
360
CF7D
102
}
102
{ACAD_REACTORS
330
CF7C
102
}
330
CF7C
100
AcDbMaterial
  1
Global
 72
     0
 43
0.00082
 43
0.0
 43
0.0
 43
0.0
 43
0.0
 43
0.00082
 43
0.0
 43
0.0
 43
0.0
 43
0.0
 43
1.0
 43
0.0
 43
0.0
 43
0.0
 43
0.0
 43
1.0
 77
     0
 47
0.00082
 47
0.0
 47
0.0
 47
0.0
 47
0.0
 47
0.00082
 47
0.0
 47
0.0
 47
0.0
 47
0.0
 47
1.0
 47
0.0
 47
0.0
 47
0.0
 47
0.0
 47
1.0
171
     0
 49
0.00082
 49
0.0
 49
0.0
 49
0.0
 49
0.0
 49
0.00082
 49
0.0
 49
0.0
 49
0.0
 49
0.0
 49
1.0
 49
0.0
 49
0.0
 49
0.0
 49
0.0
 49
1.0
175
     0
142
0.00082
142
0.0
142
0.0
142
0.0
142
0.0
142
0.00082
142
0.0
142
0.0
142
0.0
142
0.0
142
1.0
142
0.0
142
0.0
142
0.0
142
0.0
142
1.0
179
     0
144
0.00082
144
0.0
144
0.0
144
0.0
144
0.0
144
0.00082
144
0.0
144
0.0
144
0.0
144
0.0
144
1.0
144
0.0
144
0.0
144
0.0
144
0.0
144
1.0
147
0.00082
147
0.0
147
0.0
147
0.0
147
0.0
147
0.00082
147
0.0
147
0.0
147
0.0
147
0.0
147
1.0
147
0.0
147
0.0
147
0.0
147
0.0
147
1.0
  0
MLINESTYLE
  5
CFBA
102
{ACAD_REACTORS
330
CFA4
102
}
330
CFA4
100
AcDbMlineStyle
  2
STANDARD
 70
     0
  3

 62
   256
 51
90.0
 52
90.0
 71
     2
 49
0.5
 62
   256
  6
BYLAYER
 49
-0.5
 62
   256
  6
BYLAYER
  0
ACDBPLACEHOLDER
  5
CF78
102
{ACAD_REACTORS
330
CF79
102
}
330
CF79
  0
SCALE
  5
CFBE
102
{ACAD_REACTORS
330
CFB7
102
}
330
CFB7
100
AcDbScale
 70
     0
300
1:1
140
1.0
141
1.0
290
     1
  0
SCALE
  5
CFBF
102
{ACAD_REACTORS
330
CFB7
102
}
330
CFB7
100
AcDbScale
 70
     0
300
1:2
140
1.0
141
2.0
290
     0
  0
SCALE
  5
CFC0
102
{ACAD_REACTORS
330
CFB7
102
}
330
CFB7
100
AcDbScale
 70
     0
300
1:4
140
1.0
141
4.0
290
     0
  0
SCALE
  5
CFC1
102
{ACAD_REACTORS
330
CFB7
102
}
330
CFB7
100
AcDbScale
 70
     0
300
1:5
140
1.0
141
5.0
290
     0
  0
SCALE
  5
CFC2
102
{ACAD_REACTORS
330
CFB7
102
}
330
CFB7
100
AcDbScale
 70
     0
300
1:8
140
1.0
141
8.0
290
     0
  0
SCALE
  5
CFC3
102
{ACAD_REACTORS
330
CFB7
102
}
330
CFB7
100
AcDbScale
 70
     0
300
1:10
140
1.0
141
10.0
290
     0
  0
SCALE
  5
CFC4
102
{ACAD_REACTORS
330
CFB7
102
}
330
CFB7
100
AcDbScale
 70
     0
300
1:16
140
1.0
141
16.0
290
     0
  0
SCALE
  5
CFC5
102
{ACAD_REACTORS
330
CFB7
102
}
330
CFB7
100
AcDbScale
 70
     0
300
1:20
140
1.0
141
20.0
290
     0
  0
SCALE
  5
CFC6
102
{ACAD_REACTORS
330
CFB7
102
}
330
CFB7
100
AcDbScale
 70
     0
300
1:30
140
1.0
141
30.0
290
     0
  0
SCALE
  5
CFC7
102
{ACAD_REACTORS
330
CFB7
102
}
330
CFB7
100
AcDbScale
 70
     0
300
1:40
140
1.0
141
40.0
290
     0
  0
SCALE
  5
CFC8
102
{ACAD_REACTORS
330
CFB7
102
}
330
CFB7
100
AcDbScale
 70
     0
300
1:50
140
1.0
141
50.0
290
     0
  0
SCALE
  5
CFC9
102
{ACAD_REACTORS
330
CFB7
102
}
330
CFB7
100
AcDbScale
 70
     0
300
1:100
140
1.0
141
100.0
290
     0
  0
SCALE
  5
CFCA
102
{ACAD_REACTORS
330
CFB7
102
}
330
CFB7
100
AcDbScale
 70
     0
300
2:1
140
2.0
141
1.0
290
     0
  0
SCALE
  5
CFCB
102
{ACAD_REACTORS
330
CFB7
102
}
330
CFB7
100
AcDbScale
 70
     0
300
4:1
140
4.0
141
1.0
290
     0
  0
SCALE
  5
CFCC
102
{ACAD_REACTORS
330
CFB7
102
}
330
CFB7
100
AcDbScale
 70
     0
300
8:1
140
8.0
141
1.0
290
     0
  0
SCALE
  5
CFCD
102
{ACAD_REACTORS
330
CFB7
102
}
330
CFB7
100
AcDbScale
 70
     0
300
10:1
140
10.0
141
1.0
290
     0
  0
SCALE
  5
CFCE
102
{ACAD_REACTORS
330
CFB7
102
}
330
CFB7
100
AcDbScale
 70
     0
300
100:1
140
100.0
141
1.0
290
     0
  0
TABLESTYLE
  5
CFBB
102
{ACAD_XDICTIONARY
360
CFE0
102
}
102
{ACAD_REACTORS
330
CFB8
102
}
330
CFB8
100
AcDbTableStyle
  3
Standard
 70
     0
 71
     0
 40
1.5
 41
1.5
280
     0
281
     0
  7
Standard
140
4.5
170
     2
 62
     0
 63
     7
283
     0
274
    -2
284
     1
 64
     0
275
    -2
285
     1
 65
     0
276
    -2
286
     1
 66
     0
277
    -2
287
     1
 67
     0
278
    -2
288
     1
 68
     0
279
    -2
289
     1
 69
     0
  7
Standard
140
6.0
170
     5
 62
     0
 63
     7
283
     0
274
    -2
284
     1
 64
     0
275
    -2
285
     1
 65
     0
276
    -2
286
     1
 66
     0
277
    -2
287
     1
 67
     0
278
    -2
288
     1
 68
     0
279
    -2
289
     1
 69
     0
  7
Standard
140
4.5
170
     5
 62
     0
 63
     7
283
     0
274
    -2
284
     1
 64
     0
275
    -2
285
     1
 65
     0
276
    -2
286
     1
 66
     0
277
    -2
287
     1
 67
     0
278
    -2
288
     1
 68
     0
279
    -2
289
     1
 69
     0
  0
VISUALSTYLE
  5
CF9C
102
{ACAD_XDICTIONARY
360
CFE4
102
}
102
{ACAD_REACTORS
330
CF9D
102
}
330
CF9D
100
AcDbVisualStyle
  2
2dWireframe
 70
     4
 71
     0
 72
     2
 73
     0
 90
        0
 40
-0.6
 41
-30.0
 62
     5
 63
     7
421
 16777215
 74
     1
 91
        4
 64
     7
 65
   257
 75
     1
175
     1
 42
1.0
 92
        0
 66
   257
 43
1.0
 76
     1
 77
     6
 78
     2
 67
     7
 79
     5
170
     0
171
     0
290
     0
174
     0
 93
        1
 44
0.0
173
     0
291
     0
 45
0.0
1001
ACAD
1000
AcDbSavedByObjectVersion
1070
     0
  0
VISUALSTYLE
  5
CFBD
102
{ACAD_XDICTIONARY
360
CFEB
102
}
102
{ACAD_REACTORS
330
CF9D
102
}
330
CF9D
100
AcDbVisualStyle
  2
3dWireframe
 70
     5
 71
     0
 72
     2
 73
     0
 90
        0
 40
-0.6
 41
-30.0
 62
     5
 63
     7
421
 16777215
 74
     1
 91
        4
 64
     7
 65
   257
 75
     1
175
     1
 42
1.0
 92
        0
 66
   257
 43
1.0
 76
     1
 77
     6
 78
     2
 67
     7
 79
     5
170
     0
171
     0
290
     0
174
     0
 93
        1
 44
0.0
173
     0
291
     0
 45
0.0
1001
ACAD
1000
AcDbSavedByObjectVersion
1070
     0
  0
VISUALSTYLE
  5
CFBC
102
{ACAD_XDICTIONARY
360
CFE9
102
}
102
{ACAD_REACTORS
330
CF9D
102
}
330
CF9D
100
AcDbVisualStyle
  2
Realistic
 70
     8
 71
     2
 72
     2
 73
     0
 90
        0
 40
-0.6
 41
-30.0
 62
     5
 63
     7
421
 16777215
 74
     1
 91
        0
 64
     7
 65
   257
 75
     1
175
     1
 42
1.0
 92
        8
 66
     8
424
  7895160
 43
1.0
 76
     1
 77
     6
 78
     2
 67
     7
 79
     5
170
     0
171
     0
290
     0
174
     0
 93
       13
 44
0.0
173
     0
291
     0
 45
0.0
1001
ACAD
1000
AcDbSavedByObjectVersion
1070
     0
  0
DICTIONARYVAR
  5
CFDE
102
{ACAD_REACTORS
330
CFDB
102
}
330
CFDB
100
DictionaryVariables
280
     0
  1
1:1
  0
DICTIONARYVAR
  5
CFDD
102
{ACAD_REACTORS
330
CFDB
102
}
330
CFDB
100
DictionaryVariables
280
     0
  1
STANDARD
  0
DICTIONARYVAR
  5
CFDC
102
{ACAD_REACTORS
330
CFDB
102
}
330
CFDB
100
DictionaryVariables
280
     0
  1
STANDARD
  0
XRECORD
  5
5B
102
{ACAD_REACTORS
330
CFD1
102
}
330
CFD1
100
AcDbXrecord
280
     1
310
0800000000000000000000000600100000060030000000000000000000408F40E80300000A000000000000000000F03F000000000088C3400000000000805640000000000000F03F000000000000F03F000000000000F03F000000000000F03F000000000000F03F0000000000000000000000000000000000000000000000
310
000000000000000000000000000000000000000000CD065FC1000000807A914DC1000000000000000000000000E0A1094100000000A003EE40000000000000000065000000000000000100000024000000FFFFFFFF000000000000000001000000000000000000000000000000000000000000000000004940000000000000
310
000000000000000000000000000000000000000000000000000000000000000000000000000000000000000000000000000000000000000000000004000000000000000000000070A74000000000007CA5400000000000000000000000000000000000000000000000000000000000000000000000000000000004E7280051
310
040C6800000000000000000000000000000000000000000000000000000000000000000000000000000000000000000000000000000000000000000000000000000000000000000000000000000000000000000000000000080000000000000000000000000000000000000000000000000000000000000000000000000000
310
00000000000000000000000000000000000000000000000000000000000000000000000000000000000000004A00000000000000000000000000090000000000020000400100000000000500070101000000000000000000000000000000000000000000000000000000000000000000000000000000000000000000000000
310
00000000000000000000000000000000000000000000000000000000000000000000000000000000000000000000000000000000000000000000000000000000000000000001000000000000000000000000000000000075006E006B0000000000000000000000000000000000000000000000000000000000000000000000
310
00000000000000000000000000000000000000000000000000000000000000000000000000000000000000000000000000000000000000000000000000000000000000000000000000000000000000000000000000000000000000000000000000000000000000000000000000000000000000000000000000000000000000
310
00000000000000000000000000000000000000000000000000000000000000000000000000000000000000000000000000000000000000000000000000000000000000000000000000000000000000000000000000000000000000000000000000000000000000000000000000000000000000000000000000000000000000
310
00000000000000000000000000000000000000000000000000000000000000000000000000000000000000000000000000000000000000000000000000000000000000000000000000000000000000000000000000000000000000000000000000000000000000000000000000000000000000000000000000000000000000
310
00000000000000000000000000000000000000000000000000000000000000000000000000000000000000000000000000000000000000000000000000000000000000000000000000000000000000000000000000000000000000000000000000000000000000000000000000000000000000000000000000000000000000
310
00000000000000000000000000000000000000000000000000000000000000000000000000000000000000000000000000000000000000000000000000000000000000000000000000000000000000000000000000000000000000000000000000000000000000000000000000000000000000000000000000000000000000
310
00000000000000000000000000000000000000000000000000000000000000000000000000000000000000000000000000000000000000000000000000000000000000000000000000000000000000000000000000000000000000000000000000000000000000000000000000000000000000000000000000000000000000
310
00000000000000000000000000000000000000000000000000000000000000000000000000000000000000000000000000000000000000000000000000000000000000000000000000000000000000000000000000000000000000000000000000000000000000000000000000000000000000000000000000000000000000
310
000000000000000000000000000000000000000000000000000000000000000000000000000000000000000000000000000000000000000000000000000000000000000000000000000000000000000000000000000000000000000000000075006E006B000000000000000000000000000000000000000000000000000000
310
00000000000000000000000000000000000000000000000000000000000000000000000000000000000000000000000000000000000000000000000000000000000000000000000000000000000000000000000000000000000000000000000000000000000000000000000000000000000000000000000000000000000000
310
00000000000000000000000000000000000000000000000000000000000000000000000000000000000000000000000000000000000000000000000000000000000000000000000000000000000000000000000000000000000000000000000000000000000000000000000000000000000000000000000000000000000000
310
00000000000000000000000000000000000000000000000000000000000000000000000000000000000000000000000000000000000000000000000000000000000000000000000000000000000000000000000000000000000000000000000000000000000000000000000000000000000000000000000000000000000000
310
00000000000000000000000000000000000000000000000000000000000000000000000000000000000000000000000000000000000000000000000000000000000000000000000000000000000000000000000000000000000000000000000000000000000000000000000000000000000000000000000000000000000000
310
00000000000000000000000000000000000000000000000000000000000000000000000000000000000000000000000000000000000000000000000000000000000000000000000000000000000000000000000000000000000000000000000000000000000000000000000000000000000000000000000000000000000000
310
00000000000000000000000000000000000000000000000000000000000000000000000000000000000000000000000000000000000000000000000000000000000000000000000000000000000000000000000000000000000000000000000000000000000000000000000000000000000000000000000000000000000000
310
00000000000000000000000000000000000000000000000000000000000000000000000000000000000000000000000000000000000000000000000000000000000000000000000000000000000000000000000000000000000000000000000000000000000000000000000000000000000000000000000000000000000000
310
0000000000000000000000000000000000000000000000000000000000000000000000000000000000000000000000000000000000000000000000000000000000000000000000000000000000000000000000000000000000000000000000000000000000000000000000F03F000075006E006B0000000000000000000000
310
00000000000000000000000000000000000000000000000000000000000000000000000000000000000000000000000000000000000000000000000000000000000000000000000000000000000000000000000000000000000000000000000000000000000000000000000000000000000000000000000000000000000000
310
00000000000000000000000000000000000000000000000000000000000000000000000000000000000000000000000000000000000000000000000000000000000000000000000000000000000000000000000000000000000000000000000000000000000000000000000000000000000000000000000000000000000000
310
00000000000000000000000000000000000000000000000000000000000000000000000000000000000000000000000000000000000000000000000000000000000000000000000000000000000000000000000000000000000000000000000000000000000000000000000000000000000000000000000000000000000000
310
00000000000000000000000000000000000000000000000000000000000000000000000000000000000000000000000000000000000000000000000000000000000000000000000000000000000000000000000000000000000000000000000000000000000000000000000000000000000000000000000000000000000000
310
00000000000000000000000000000000000000000000000000000000000000000000000000000000000000000000000000000000000000000000000000000000000000000000000000000000000000000000000000000000000000000000000000000000000000000000000000000000000000000000000000000000000000
310
00000000000000000000000000000000000000000000000000000000000000000000000000000000000000000000000000000000000000000000000000000000000000000000000000000000000000000000000000000000000000000000000000000000000000000000000000000000000000000000000000000000000000
310
00000000000000000000000000000000000000000000000000000000000000000000000000000000000000000000000000000000000000000000000000000000000000000000000000000000000000000000000000000000000000000000000000000000000000000000000000000000000000000000000000000000000000
310
000000000000000000000000000000000000000000000000000000000000000000000000000000000000000000000000000000000000000000000000000000000000000000000000000000000000000000000000000000000000000000000000000000000000000000000000000000000000000000000000000000F03F0000
310
00000080464000000000008046C0000000000088C340000000000088C3400000000000000000000000000000000075006E006B00000000000000000000000000000000000000000000000000000000000000000000000000000000000000000000000000000000000000000000000000000000000000000000000000000000
310
00000000000000000000000000000000000000000000000000000000000000000000000000000000000000000000000000000000000000000000000000000000000000000000000000000000000000000000000000000000000000000000000000000000000000000000000000000000000000000000000000000000000000
310
00000000000000000000000000000000000000000000000000000000000000000000000000000000000000000000000000000000000000000000000000000000000000000000000000000000000000000000000000000000000000000000000000000000000000000000000000000000000000000000000000000000000000
310
00000000000000000000000000000000000000000000000000000000000000000000000000000000000000000000000000000000000000000000000000000000000000000000000000000000000000000000000000000000000000000000000000000000000000000000000000000000000000000000000000000000000000
310
00000000000000000000000000000000000000000000000000000000000000000000000000000000000000000000000000000000000000000000000000000000000000000000000000000000000000000000000000000000000000000000000000000000000000000000000000000000000000000000000000000000000000
310
00000000000000000000000000000000000000000000000000000000000000000000000000000000000000000000000000000000000000000000000000000000000000000000000000000000000000000000000000000000000000000000000000000000000000000000000000000000000000000000000000000000000000
310
00000000000000000000000000000000000000000000000000000000000000000000000000000000000000000000000000000000000000000000000000000000000000000000000000000000000000000000000000000000000000000000000000000000000000000000000000000000000000000000000000000000000000
310
00000000000000000000000000000000000000000000000000000000000000000000000000000000000000000000000000000000000000000000000000000000000000000000000000000000000000000000000000000000000000000000000000000000000000000000000000000000000000000000000000000000000000
310
00000000000000000000000000000000000000000000000000000000000000000000000000000000000000000000000000000000000000000000000000000000000000000000000000000000000000000000000000000000000000000000000000000000000000000000000000000000000000000000000000000000000000
310
00000000000000000000000000000000000000000000000000000000000000000000000000000000000000000000000000000000000000000000000000000000000000000000000000000000408F400000000000409F4000000000000000000000000000000000000000000000000000000000000000000000000000000000
310
080000000700000000000000008046400000000000000000000000000088C340000000000088C3400000000000002440000000000088C340000000000088C3400000000000000000000000000088C340000000000088C34000000000000000000000000000003E40000000000088C340000000000088C340000000000088C3
310
40000000000088A3C000000000000000000000000000805640000000000088C34006000300040014000100000301010100000000000000000000000000000000000000000000000000000000000000F03F000000000000000000000000000000000000000000000000000000000000F03F0000000000000000000000000000
310
00000000000000000000000000000000F03F00000000000000000000000000000000000000000000000000000000000000000000000000000000000000000000000000000000000000000000000000000000000000000000000000000000000000000000000000000000000000000000000000000000000000000000000000
310
00000000000000000000000000000000000000152100000002000027003800B5FF0900010A0066D107000000000000000014C000000000000000000000000000000000000000000000000000000000000000000000000000000000000000000000F03F000000000000F03F000000000000F03F000000000000F03F00000000
310
0000F03F000000000000F03F000000000000F03F000000000000F03F333333333333D33F000000000000F03F000000000000F03F000000000000F03F333333333333D33F0000000000000000000000000000E83F0000000000000000000000000000F03F000000000000F03F000000000000F03F7B14AE47E17A943F000000
310
000000E03F00000700D0070000000000000000000000000000000000000000000000000000000000000000000000000000000000000000000000000000000000000000000000000000000000000000000000000000000000000000000000000000000000000000000000000000000000000000000000000000000000000000
310
0000000000000000000000000000000000000000000000000000000000000000000000000000000000000000000000000000000000000000000008000000003A5C756E6F5C563843454C4C5C574F4F442E43454C00000000000000000000000000000000000000000000000000000000000000000000000000000000000000
310
00000000000000000000000000000000000000000000000000000000000000000000000000000000000000000000000000000000000000000000000000000000000000000000000000000000000000000000000000000000000000000000000000000000000000000000000000000000000000000000000000000000000000
310
00000000000000000000000000000000000000000000000000000000000000000000000000000000000000000000000000000000000000000000000000000000000000000000000000000000000000000000000000000000000000000000000000000000000000000000000000000000000000000000000000000000000000
310
00000000000000000000000000000000000000000000000000000000000000000000000000000000000000000000000000000000000000000000000000000000000000000000000000000000000000000000000000000000000000000000000000000000000000000000000000000000000000000000000000000000000000
310
00000000000000000000000000000000000000000000000000000000000000000000000000000000000000000000000000000000000000000000000000000000000003000000000000000000000000000000000000000000000001000000000000000000000000000000000000000000000000000000140000000000000000
310
00000000000000000000000000000000000000000000000000000006000000000000004000000000000000000000000000F03F000000000000F03F000000000000F03F000000000000F03F000000000F00000000000000000000000000000006200000000000000000000000000000A00000000F0A00000000000000000000
310
00000000000000000088C34000000000010000000000000000000000000000000000000000000000000000000000000000000000000000000000000000000000000000000000000000000000000000000000000000000000000000000000000000000000000000000000000000000000000000000000000000000000000000
310
00000000000000000000000000000000000000000000000000000000000000000000000000000000000000000000000000000000000000000000000000000000000000000000000000000000000000000000000000000000000000000000000000000000000000000000000000000000000000000000000000000000000000
310
00000000000000000000000000000000000000000000000000000000000000000000000000000000000000000000000000000000000000000000000000000000000000000000000000000000000000000000000000000000000000000000000000000000000000000000000059400100000004000000000000000400000000
310
000000000000000000000001000000000000000000000000000000000000000000000000000000000000000000E83F000000000000D03F00000000000000000000000000000000000000000000000000000000000000000000000000000000000000000000000000000000000000000000000000000000FCA9F1D24D62503F
310
00000000000000000000000000002440000000000000000000000000008066400000000000000000000000000000000000840000000000000000000000000000000000000000000000000000000000000000000000000000000000000000000000000000000000000000000000000000000000000000000000000000000000
310
000000000000000000000000000000E03F0000000000000000000000000000000000000000000000000000000000000000000000000000000000000000000000000000000000000000000000000000000000000000000000000000000000000000000000000000000000000000000000000000000000000000000000000000
310
00000000000000000000100400000000000000000000000000000000000000000000000000000000000000000000000000000000000000000000000000000000000000000000000000000000000000000000000000000000000000000000000000000000000000000000000000000000000000000000000000000000000000
310
00000000000000000000000000000000000000000000000000000000000000000000000000000000000000000000000000000000000000000000000000000000000000000000000000000000000000000000000000000000000000000000000000000000000000000000000000000000000000000000000000F03F00000000
310
00000000000000000000F03F00000000000000000000000000000000000000000080564001020000040000000000000004000000000000000A000000040000000000000004000000000000000A0000000000000001000000000000000000000000000000000000000000000000000000000000000000000000000000000000
310
00000000000000000000000000000000000000000000000000000000000000000000000000000000000000000000000000000000000000000000000000000000000000000000000000000000000000000000000000000000000000000000000000000000000000000000000000000000000088C34000000000000000000000
310
00000088C3400000000000000000000000000088C3400000000000000000000000000088C340000000000000000000000000000000000000000000000000000000000000000000000000000000000000000000000000000000000000000041000000000000009A9999999999B93F9A9999999999B93F01000000000000009A
310
9999999999B93F9A9999999999B93F40010000000000000000000000000000000000000000000013030000000000000000000000000000000000000000000000000000000000000000000000000000000000000000000000000000000000000100000000000000000000000000000000000000000000000100000000000000
310
7B14AE47E17A843F0100000000000000000000000000E03F0100000000000000000000000000E03F000000000000000000000000000000000000000000000000000000000000000000000000000000000000000000000000000000000000000000000000000000000000000000000000000000000088C34000000000000000
310
00000000000088C3400000000000000000000000000088C34038000000000000000000000000000000000000000088C340FFFFFFFF00000000000000000088B34000000000000000000000000000000000000000000088C3400000000000000000000000000088C3400000000000000000000000000000000000000000006A
310
E840010000000000000000000000006AE840010000000000000000000000006AF840000000000000000000000000006AE840000000000000000028000000000000000000000000002440000000000000000000000000006AF84000000000000000000000000000000000000000000000000000000000000024400000000000
310
0000000100000000000000000000000000244040000800000000000000000000002440048000000000000000000000000024408800000014000000000000000000000000000000000000009A9999999999B93F9A9999999999B93F000000000088C34088808000140000001400000000000000000000000000000000000000
310
0000000000000000000000000000000000000000000000000000F03F9A9999999999B93F0000000000000000000000000A0000000A0000000000000000000000000000000000000000000000000000000000000000000000000000000000000000000000C00000000000000000000000000000009A9999999999B93F000000
310
0000000000000000000000000000000000000000000000000000000000000000000000000000000000000000000400000000000000000000000088C340000000000088C34000000000008036408DEDB5A0F7C6B03E000000004000000002000000010000000800000000000000000000000000F03F00000000000000000000
310
00000000F03F1000000000000000000000000000F03F9001000000000000000000000000F03F0000000000000000000000000000000000000000000000000000000000000000000000000000000000000000000000000100000000000000000000000000000000000000010000000000002000000000000000000000000000
310
00000000000000000100000000000000000000000000000000000000002440000000000000000000000000000000000000000000000000000000000000000000000000000000000000000000000000000000000000000000000000000000000000000000000000000000000000000000000000000000000000000000000000
310
00000000000000000000000000000000000000000000000000000000000000000000000000000000000000000000000000000000000000000000000000000000000000000000000000000000000000000000000000000000000000000000000000000000000000000000000000000000000000000000000000000000000000
310
00000000000000F03F000000000000F03F00000000000000000000000000000000000000000000F03F000000000000000000000000000000000000000000000000000000000000000000000000000000000000000000000000000000000000F03F000000000000F03F00000000008056400000000000000000000000000000
310
00000000000000002440000000000000444000000000000000000000000000000000000000000000000000000000000000000000000000000000000000000000000000000000000000000000000000000000000000000000000014000005010000000000000000000000000000000000000001000000000000000200000000
310
00000004000000E80300000010000000000000040000000000000000000000000000000000000000000000000000000000000000000000000000000000000000000000000000000000000000000000000000000000000000000000000000000000000000000000000000000000000000000000000000000000000000000000
310
00000000000000000000000000000000000000000000000000000000000000000000000000000000000000000000000000000000000000000000000000000000000000000000000000000000000000000000000000000000000000000000000000000000000000000000000000000000000000000000000000000000000000
310
00000000000000000000000000000000000000000000000000000000000000000000000000000000000000000000000000000000000000000000000000000000000000000000000000000000000000000000000000000000000000000000000000000000000000000000000000000000000000000000000000000000000000
310
00000000000000000000000000000000000000000000000000000000000000000000000000000000000000000000000000000000000000000000000000000000000000000000000000000000000000000000000000000000000000000000000000000000000000000000000000000000000000000000000000000000000000
310
00000000000000000000000000000000000000000000000000000000000000000000000000000000000000000000000000000000000000000000000000000000000000000000000000000000000000000000000000000000000000000000000000000000000000000000000000000000000000000000000000000000000000
310
00000000000000000000000000000000000000000000000000000000000000000000000000000000000000000000000000000000000000000000000000000000000000000000000000000000000000000000000000000000000000000000000000000000000000000000000000000000000000000000000000000000000000
310
00000000000000000000000000000000000000000000000000
  0
DICTIONARY
  5
CF8D
330
CF8C
100
AcDbDictionary
280
     1
281
     1
  3
ADSK_XREC_LAYOUTTHUMBNAIL
360
CF8E
  0
DICTIONARY
  5
CFAF
330
CFAE
100
AcDbDictionary
280
     1
281
     1
  3
ACAD_XREC_ROUNDTRIP
360
CFE7
  3
BUMPTILE
360
CFB0
  3
DIFFUSETILE
360
CFB1
  3
OPACITYTILE
360
CFB2
  3
REFLECTIONTILE
360
CFB3
  3
REFRACTIONTILE
360
CFB4
  3
SPECULARTILE
360
CFB5
  0
DICTIONARY
  5
CFA7
330
CFA6
100
AcDbDictionary
280
     1
281
     1
  3
ACAD_XREC_ROUNDTRIP
360
CFE6
  3
BUMPTILE
360
CFA8
  3
DIFFUSETILE
360
CFA9
  3
OPACITYTILE
360
CFAA
  3
REFLECTIONTILE
360
CFAB
  3
REFRACTIONTILE
360
CFAC
  3
SPECULARTILE
360
CFAD
  0
DICTIONARY
  5
CF7D
330
CF7B
100
AcDbDictionary
280
     1
281
     1
  3
ACAD_XREC_ROUNDTRIP
360
CFE3
  3
BUMPTILE
360
CF7E
  3
DIFFUSETILE
360
CF7F
  3
OPACITYTILE
360
CF80
  3
REFLECTIONTILE
360
CF81
  3
REFRACTIONTILE
360
CF82
  3
SPECULARTILE
360
CF83
  0
DICTIONARY
  5
CFE0
330
CFBB
100
AcDbDictionary
280
     1
281
     1
  3
ACAD_ROUNDTRIP_2008_TABLESTYLE_CELLSTYLEMAP
360
CFE1
  3
ACAD_XREC_ROUNDTRIP
360
CFE8
  0
DICTIONARY
  5
CFE4
330
CF9C
100
AcDbDictionary
280
     1
281
     1
  3
ACAD_XREC_ROUNDTRIP
360
CFE5
  0
DICTIONARY
  5
CFEB
330
CFBD
100
AcDbDictionary
280
     1
281
     1
  3
ACAD_XREC_ROUNDTRIP
360
CFEC
  0
DICTIONARY
  5
CFE9
330
CFBC
100
AcDbDictionary
280
     1
281
     1
  3
ACAD_XREC_ROUNDTRIP
360
CFEA
  0
XRECORD
  5
CF8E
102
{ACAD_REACTORS
330
CF8D
102
}
330
CF8D
100
AcDbXrecord
280
     1
310
28000000B40000007F00000001000800000000004C59000000000000000000000001000000000000FFFFFF0000000000FFFFFF000000000000000000000000000000000000000000000000000000000000000000330000006600000099000000CC000000FF00000000330000333300006633000099330000CC330000FF3300
310
0000660000336600006666000099660000CC660000FF66000000990000339900006699000099990000CC990000FF99000000CC000033CC000066CC000099CC0000CCCC0000FFCC000000FF000033FF000066FF000099FF0000CCFF0000FFFF000000003300330033006600330099003300CC003300FF003300003333003333
310
33006633330099333300CC333300FF33330000663300336633006666330099663300CC663300FF66330000993300339933006699330099993300CC993300FF99330000CC330033CC330066CC330099CC3300CCCC3300FFCC330000FF330033FF330066FF330099FF3300CCFF3300FFFF330000006600330066006600660099
310
006600CC006600FF00660000336600333366006633660099336600CC336600FF33660000666600336666006666660099666600CC666600FF66660000996600339966006699660099996600CC996600FF99660000CC660033CC660066CC660099CC6600CCCC6600FFCC660000FF660033FF660066FF660099FF6600CCFF6600
310
FFFF660000009900330099006600990099009900CC009900FF00990000339900333399006633990099339900CC339900FF33990000669900336699006666990099669900CC669900FF66990000999900339999006699990099999900CC999900FF99990000CC990033CC990066CC990099CC9900CCCC9900FFCC990000FF99
310
0033FF990066FF990099FF9900CCFF9900FFFF99000000CC003300CC006600CC009900CC00CC00CC00FF00CC000033CC003333CC006633CC009933CC00CC33CC00FF33CC000066CC003366CC006666CC009966CC00CC66CC00FF66CC000099CC003399CC006699CC009999CC00CC99CC00FF99CC0000CCCC0033CCCC0066CC
310
CC0099CCCC00CCCCCC00FFCCCC0000FFCC0033FFCC0066FFCC0099FFCC00CCFFCC00FFFFCC000000FF003300FF006600FF009900FF00CC00FF00FF00FF000033FF003333FF006633FF009933FF00CC33FF00FF33FF000066FF003366FF006666FF009966FF00CC66FF00FF66FF000099FF003399FF006699FF009999FF00CC
310
99FF00FF99FF0000CCFF0033CCFF0066CCFF0099CCFF00CCCCFF00FFCCFF0000FFFF0033FFFF0066FFFF0099FFFF00CCFFFF00FFFFFF00000000000D0D0D001A1A1A00282828003535350043434300505050005D5D5D006B6B6B00787878008686860093939300A1A1A100AEAEAE00BBBBBB00C9C9C900D6D6D600E4E4E400
310
F1F1F100FFFFFF0000000000000000000000000000000000000000000000000000000000000000000000000000000000E2E2E2E2E2E2E2E2E2E2E2E2E2E2E2E2E2E2E2E2E2E2E2E2E2E2E2E2E2E2E2E2E2E2E2E2E2E2E2E2E2E2E2E2E2E2E2E2E2E2E2E2E2E2E2E2E2E2E2E2E2E2E2E2E2E2E2E2E2E2E2E2E2E2E2E2E2E2E2
310
E2E2E2E2E2E2E2E2E2E2E2E2E2E2E2E2E2E2E2E2E2E2E2E2E2E2E2E2E2E2E2E2E2E2E2E2E2E2E2E2E2E2E2E2E2E2E2E2E2E2E2E2E2E2E2E2E2E2E2E2E2E2E2E2E2E2E2E2E2E2E2E2E2E2E2E2E2E2E2E2E2E2E2E2E2E2E2E2E2E2E2E2E2E2E2E2E2E2E2E2E2E2F5F5F5F5F5F5F5F5F5F5F5F5F5F5F5F5F5F5F5F5F5F5F5F5F5
310
F5F5F5F5F5F5F5F5F5F5F5F5F5F5F5F5F5F5F5F5F5F5F5F5F5F5F5F5F5F5F5F5F5F5F5F5F5F5F5F5F5F5F5F5F5F5F5F5F5F5F5F5F5F5F5F5F5F5F5F5F5F5F5F5F5F5F5F5F5F5F5F5F5F5F5F5F5F5F5F5F5F5F5F5F5F5F5F5F5F5F5F5F5F5F5F5F5F5F5F5F5F5F5F5F5F5F5F5F5F5F5F5F5F5F5F5F5F5F5F5F5F5F5F5F5F5F5
310
F5F5F5F5F5F5F5F5F5F5F5F5F5F5F5F5F5F5F5F5F5F5F5F5F5E2E2E2F5F5F5F5F5F5F5F5F5F5F5F5F5F5F5F5F5F5F5F5F5F5F5F5F5F5F5F5F5F5F5F5F5F5F5F5F5F5F5F5F5F5F5F5F5F5F5F5F5F5F5F5F5F5F5F5F5F5F5F5F5F5F5F5F5F5F5F5F5F5F5F5F5F5F5F5F5F5F5F5F5F5F5F5F5F5F5F5F5F5F5F5F5F5F5F5F5F5F5
310
F5F5F5F5F5F5F5F5F5F5F5F5F5F5F5F5F5F5F5F5F5F5F5F5F5F5F5F5F5F5F5F5F5F5F5F5F5F5F5F5F5F5F5F5F5F5F5F5F5F5F5F5F5F5F5F5F5F5F5F5F5F5F5F5F5F5F5F5F5F5F5F5F5F5F5F5F5F5E2E2E2F5F5F5F5F5F5F5F5F5F5F5F5F5F5F5F5F5F5F5F5F5F5F5F5F5F5F5F5F5F5F5F5F5F5F5F5F5F5F5F5F5F5F5F5F5F5
310
F5F5F5F5F5F5F5F5F5F5F5F5F5F5F5F5F5F5F5F5F5F5F5F5F5F5F5F5F5F5F5F5F5F5F5F5F5F5F5F5F5F5F5F5F5F5F5F5F5F5F5F5F5F5F5F5F5F5F5F5F5F5F5F5F5F5F5F5F5F5F5F5F5F5F5F5F5F5F5F5F5F5F5F5F5F5F5F5F5F5F5F5F5F5F5F5F5F5F5F5F5F5F5F5F5F5F5F5F5F5F5F5F5F5F5F5F5F5F5F5F5F5F5F5F5F5F5
310
F5F5F5F5E2E2E2F5F5F5F5F5F5F5F5F5F5F5F5F5F5F5F5F5F5F5F5F5F5F5F5F5F5F5F5F5F5F5F5F5F5F5F5F5F5F5F5F5F5F5F5F5F5F5F5F5F5F5F5F5F5F5F5F5F5F5F5F5F5F5F5F5F5F5F5F5F5F5F5F5F5F5F5F5F5F5F5F5F5F5F5F5F5F5F5F5F5F5F5F5F5F5F5F5F5F5F5F5F5F5F5F5F5F5F5F5F5F5F5F5F5F5F5F5F5F5F5
310
F5F5F5F5F5F5F5F5F5F5F5F5F5F5F5F5F5F5F5F5F5F5F5F5F5F5F5F5F5F5F5F5F5F5F5F5F5F5F5F5F5F5F5F5F5F5F5F5F5F5F5F5F5F5F5F5F5E2E2E2F5F5F5F5F5F5F5F5F5F5F5E2E2E2E2E2E2E2E2E2F5F5F5F5F5F5F5F5F5E2E2E2E2E2E2E2E2E2E2E2E2E2E2E2E2F5F5F5F5F5F5F5F5F5F5E2E2E2E2E2E2E2E2E2E2E2E2
310
E2E2E2E2F5F5F5F5F5F5F5F5F5E2E2E2E2E2E2E2E2E2E2E2E2E2E2E2E2E2F5F5F5F5F5F5F5F5F5E2E2E2E2E2E2E2E2E2E2E2E2E2E2E2E2F5F5F5F5F5F5F5F5F5F5E2E2E2E2E2E2E2E2E2E2E2E2E2E2E2E2F5F5F5F5F5F5F5F5F5E2E2E2E2E2E2E2E2E2F5F5F5F5F5F5F5F5F5F5F5E2E2E2F5F5F5F5F5F5F5F5F5F5F5E2F5F5
310
F5F5F5F5F5F5F5F5F5F5F5F5F5F5F5F5F5F5F5F5F5F5F5F5F5F5F5F5F5F5F5F5F5F5F5F5F5F5F5F5F5F5F5F5F5F5F5F5F5F5F5F5F5F5F5F5F5F5F5F5F5F5F5F5F5F5F5F5F5F5F5F5F5F5F5F5F5F5F5F5F5F5F5F5F5F5F5F5F5F5F5F5F5F5F5F5F5F5F5F5F5F5F5F5F5F5F5F5F5F5F5F5F5F5F5F5F5F5F5F5F5F5F5F5F5F5F5
310
F5F5F5F5F5F5F5F5F5F5F5F5F5F5F5F5F5F5F5F5F5F5F5F5E2F5F5F5F5F5F5F5F5F5F5F5E2E2E2F5F5F5F5F5F5F5F5F5F5F5E2F5F5F5F5F5F5F5F5F5F5F5F5F5F5F5F5F5F5F5F5F5F5F5F5F5F5F5F5F5F5F5F5F5F5F5F5F5F5F5F5F5F5F5F5F5F5F5F5F5F5F5F5F5F5F5F5F5F5F5F5F5F5F5F5F5F5F5F5F5F5F5F5F5F5F5F5
310
F5F5F5F5F5F5F5F5F5F5F5F5F5F5F5F5F5F5F5F5F5F5F5F5F5F5F5F5F5F5F5F5F5F5F5F5F5F5F5F5F5F5F5F5F5F5F5F5F5F5F5F5F5F5F5F5F5F5F5F5F5F5F5F5F5F5F5F5F5F5F5F5F5F5F5F5F5E2F5F5F5F5F5F5F5F5F5F5F5E2E2E2F5F5F5F5F5F5F5F5F5F5F5E2F5F5F5F5F5F5F5F5F5F5F5F5F5F5F5F5F5F5F5F5F5F5F5
310
F5F5F5F5F5F5F5F5F5F5F5F5F5F5F5F5F5F5F5F5F5F5F5F5F5F5F5F5F5F5F5F5F5F5F5F5F5F5F5F5F5F5F5F5F5F5F5F5F5F5F5F5F5F5F5F5F5F5F5F5F5F5F5F5F5F5F5F5F5F5F5F5F5F5F5F5F5F5F5F5F5F5F5F5F5F5F5F5F5F5F5F5F5F5F5F5F5F5F5F5F5F5F5F5F5F5F5F5F5F5F5F5F5F5F5F5F5F5F5F5F5F5F5F5F5F5F5
310
F5F5F5E2F5F5F5F5F5F5F5F5F5F5F5E2E2E2F5F5F5F5F5F5F5F5F5F5F5E2F5F5F5F5F5F5F5F5F5F5F5F5F5F5F5F5F5F5F5F5F5F5F5F5F5F5F5F5F5F5F5F5F5F5F5F5F5F5F5F5F5F5F5F5F5F5F5F5F5F5F5F5F5F5F5F5F5F5F5F5F5F5F5F5F5F5F5F5F5F5F5F5F5F5F5F5F5F5F5F5F5F5F5F5F5F5F5F5F5F5F5F5F5F5F5F5F5
310
F5F5F5F5F5F5F5F5F5F5F5F5F5F5F5F5F5F5F5F5F5F5F5F5F5F5F5F5F5F5F5F5F5F5F5F5F5F5F5F5F5F5F5F5F5F5F5F5F5F5F5F5F5F5F5F5E2F5F5F5F5F5F5F5F5F5F5F5E2E2E2F5F5F5F5F5F5F5F5F5F5F5E2F5F5F5F5F5F5F5F5F5F5F5F5F5F5F5F5F5F5F5F5F5F5F5F5F5F5F5F5F5F5F5F5F5F5F5F5F5F5F5F5F5F5F5F5
310
F5F5F5F5F5F5F5F5F5F5F5F5F5F5F5F5F5F5F5F5F5F5F5F5F5F5F5F5F5F5F5F5F5F5F5F5F5F5F5F5F5F5F5F5F5F5F5F5F5F5F5F5F5F5F5F5F5F5F5F5F5F5F5F5F5F5F5F5F5F5F5F5F5F5F5F5F5F5F5F5F5F5F5F5F5F5F5F5F5F5F5F5F5F5F5F5F5F5F5F5F5F5F5F5F5F5F5F5F5E2F5F5F5F5F5F5F5F5F5F5F5E2E2E2F5F5F5
310
F5F5F5F5F5F5F5F5E2F5F5F5F5F5F5F5F5F5F5F5F5F5F5F5F5F5F5F5F5F5F5F5F5F5F5F5F5F5F5F5F5F5F5F5F5F5F5F5F5F5F5F5F5F5F5F5F5F5F5F5F5F5F5F5F5F5F5F5F5F5F5F5F5F5F5F5F5F5F5F5F5F5F5F5F5F5F5F5F5F5F5F5F5F5F5F5F5F5F5F5F5F5F5F5F5F5F5F5F5F5F5F5F5F5F5F5F5F5F5F5F5F5F5F5F5F5F5
310
F5F5F5F5F5F5F5F5F5F5F5F5F5F5F5F5F5F5F5F5F5F5F5F5F5F5F5F5F5F5F5F5F5F5F5E2F5F5F5F5F5F5F5F5F5F5F5E2E2E2F5F5F5F5F5F5F5F5F5F5F5E2F5F5F5F5F5F5F5F5F5F5F5F5F5F5F5F5F5F5F5F5F5F5F5F5F5F5F5F5F5F5F5F5F5F5F5F5F5F5F5F5F5F5F5F5F5F5F5F5F5F5F5F5F5F5F5F5F5F5F5F5F5F5F5F5F5
310
F5F5F5F5F5F5F5F5F5F5F5F5F5F5F5F5F5F5F5F5F5F5F5F5F5F5F5F5F5F5F5F5F5F5F5F5F5F5F5F5F5F5F5F5F5F5F5F5F5F5F5F5F5F5F5F5F5F5F5F5F5F5F5F5F5F5F5F5F5F5F5F5F5F5F5F5F5F5F5F5F5F5F5F5F5F5F5F5E2F5F5F5F5F5F5F5F5F5F5F5E2E2E2F5F5F5F5F5F5F5F5F5F5F5F5F5F5F5F5F5F5F5F5F5F5F5F5
310
F5F5F5F5F5F5F5F5F5F5F5F5F5F5F5F5F5F5F5F5F5F5F5F5F5F5F5F5F5F5F5F5F5F5F5F5F5F5F5F5F5F5F5F5F5F5F5F5F5F5F5F5F5F5F5F5F5F5F5F5F5F5F5F5F5F5F5F5F5F5F5F5F5F5F5F5F5F5F5F5F5F5F5F5F5F5F5F5F5F5F5F5F5F5F5F5F5F5F5F5F5F5F5F5F5F5F5F5F5F5F5F5F5F5F5F5F5F5F5F5F5F5F5F5F5F5F5
310
F5F5F5F5F5F5F5F5F5F5F5F5F5F5F5F5F5F5F5F5F5F5F5F5F5F5E2E2E2F5F5F5F5F5F5F5F5F5F5F5F5F5F5F5F5F5F5F5F5F5F5F5F5F5F5F5F5F5F5F5F5F5F5F5F5F5F5F5F5F5F5F5F5F5F5F5F5F5F5F5F5F5F5F5F5F5F5F5F5F5F5F5F5F5F5F5F5F5F5F5F5F5F5F5F5F5F5F5F5F5F5F5F5F5F5F5F5F5F5F5F5F5F5F5F5F5F5
310
F5F5F5F5F5F5F5F5F5F5F5F5F5F5F5F5F5F5F5F5F5F5F5F5F5F5F5F5F5F5F5F5F5F5F5F5F5F5F5F5F5F5F5F5F5F5F5F5F5F5F5F5F5F5F5F5F5F5F5F5F5F5F5F5F5F5F5F5F5F5F5F5F5F5F5F5F5F5F5E2E2E2F5F5F5F5F5F5F5F5F5F5F5F5F5F5F5F5F5F5F5F5F5F5F5F5F5F5F5F5F5F5F5F5F5F5F5F5F5F5F5F5F5F5F5F5F5
310
F5F5F5F5F5F5F5F5F5F5F5F5F5F5F5F5F5F5F5F5F5F5F5F5F5F5F5F5F5F5F5F5F5F5F5F5F5F5F5F5F5F5F5F5F5F5F5F5F5F5F5F5F5F5F5F5F5F5F5F5F5F5F5F5F5F5F5F5F5F5F5F5F5F5F5F5F5F5F5F5F5F5F5F5F5F5F5F5F5F5F5F5F5F5F5F5F5F5F5F5F5F5F5F5F5F5F5F5F5F5F5F5F5F5F5F5F5F5F5F5F5F5F5F5F5F5F5
310
F5F5F5F5F5E2E2E2F5F5F5F5F5F5F5F5F5F5F5F5F5F5F5F5F5F5F5F5F5F5F5F5F5F5E2E2E2E2E2E2E2E2E2E2E2E2E2E2E2E2E2E2E2E2E2E2E2E2E2E2E2E2E2E2E2E2E2E2E2E2E2E2E2E2E2E2E2E2E2E2E2E2E2E2E2E2E2E2E2E2E2E2E2E2E2E2E2E2E2E2E2E2E2E2E2E2E2E2E2E2E2E2E2E2E2E2E2E2E2E2E2E2E2E2E2E2E2
310
E2E2E2E2E2E2E2E2E2E2E2E2E2E2E2E2E2E2E2E2E2E2E2E2E2E2E2E2E2E2E2E2F5F5F5F5F5F5F5F5F5F5F5F5F5F5F5F5F5F5F5F5F5F5F5F5F5F5E2E2E2F5F5F5F5F5F5F5F5F5F5F5F5F5F5F5F5F5F5F5F5F5F5F5F5F5F5E2F5F5F5F5F5F5F5F5F5F5F5F5F5F5F5F5F5F5F5F5F5F5F5F5F5F5F5F5F5F5F5F5F5F5F5F5F5F5F5
310
F5F5F5F5F5F5F5F5F5F5F5F5F5F5F5F5F5F5F5F5F5F5F5F5F5F5F5F5F5F5F5F5F5F5F5F5F5F5F5F5F5F5F5F5F5F5F5F5F5F5F5F5F5F5F5F5F5F5F5F5F5F5F5F5F5F5F5F5F5F5F5F5F5F5F5F5F5F5F5F5F5F5F5F5E2F5F5F5F5F5F5F5F5F5F5F5F5F5F5F5F5F5F5F5F5F5F5F5F5F5F5E2E2E2F5F5F5F5F5F5F5F5F5F5F5F5F5
310
F5F5F5F5F5F5F5F5F5F5F5F5F5E2F5F5F5F5F5F5F5F5F5F5F5F5F5F5F5F5F5F5F5F5F5F5F5F5F5F5F5F5F5F5F5F5F5F5F5F5F5F5F5F5F5F5F5F5F5F5F5F5F5F5F5F5F5F5F5F5F5F5F5F5F5F5F5F5F5F5F5F5F5F5F5F5F5F5F5F5F5F5F5F5F5F5F5F5F5F5F5F5F5F5F5F5F5F5F5F5F5F5F5F5F5F5F5F5F5F5F5F5F5F5F5F5F5
310
F5F5F5F5F5F5F5F5F5F5E2F5F5F5F5F5F5F5F5F5F5F5F5F5F5F5F5F5F5F5F5F5F5F5F5F5F5E2E2E2F5F5F5F5F5F5F5F5F5F5F5F5F5F5F5F5F5F5F5F5F5F5F5F5F5F5E2F5F5F5F5F5F5F5F5F5F5F5F5F5F5F5F5F5F5F5F5F5F5F5F5F5F5F5F5F5F5F5F5F5F5F5F5F5F5F5F5F5F5F5F5F5F5F5F5F5F5F5F5F5F5F5F5F5F5F5F5
310
F5F5F5F5F5F5F5F5F5F5F5F5F5F5F5F5F5F5F5F5F5F5F5F5F5F5F5F5F5F5F5F5F5F5F5F5F5F5F5F5F5F5F5F5F5F5F5F5F5F5F5F5F5F5F5F5F5F5F5F5F5F5F5E2F5F5F5F5F5F5F5F5F5F5F5F5F5F5F5F5F5F5F5F5F5F5F5F5F5F5E2E2E2F5F5F5F5F5F5F5F5F5F5F5F5F5F5F5F5F5F5F5F5F5F5F5F5F5F5E2F5F5F5F5F5F5F5
310
F5F5F5F5F5F5F5F5F5F5F5F5F5F5F5F5F5F5F5F5F5F5F5F5F5F5F5F5F5F5F5F5F5F5F5F5F5F5F5F5F5F5F5F5F5F5F5F5F5F5F5F5F5F5F5F5F5F5F5F5F5F5F5F5F5F5F5F5F5F5F5F5F5F5F5F5F5F5F5F5F5F5F5F5F5F5F5F5F5F5F5F5F5F5F5F5F5F5F5F5F5F5F5F5F5F5F5F5F5F5F5F5F5F5F5F5E2F5F5F5F5F5F5F5F5F5F5
310
F5F5F5F5F5F5F5F5F5F5F5F5F5F5F5F5E2E2E2F5F5F5F5F5F5F5F5F5F5F5E2F5F5F5F5F5F5F5F5F5F5F5F5F5F5E2F5F5F5F5F5F5F5F5F5F5F5F5F5F5F5F5F5F5F5F5F5F5F5F5F5F5F5F5F5F5F5F5F5F5F5F5F5F5F5F5F5F5F5F5F5F5F5F5F5F5F5F5F5F5F5F5F5F5F5F5F5F5F5F5F5F5F5F5F5F5F5F5F5F5F5F5F5F5F5F5F5
310
F5F5F5F5F5F5F5F5F5F5F5F5F5F5F5F5F5F5F5F5F5F5F5F5F5F5F5F5F5F5F5F5F5F5F5F5F5F5F5F5F5F5E2F5F5F5F5F5F5F5F5F5F5F5F5F5F5E2F5F5F5F5F5F5F5F5F5F5F5E2E2E2F5F5F5F5F5F5F5F5F5F5F5E2F5F5F5F5F5F5F5F5F5F5F5F5F5F5E2F5F5F5F5F5F5F5F5F5F5F5F5F5F5F5F5F5F5F5F5F5F5F5F5F5F5F5F5
310
F5F5F5F5F5F5F5F5F5F5F5F5F5F5F5F5F5F5F5F5F5F5F5F5F5F5F5F5F5F5F5F5F5F5F5F5F5F5F5F5F5F5F5F5F5F5F5F5F5F5F5F5F5F5F5F5F5F5F5F5F5F5F5F5F5F5F5F5F5F5F5F5F5F5F5F5F5F5F5F5F5F5F5F5F5F5F5F5F5F5F5F5F5F5F5E2F5F5F5F5F5F5F5F5F5F5F5F5F5F5E2F5F5F5F5F5F5F5F5F5F5F5E2E2E2F5F5
310
F5F5F5F5F5F5F5F5F5E2F5F5F5F5F5F5F5F5F5F5F5F5F5F5E2F5F5F5F5F5F5F5F5F5F5F5F5F5F5F5F5F5F5F5F5F5F5F5F5F5F5F5F5F5F5F5F5F5F5F5F5F5F5F5F5F5F5F5F5F5F5F5F5F5F5F5F5F5F5F5F5F5F5F5F5F5F5F5F5F5F5F5F5F5F5F5F5F5F5F5F5F5F5F5F5F5F5F5F5F5F5F5F5F5F5F5F5F5F5F5F5F5F5F5F5F5F5
310
F5F5F5F5F5F5F5F5F5F5F5F5F5F5F5F5F5F5F5F5F5E2F5F5F5F5F5F5F5F5F5F5F5F5F5F5E2F5F5F5F5F5F5F5F5F5F5F5E2E2E2F5F5F5F5F5F5F5F5F5F5F5E2F5F5F5F5F5F5F5F5F5F5F5F5F5F5E2F5F5F5F5F5F5F5F5F5F5F5F5F5F5F5F5F5F5F5F5F5F5F5F5F5F5F5F5F5F5F5F5F5F5F5F5F5F5F5F5F5F5F5F5F5F5F5F5F5
310
F5F5F5F5F5F5F5F5F5F5F5F5F5F5F5F5F5F5F5F5F5F5F5F5F5F5F5F5F5F5F5F5F5F5F5F5F5F5F5F5F5F5F5F5F5F5F5F5F5F5F5F5F5F5F5F5F5F5F5F5F5F5F5F5F5F5F5F5F5F5F5F5F5F5E2F5F5F5F5F5F5F5F5F5F5F5F5F5F5E2F5F5F5F5F5F5F5F5F5F5F5E2E2E2F5F5F5F5F5F5F5F5F5F5F5E2F5F5F5F5F5F5F5F5F5F5F5
310
F5F5F5E2F5F5F5F5F5F5F5F5F5F5F5F5F5F5F5F5F5F5F5F5F5F5F5F5F5F5F5F5F5F5F5F5F5F5F5F5F5F5F5F5F5F5F5F5F5F5F5F5F5F5F5F5F5F5F5F5F5F5F5F5F5F5F5F5F5F5F5F5F5F5F5F5F5F5F5F5F5F5F5F5F5F5F5F5F5F5F5F5F5F5F5F5F5F5F5F5F5F5F5F5F5F5F5F5F5F5F5F5F5F5F5F5F5F5F5F5F5F5F5F5F5F5F5
310
E2F5F5F5F5F5F5F5F5F5F5F5F5F5F5E2F5F5F5F5F5F5F5F5F5F5F5E2E2E2F5F5F5F5F5F5F5F5F5F5F5E2F5F5F5F5F5F5F5F5F5F5F5F5F5F5E2F5F5F5F5F5F5F5F5F5F5F5F5F5F5F5F5F5F5F5F5F5F5F5F5F5F5F5F5F5F5F5F5F5F5F5F5F5F5F5F5F5F5F5F5F5F5F5F5F5F5F5F5F5F5F5F5F5F5F5F5F5F5F5F5F5F5F5F5F5F5
310
F5F5F5F5F5F5F5F5F5F5F5F5F5F5F5F5F5F5F5F5F5F5F5F5F5F5F5F5F5F5F5F5F5F5F5F5F5F5F5F5F5F5F5F5F5F5F5F5F5F5F5F5F5E2F5F5F5F5F5F5F5F5F5F5F5F5F5F5E2F5F5F5F5F5F5F5F5F5F5F5E2E2E2F5F5F5F5F5F5F5F5F5F5F5E2F5F5F5F5F5F5F5F5F5F5F5F5F5F5E2F5F5F5F5F5F5F5F5F5F5F5F5F5F5F5F5F5
310
F5F5F5F5F5F5F5F5F5F5F5F5F5F5F5F5F5F5F5F5F5F5F5F5F5F5F5F5F5F5F5F5F5F5F5F5F5F5F5F5F5F5F5F5F5F5F5F5F5F5F5F5F5F5F5F5F5F5F5F5F5F5F5F5F5F5F5F5F5F5F5F5F5F5F5F5F5F5F5F5F5F5F5F5F5F5F5F5F5F5F5F5F5F5F5F5F5F5F5F5F5F5F5F5F5F5E2F5F5F5F5F5F5F5F5F5F5F5F5F5F5E2F5F5F5F5F5
310
F5F5F5F5F5F5E2E2E2F5F5F5F5F5F5F5F5F5F5F5E2F5F5F5F5F5F5F5F5F5F5F5F5F5F5E2F5F5F5F5F5F5F5F5F5F5F5F5F5F5F5F5F5F5F5F5F5F5F5F5F5F5F5F5F5F5F5F5F5F5F5F5F5F5F5F5F5F5F5F5F5F5F5F5F5F5F5F5F5F5F5F5F5F5F5F5F5F5F5F5F5F5F5F5F5F5F5F5F5F5F5F5F5F5F5F5F5F5F5F5F5F5F5F5F5F5F5
310
F5F5F5F5F5F5F5F5F5F5F5F5F5F5F5F5F5F5F5F5F5F5F5F5F5F5F5F5F5F5F5F5E2F5F5F5F5F5F5F5F5F5F5F5F5F5F5E2F5F5F5F5F5F5F5F5F5F5F5E2E2E2F5F5F5F5F5F5F5F5F5F5F5E2F5F5F5F5F5F5F5F5F5F5F5F5F5F5E2F5F5F5F5F5F5F5F5F5F5F5F5F5F5F5F5F5F5F5F5F5F5F5F5F5F5F5F5F5F5F5F5F5F5F5F5F5F5
310
F5F5F5F5F5F5F5F5F5F5F5F5F5F5F5F5F5F5F5F5F5F5F5F5F5F5F5F5F5F5F5F5F5F5F5F5F5F5F5F5F5F5F5F5F5F5F5F5F5F5F5F5F5F5F5F5F5F5F5F5F5F5F5F5F5F5F5F5F5F5F5F5F5F5F5F5F5F5F5F5F5F5F5F5F5E2F5F5F5F5F5F5F5F5F5F5F5F5F5F5E2F5F5F5F5F5F5F5F5F5F5F5E2E2E2F5F5F5F5F5F5F5F5F5F5F5E2
310
F5F5F5F5F5F5F5F5F5F5F5F5F5F5E2F5F5F5F5F5F5F5F5F5F5F5F5F5F5F5F5F5F5F5F5F5F5F5F5F5F5F5F5F5F5F5F5F5F5F5F5F5F5F5F5F5F5F5F5F5F5F5F5F5F5F5F5F5F5F5F5F5F5F5F5F5F5F5F5F5F5F5F5F5F5F5F5F5F5F5F5F5F5F5F5F5F5F5F5F5F5F5F5F5F5F5F5F5F5F5F5F5F5F5F5F5F5F5F5F5F5F5F5F5F5F5F5
310
F5F5F5F5F5F5F5F5F5F5F5E2F5F5F5F5F5F5F5F5F5F5F5F5F5F5E2F5F5F5F5F5F5F5F5F5F5F5E2E2E2F5F5F5F5F5F5F5F5F5F5F5E2F5F5F5F5F5F5F5F5F5F5F5F5F5F5E2F5F5F5F5F5F5F5F5F5F5F5F5F5F5F5F5F5F5F5F5F5F5F5F5F5F5F5F5F5F5F5F5F5F5F5F5F5F5F5F5F5F5F5F5F5F5F5F5F5F5F5F5F5F5F5F5F5F5F5
310
F5F5F5F5F5F5F5F5F5F5F5F5F5F5F5F5F5F5F5F5F5F5F5F5F5F5F5F5F5F5F5F5F5F5F5F5F5F5F5F5F5F5F5F5F5F5F5F5F5F5F5F5F5F5F5F5F5F5F5F5F5F5F5F5E2F5F5F5F5F5F5F5F5F5F5F5F5F5F5E2F5F5F5F5F5F5F5F5F5F5F5E2E2E2F5F5F5F5F5F5F5F5F5F5F5E2F5F5F5F5F5F5F5F5F5F5F5F5F5F5E2F5F5F5F5F5F5
310
F5F5F5F5F5F5F5F5F5F5F5F5F5F5F5F5F5F5F5F5F5F5F5F5F5F5F5F5F5F5F5F5F5F5F5F5F5F5F5F5F5F5F5F5F5F5F5F5F5F5F5F5F5F5F5F5F5F5F5F5F5F5F5F5F5F5F5F5F5F5F5F5F5F5F5F5F5F5F5F5F5F5F5F5F5F5F5F5F5F5F5F5F5F5F5F5F5F5F5F5F5F5F5F5F5F5F5F5F5F5F5F5F5F5F5F5F5E2F5F5F5F5F5F5F5F5F5
310
F5F5F5F5F5E2F5F5F5F5F5F5F5F5F5F5F5E2E2E2F5F5F5F5F5F5F5F5F5F5F5E2F5F5F5F5F5F5F5F5F5F5F5F5F5F5E2F5F5F5F5F5F5F5F5F5F5F5F5F5F5F5F5F5F5F5F5F5F5F5F5F5F5F5F5F5F5F5F5F5F5F5F5F5F5F5F5F5F5F5F5F5F5F5F5F5F5F5F5F5F5F5F5F5F5F5F5F5F5F5F5F5F5F5F5F5F5F5F5F5F5F5F5F5F5F5F5
310
F5F5F5F5F5F5F5F5F5F5F5F5F5F5F5F5F5F5F5F5F5F5F5F5F5F5F5F5F5F5F5F5F5F5F5F5F5F5F5F5F5F5F5E2F5F5F5F5F5F5F5F5F5F5F5F5F5F5E2F5F5F5F5F5F5F5F5F5F5F5E2E2E2F5F5F5F5F5F5F5F5F5F5F5E2F5F5F5F5F5F5F5F5F5F5F5F5F5F5E2F5F5F5F5F5F5F5F5F5F5F5F5F5F5F5F5F5F5F5F5F5F5F5F5F5F5F5
310
F5F5F5F5F5F5F5F5F5F5F5F5F5F5F5F5F5F5F5F5F5F5F5F5F5F5F5F5F5F5F5F5F5F5F5F5F5F5F5F5F5F5F5F5F5F5F5F5F5F5F5F5F5F5F5F5F5F5F5F5F5F5F5F5F5F5F5F5F5F5F5F5F5F5F5F5F5F5F5F5F5F5F5F5F5F5F5F5F5F5F5F5F5F5F5F5E2F5F5F5F5F5F5F5F5F5F5F5F5F5F5E2F5F5F5F5F5F5F5F5F5F5F5E2E2E2F5
310
F5F5F5F5F5F5F5F5F5F5E2F5F5F5F5F5F5F5F5F5F5F5F5F5F5E2F5F5F5F5F5F5F5F5F5F5F5F5F5F5F5F5F5F5F5F5F5F5F5F5F5F5F5F5F5F5F5F5F5F5F5F5F5F5F5F5F5F5F5F5F5F5F5F5F5F5F5F5F5F5F5F5F5F5F5F5F5F5F5F5F5F5F5F5F5F5F5F5F5F5F5F5F5F5F5F5F5F5F5F5F5F5F5F5F5F5F5F5F5F5F5F5F5F5F5F5F5
310
F5F5F5F5F5F5F5F5F5F5F5F5F5F5F5F5F5F5F5F5F5F5E2F5F5F5F5F5F5F5F5F5F5F5F5F5F5E2F5F5F5F5F5F5F5F5F5F5F5E2E2E2F5F5F5F5F5F5F5F5F5F5F5F5F5F5F5F5F5F5F5F5F5F5F5F5F5F5E2F5F5F5F5F5F5F5F5F5F5F5F5F5F5F5F5F5F5F5F5F5F5F5F5F5F5F5F5F5F5F5F5F5F5F5F5F5F5F5F5F5F5F5F5F5F5F5F5
310
F5F5F5F5F5F5F5F5F5F5F5F5F5F5F5F5F5F5F5F5F5F5F5F5F5F5F5F5F5F5F5F5F5F5F5F5F5F5F5F5F5F5F5F5F5F5F5F5F5F5F5F5F5F5F5F5F5F5F5F5F5F5F5F5F5F5F5F5F5F5F5F5F5F5F5E2F5F5F5F5F5F5F5F5F5F5F5F5F5F5F5F5F5F5F5F5F5F5F5F5F5F5E2E2E2F5F5F5F5F5F5F5F5F5F5F5F5F5F5F5F5F5F5F5F5F5F5
310
F5F5F5F5E2F5F5F5F5F5F5F5F5F5F5F5F5F5F5F5F5F5F5F5F5F5F5F5F5F5F5F5F5F5F5F5F5F5F5F5F5F5F5F5F5F5F5F5F5F5F5F5F5F5F5F5F5F5F5F5F5F5F5F5F5F5F5F5F5F5F5F5F5F5F5F5F5F5F5F5F5F5F5F5F5F5F5F5F5F5F5F5F5F5F5F5F5F5F5F5F5F5F5F5F5F5F5F5F5F5F5F5F5F5F5F5F5F5F5F5F5F5F5F5F5F5F5
310
F5E2F5F5F5F5F5F5F5F5F5F5F5F5F5F5F5F5F5F5F5F5F5F5F5F5F5F5E2E2E2F5F5F5F5F5F5F5F5F5F5F5F5F5F5F5F5F5F5F5F5F5F5F5F5F5F5E2F5F5F5F5F5F5F5F5F5F5F5F5F5F5F5F5F5F5F5F5F5F5F5F5F5F5F5F5F5F5F5F5F5F5F5F5F5F5F5F5F5F5F5F5F5F5F5F5F5F5F5F5F5F5F5F5F5F5F5F5F5F5F5F5F5F5F5F5F5
310
F5F5F5F5F5F5F5F5F5F5F5F5F5F5F5F5F5F5F5F5F5F5F5F5F5F5F5F5F5F5F5F5F5F5F5F5F5F5F5F5F5F5F5F5F5F5F5F5F5F5F5F5F5F5E2F5F5F5F5F5F5F5F5F5F5F5F5F5F5F5F5F5F5F5F5F5F5F5F5F5F5E2E2E2F5F5F5F5F5F5F5F5F5F5F5F5F5F5F5F5F5F5F5F5F5F5F5F5F5F5E2F5F5F5F5F5F5F5F5F5F5F5F5F5F5F5F5
310
F5F5F5F5F5F5F5F5F5F5F5F5F5F5F5F5F5F5F5F5F5F5F5F5F5F5F5F5F5F5F5F5F5F5F5F5F5F5F5F5F5F5F5F5F5F5F5F5F5F5F5F5F5F5F5F5F5F5F5F5F5F5F5F5F5F5F5F5F5F5F5F5F5F5F5F5F5F5F5F5F5F5F5F5F5F5F5F5F5F5F5F5F5F5F5F5F5F5F5F5F5F5F5F5F5F5F5E2F5F5F5F5F5F5F5F5F5F5F5F5F5F5F5F5F5F5F5
310
F5F5F5F5F5F5F5E2E2E2F5F5F5F5F5F5F5F5F5F5F5F5F5F5F5F5F5F5F5F5F5F5F5F5F5F5E2F5F5F5F5F5F5F5F5F5F5F5F5F5F5F5F5F5F5F5F5F5F5F5F5F5F5F5F5F5F5F5F5F5F5F5F5F5F5F5F5F5F5F5F5F5F5F5F5F5F5F5F5F5F5F5F5F5F5F5F5F5F5F5F5F5F5F5F5F5F5F5F5F5F5F5F5F5F5F5F5F5F5F5F5F5F5F5F5F5F5
310
F5F5F5F5F5F5F5F5F5F5F5F5F5F5F5F5F5F5F5F5F5F5F5F5F5F5F5F5F5F5F5F5F5E2F5F5F5F5F5F5F5F5F5F5F5F5F5F5F5F5F5F5F5F5F5F5F5F5F5F5E2E2E2F5F5F5F5F5F5F5F5F5F5F5F5F5F5F5F5F5F5F5F5F5F5F5F5F5F5E2F5F5F5F5F5F5F5F5F5F5F5F5F5F5F5F5F5F5F5F5F5F5F5F5F5F5F5F5F5F5F5F5F5F5F5F5F5
310
F5F5F5F5F5F5F5F5F5F5F5F5F5F5F5F5F5F5F5F5F5F5F5F5F5F5F5F5F5F5F5F5F5F5F5F5F5F5F5F5F5F5F5F5F5F5F5F5F5F5F5F5F5F5F5F5F5F5F5F5F5F5F5F5F5F5F5F5F5F5F5F5F5F5F5F5F5F5F5F5F5F5F5F5F5F5E2F5F5F5F5F5F5F5F5F5F5F5F5F5F5F5F5F5F5F5F5F5F5F5F5F5F5E2E2E2F5F5F5F5F5F5F5F5F5F5F5
310
F5F5F5F5F5F5F5F5F5F5F5F5F5F5F5E2F5F5F5F5F5F5F5F5F5F5F5F5F5F5F5F5F5F5F5F5F5F5F5F5F5F5F5F5F5F5F5F5F5F5F5F5F5F5F5F5F5F5F5F5F5F5F5F5F5F5F5F5F5F5F5F5F5F5F5F5F5F5F5F5F5F5F5F5F5F5F5F5F5F5F5F5F5F5F5F5F5F5F5F5F5F5F5F5F5F5F5F5F5F5F5F5F5F5F5F5F5F5F5F5F5F5F5F5F5F5F5
310
F5F5F5F5F5F5F5F5F5F5F5F5E2F5F5F5F5F5F5F5F5F5F5F5F5F5F5F5F5F5F5F5F5F5F5F5F5F5F5E2E2E2F5F5F5F5F5F5F5F5F5F5F5F5F5F5F5F5F5F5F5F5F5F5F5F5F5F5E2F5F5F5F5F5F5F5F5F5F5F5F5F5F5F5F5F5F5F5F5F5F5F5F5F5F5F5F5F5F5F5F5F5F5F5F5F5F5F5F5F5F5F5F5F5F5F5F5F5F5F5F5F5F5F5F5F5F5
310
F5F5F5F5F5F5F5F5F5F5F5F5F5F5F5F5F5F5F5F5F5F5F5F5F5F5F5F5F5F5F5F5F5F5F5F5F5F5F5F5F5F5F5F5F5F5F5F5F5F5F5F5F5F5F5F5F5F5F5F5F5F5F5F5F5E2F5F5F5F5F5F5F5F5F5F5F5F5F5F5F5F5F5F5F5F5F5F5F5F5F5F5E2E2E2F5F5F5F5F5F5F5F5F5F5F5E2F5F5F5F5F5F5F5F5F5F5F5F5F5F5E2F5F5F5F5F5
310
F5F5F5F5F5F5F5F5F5F5F5F5F5F5F5F5F5F5F5F5F5F5F5F5F5F5F5F5F5F5F5F5F5F5F5F5F5F5F5F5F5F5F5F5F5F5F5F5F5F5F5F5F5F5F5F5F5F5F5F5F5F5F5F5F5F5F5F5F5F5F5F5F5F5F5F5F5F5F5F5F5F5F5F5F5F5F5F5F5F5F5F5F5F5F5F5F5F5F5F5F5F5F5F5F5F5F5F5F5F5F5F5F5F5F5F5F5F5E2F5F5F5F5F5F5F5F5
310
F5F5F5F5F5F5E2F5F5F5F5F5F5F5F5F5F5F5E2E2E2F5F5F5F5F5F5F5F5F5F5F5E2F5F5F5F5F5F5F5F5F5F5F5F5F5F5E2F5F5F5F5F5F5F5F5F5F5F5F5F5F5F5F5F5F5F5F5F5F5F5F5F5F5F5F5F5F5F5F5F5F5F5F5F5F5F5F5F5F5F5F5F5F5F5F5F5F5F5F5F5F5F5F5F5F5F5F5F5F5F5F5F5F5F5F5F5F5F5F5F5F5F5F5F5F5F5
310
F5F5F5F5F5F5F5F5F5F5F5F5F5F5F5F5F5F5F5F5F5F5F5F5F5F5F5F5F5F5F5F5F5F5F5F5F5F5F5F5F5F5F5F5E2F5F5F5F5F5F5F5F5F5F5F5F5F5F5E2F5F5F5F5F5F5F5F5F5F5F5E2E2E2F5F5F5F5F5F5F5F5F5F5F5E2F5F5F5F5F5F5F5F5F5F5F5F5F5F5E2F5F5F5F5F5F5F5F5F5F5F5F5F5F5F5F5F5F5F5F5F5F5F5F5F5F5
310
F5F5F5F5F5F5F5F5F5F5F5F5F5F5F5F5F5F5F5F5F5F5F5F5F5F5F5F5F5F5F5F5F5F5F5F5F5F5F5F5F5F5F5F5F5F5F5F5F5F5F5F5F5F5F5F5F5F5F5F5F5F5F5F5F5F5F5F5F5F5F5F5F5F5F5F5F5F5F5F5F5F5F5F5F5F5F5F5F5F5F5F5F5F5F5F5F5E2F5F5F5F5F5F5F5F5F5F5F5F5F5F5E2F5F5F5F5F5F5F5F5F5F5F5E2E2E2
310
F5F5F5F5F5F5F5F5F5F5F5E2F5F5F5F5F5F5F5F5F5F5F5F5F5F5E2F5F5F5F5F5F5F5F5F5F5F5F5F5F5F5F5F5F5F5F5F5F5F5F5F5F5F5F5F5F5F5F5F5F5F5F5F5F5F5F5F5F5F5F5F5F5F5F5F5F5F5F5F5F5F5F5F5F5F5F5F5F5F5F5F5F5F5F5F5F5F5F5F5F5F5F5F5F5F5F5F5F5F5F5F5F5F5F5F5F5F5F5F5F5F5F5F5F5F5F5
310
F5F5F5F5F5F5F5F5F5F5F5F5F5F5F5F5F5F5F5F5F5F5F5E2F5F5F5F5F5F5F5F5F5F5F5F5F5F5E2F5F5F5F5F5F5F5F5F5F5F5E2E2E2F5F5F5F5F5F5F5F5F5F5F5E2F5F5F5F5F5F5F5F5F5F5F5F5F5F5E2F5F5F5F5F5F5F5F5F5F5F5F5F5F5F5F5F5F5F5F5F5F5F5F5F5F5F5F5F5F5F5F5F5F5F5F5F5F5F5F5F5F5F5F5F5F5F5
310
F5F5F5F5F5F5F5F5F5F5F5F5F5F5F5F5F5F5F5F5F5F5F5F5F5F5F5F5F5F5F5F5F5F5F5F5F5F5F5F5F5F5F5F5F5F5F5F5F5F5F5F5F5F5F5F5F5F5F5F5F5F5F5F5F5F5F5F5F5F5F5F5F5F5F5F5E2F5F5F5F5F5F5F5F5F5F5F5F5F5F5E2F5F5F5F5F5F5F5F5F5F5F5E2E2E2F5F5F5F5F5F5F5F5F5F5F5E2F5F5F5F5F5F5F5F5F5
310
F5F5F5F5F5E2F5F5F5F5F5F5F5F5F5F5F5F5F5F5F5F5F5F5F5F5F5F5F5F5F5F5F5F5F5F5F5F5F5F5F5F5F5F5F5F5F5F5F5F5F5F5F5F5F5F5F5F5F5F5F5F5F5F5F5F5F5F5F5F5F5F5F5F5F5F5F5F5F5F5F5F5F5F5F5F5F5F5F5F5F5F5F5F5F5F5F5F5F5F5F5F5F5F5F5F5F5F5F5F5F5F5F5F5F5F5F5F5F5F5F5F5F5F5F5F5F5
310
F5F5E2F5F5F5F5F5F5F5F5F5F5F5F5F5F5E2F5F5F5F5F5F5F5F5F5F5F5E2E2E2F5F5F5F5F5F5F5F5F5F5F5E2F5F5F5F5F5F5F5F5F5F5F5F5F5F5E2F5F5F5F5F5F5F5F5F5F5F5F5F5F5F5F5F5F5F5F5F5F5F5F5F5F5F5F5F5F5F5F5F5F5F5F5F5F5F5F5F5F5F5F5F5F5F5F5F5F5F5F5F5F5F5F5F5F5F5F5F5F5F5F5F5F5F5F5
310
F5F5F5F5F5F5F5F5F5F5F5F5F5F5F5F5F5F5F5F5F5F5F5F5F5F5F5F5F5F5F5F5F5F5F5F5F5F5F5F5F5F5F5F5F5F5F5F5F5F5F5F5F5F5F5E2F5F5F5F5F5F5F5F5F5F5F5F5F5F5E2F5F5F5F5F5F5F5F5F5F5F5E2E2E2F5F5F5F5F5F5F5F5F5F5F5E2F5F5F5F5F5F5F5F5F5F5F5F5F5F5E2F5F5F5F5F5F5F5F5F5F5F5F5F5F5F5
310
F5F5F5F5F5F5F5F5F5F5F5F5F5F5F5F5F5F5F5F5F5F5F5F5F5F5F5F5F5F5F5F5F5F5F5F5F5F5F5F5F5F5F5F5F5F5F5F5F5F5F5F5F5F5F5F5F5F5F5F5F5F5F5F5F5F5F5F5F5F5F5F5F5F5F5F5F5F5F5F5F5F5F5F5F5F5F5F5F5F5F5F5F5F5F5F5F5F5F5F5F5F5F5F5F5F5F5F5E2F5F5F5F5F5F5F5F5F5F5F5F5F5F5E2F5F5F5
310
F5F5F5F5F5F5F5F5E2E2E2F5F5F5F5F5F5F5F5F5F5F5E2F5F5F5F5F5F5F5F5F5F5F5F5F5F5E2F5F5F5F5F5F5F5F5F5F5F5F5F5F5F5F5F5F5F5F5F5F5F5F5F5F5F5F5F5F5F5F5F5F5F5F5F5F5F5F5F5F5F5F5F5F5F5F5F5F5F5F5F5F5F5F5F5F5F5F5F5F5F5F5F5F5F5F5F5F5F5F5F5F5F5F5F5F5F5F5F5F5F5F5F5F5F5F5F5
310
F5F5F5F5F5F5F5F5F5F5F5F5F5F5F5F5F5F5F5F5F5F5F5F5F5F5F5F5F5F5F5F5F5F5E2F5F5F5F5F5F5F5F5F5F5F5F5F5F5E2F5F5F5F5F5F5F5F5F5F5F5E2E2E2F5F5F5F5F5F5F5F5F5F5F5E2F5F5F5F5F5F5F5F5F5F5F5F5F5F5E2F5F5F5F5F5F5F5F5F5F5F5F5F5F5F5F5F5F5F5F5F5F5F5F5F5F5F5F5F5F5F5F5F5F5F5F5
310
F5F5F5F5F5F5F5F5F5F5F5F5F5F5F5F5F5F5F5F5F5F5F5F5F5F5F5F5F5F5F5F5F5F5F5F5F5F5F5F5F5F5F5F5F5F5F5F5F5F5F5F5F5F5F5F5F5F5F5F5F5F5F5F5F5F5F5F5F5F5F5F5F5F5F5F5F5F5F5F5F5F5F5F5F5F5F5E2F5F5F5F5F5F5F5F5F5F5F5F5F5F5E2F5F5F5F5F5F5F5F5F5F5F5E2E2E2F5F5F5F5F5F5F5F5F5F5
310
F5E2F5F5F5F5F5F5F5F5F5F5F5F5F5F5E2F5F5F5F5F5F5F5F5F5F5F5F5F5F5F5F5F5F5F5F5F5F5F5F5F5F5F5F5F5F5F5F5F5F5F5F5F5F5F5F5F5F5F5F5F5F5F5F5F5F5F5F5F5F5F5F5F5F5F5F5F5F5F5F5F5F5F5F5F5F5F5F5F5F5F5F5F5F5F5F5F5F5F5F5F5F5F5F5F5F5F5F5F5F5F5F5F5F5F5F5F5F5F5F5F5F5F5F5F5F5
310
F5F5F5F5F5F5F5F5F5F5F5F5F5E2F5F5F5F5F5F5F5F5F5F5F5F5F5F5E2F5F5F5F5F5F5F5F5F5F5F5E2E2E2F5F5F5F5F5F5F5F5F5F5F5E2F5F5F5F5F5F5F5F5F5F5F5F5F5F5E2F5F5F5F5F5F5F5F5F5F5F5F5F5F5F5F5F5F5F5F5F5F5F5F5F5F5F5F5F5F5F5F5F5F5F5F5F5F5F5F5F5F5F5F5F5F5F5F5F5F5F5F5F5F5F5F5F5
310
F5F5F5F5F5F5F5F5F5F5F5F5F5F5F5F5F5F5F5F5F5F5F5F5F5F5F5F5F5F5F5F5F5F5F5F5F5F5F5F5F5F5F5F5F5F5F5F5F5F5F5F5F5F5F5F5F5F5F5F5F5F5F5F5F5F5E2F5F5F5F5F5F5F5F5F5F5F5F5F5F5E2F5F5F5F5F5F5F5F5F5F5F5E2E2E2F5F5F5F5F5F5F5F5F5F5F5E2F5F5F5F5F5F5F5F5F5F5F5F5F5F5E2F5F5F5F5
310
F5F5F5F5F5F5F5F5F5F5F5F5F5F5F5F5F5F5F5F5F5F5F5F5F5F5F5F5F5F5F5F5F5F5F5F5F5F5F5F5F5F5F5F5F5F5F5F5F5F5F5F5F5F5F5F5F5F5F5F5F5F5F5F5F5F5F5F5F5F5F5F5F5F5F5F5F5F5F5F5F5F5F5F5F5F5F5F5F5F5F5F5F5F5F5F5F5F5F5F5F5F5F5F5F5F5F5F5F5F5F5F5F5F5F5F5F5F5F5E2F5F5F5F5F5F5F5
310
F5F5F5F5F5F5F5E2F5F5F5F5F5F5F5F5F5F5F5E2E2E2F5F5F5F5F5F5F5F5F5F5F5E2F5F5F5F5F5F5F5F5F5F5F5F5F5F5E2F5F5F5F5F5F5F5F5F5F5F5F5F5F5F5F5F5F5F5F5F5F5F5F5F5F5F5F5F5F5F5F5F5F5F5F5F5F5F5F5F5F5F5F5F5F5F5F5F5F5F5F5F5F5F5F5F5F5F5F5F5F5F5F5F5F5F5F5F5F5F5F5F5F5F5F5F5F5
310
F5F5F5F5F5F5F5F5F5F5F5F5F5F5F5F5F5F5F5F5F5F5F5F5F5F5F5F5F5F5F5F5F5F5F5F5F5F5F5F5F5F5F5F5F5E2F5F5F5F5F5F5F5F5F5F5F5F5F5F5E2F5F5F5F5F5F5F5F5F5F5F5E2E2E2F5F5F5F5F5F5F5F5F5F5F5E2F5F5F5F5F5F5F5F5F5F5F5F5F5F5E2F5F5F5F5F5F5F5F5F5F5F5F5F5F5F5F5F5F5F5F5F5F5F5F5F5
310
F5F5F5F5F5F5F5F5F5F5F5F5F5F5F5F5F5F5F5F5F5F5F5F5F5F5F5F5F5F5F5F5F5F5F5F5F5F5F5F5F5F5F5F5F5F5F5F5F5F5F5F5F5F5F5F5F5F5F5F5F5F5F5F5F5F5F5F5F5F5F5F5F5F5F5F5F5F5F5F5F5F5F5F5F5F5F5F5F5F5F5F5F5F5F5F5F5F5E2F5F5F5F5F5F5F5F5F5F5F5F5F5F5E2F5F5F5F5F5F5F5F5F5F5F5E2E2
310
E2F5F5F5F5F5F5F5F5F5F5F5F5F5F5F5F5F5F5F5F5F5F5F5F5F5F5E2F5F5F5F5F5F5F5F5F5F5F5F5F5F5F5F5F5F5F5F5F5F5F5F5F5F5F5F5F5F5F5F5F5F5F5F5F5F5F5F5F5F5F5F5F5F5F5F5F5F5F5F5F5F5F5F5F5F5F5F5F5F5F5F5F5F5F5F5F5F5F5F5F5F5F5F5F5F5F5F5F5F5F5F5F5F5F5F5F5F5F5F5F5F5F5F5F5F5F5
310
F5F5F5F5F5F5F5F5F5F5F5F5F5F5F5F5F5F5F5F5F5F5F5F5E2F5F5F5F5F5F5F5F5F5F5F5F5F5F5F5F5F5F5F5F5F5F5F5F5F5F5E2E2E2F5F5F5F5F5F5F5F5F5F5F5F5F5F5F5F5F5F5F5F5F5F5F5F5F5F5E2F5F5F5F5F5F5F5F5F5F5F5F5F5F5F5F5F5F5F5F5F5F5F5F5F5F5F5F5F5F5F5F5F5F5F5F5F5F5F5F5F5F5F5F5F5F5
310
F5F5F5F5F5F5F5F5F5F5F5F5F5F5F5F5F5F5F5F5F5F5F5F5F5F5F5F5F5F5F5F5F5F5F5F5F5F5F5F5F5F5F5F5F5F5F5F5F5F5F5F5F5F5F5F5F5F5F5F5F5F5F5F5F5F5F5F5F5F5F5F5F5F5F5F5F5E2F5F5F5F5F5F5F5F5F5F5F5F5F5F5F5F5F5F5F5F5F5F5F5F5F5F5E2E2E2F5F5F5F5F5F5F5F5F5F5F5F5F5F5F5F5F5F5F5F5
310
F5F5F5F5F5F5E2F5F5F5F5F5F5F5F5F5F5F5F5F5F5F5F5F5F5F5F5F5F5F5F5F5F5F5F5F5F5F5F5F5F5F5F5F5F5F5F5F5F5F5F5F5F5F5F5F5F5F5F5F5F5F5F5F5F5F5F5F5F5F5F5F5F5F5F5F5F5F5F5F5F5F5F5F5F5F5F5F5F5F5F5F5F5F5F5F5F5F5F5F5F5F5F5F5F5F5F5F5F5F5F5F5F5F5F5F5F5F5F5F5F5F5F5F5F5F5F5
310
F5F5F5E2F5F5F5F5F5F5F5F5F5F5F5F5F5F5F5F5F5F5F5F5F5F5F5F5F5F5E2E2E2F5F5F5F5F5F5F5F5F5F5F5F5F5F5F5F5F5F5F5F5F5F5F5F5F5F5E2F5F5F5F5F5F5F5F5F5F5F5F5F5F5F5F5F5F5F5F5F5F5F5F5F5F5F5F5F5F5F5F5F5F5F5F5F5F5F5F5F5F5F5F5F5F5F5F5F5F5F5F5F5F5F5F5F5F5F5F5F5F5F5F5F5F5F5
310
F5F5F5F5F5F5F5F5F5F5F5F5F5F5F5F5F5F5F5F5F5F5F5F5F5F5F5F5F5F5F5F5F5F5F5F5F5F5F5F5F5F5F5F5F5F5F5F5F5F5F5F5F5F5F5F5E2F5F5F5F5F5F5F5F5F5F5F5F5F5F5F5F5F5F5F5F5F5F5F5F5F5F5E2E2E2F5F5F5F5F5F5F5F5F5F5F5F5F5F5F5F5F5F5F5F5F5F5F5F5F5F5E2F5F5F5F5F5F5F5F5F5F5F5F5F5F5
310
F5F5F5F5F5F5F5F5F5F5F5F5F5F5F5F5F5F5F5F5F5F5F5F5F5F5F5F5F5F5F5F5F5F5F5F5F5F5F5F5F5F5F5F5F5F5F5F5F5F5F5F5F5F5F5F5F5F5F5F5F5F5F5F5F5F5F5F5F5F5F5F5F5F5F5F5F5F5F5F5F5F5F5F5F5F5F5F5F5F5F5F5F5F5F5F5F5F5F5F5F5F5F5F5F5F5F5F5F5E2F5F5F5F5F5F5F5F5F5F5F5F5F5F5F5F5F5
310
F5F5F5F5F5F5F5F5F5E2E2E2F5F5F5F5F5F5F5F5F5F5F5F5F5F5F5F5F5F5F5F5F5F5F5F5F5F5E2F5F5F5F5F5F5F5F5F5F5F5F5F5F5F5F5F5F5F5F5F5F5F5F5F5F5F5F5F5F5F5F5F5F5F5F5F5F5F5F5F5F5F5F5F5F5F5F5F5F5F5F5F5F5F5F5F5F5F5F5F5F5F5F5F5F5F5F5F5F5F5F5F5F5F5F5F5F5F5F5F5F5F5F5F5F5F5F5
310
F5F5F5F5F5F5F5F5F5F5F5F5F5F5F5F5F5F5F5F5F5F5F5F5F5F5F5F5F5F5F5F5F5F5F5E2F5F5F5F5F5F5F5F5F5F5F5F5F5F5F5F5F5F5F5F5F5F5F5F5F5F5E2E2E2F5F5F5F5F5F5F5F5F5F5F5F5F5F5F5F5F5F5F5F5F5F5F5F5F5F5E2F5F5F5F5F5F5F5F5F5F5F5F5F5F5F5F5F5F5F5F5F5F5F5F5F5F5F5F5F5F5F5F5F5F5F5
310
F5F5F5F5F5F5F5F5F5F5F5F5F5F5F5F5F5F5F5F5F5F5F5F5F5F5F5F5F5F5F5F5F5F5F5F5F5F5F5F5F5F5F5F5F5F5F5F5F5F5F5F5F5F5F5F5F5F5F5F5F5F5F5F5F5F5F5F5F5F5F5F5F5F5F5F5F5F5F5F5F5F5F5F5F5F5F5F5E2F5F5F5F5F5F5F5F5F5F5F5F5F5F5F5F5F5F5F5F5F5F5F5F5F5F5E2E2E2F5F5F5F5F5F5F5F5F5
310
F5F5F5F5F5F5F5F5F5F5F5F5F5F5F5F5F5E2F5F5F5F5F5F5F5F5F5F5F5F5F5F5F5F5F5F5F5F5F5F5F5F5F5F5F5F5F5F5F5F5F5F5F5F5F5F5F5F5F5F5F5F5F5F5F5F5F5F5F5F5F5F5F5F5F5F5F5F5F5F5F5F5F5F5F5F5F5F5F5F5F5F5F5F5F5F5F5F5F5F5F5F5F5F5F5F5F5F5F5F5F5F5F5F5F5F5F5F5F5F5F5F5F5F5F5F5F5
310
F5F5F5F5F5F5F5F5F5F5F5F5F5F5E2F5F5F5F5F5F5F5F5F5F5F5F5F5F5F5F5F5F5F5F5F5F5F5F5F5F5E2E2E2F5F5F5F5F5F5F5F5F5F5F5F5F5F5F5F5F5F5F5F5F5F5F5F5F5F5E2F5F5F5F5F5F5F5F5F5F5F5F5F5F5F5F5F5F5F5F5F5F5F5F5F5F5F5F5F5F5F5F5F5F5F5F5F5F5F5F5F5F5F5F5F5F5F5F5F5F5F5F5F5F5F5F5
310
F5F5F5F5F5F5F5F5F5F5F5F5F5F5F5F5F5F5F5F5F5F5F5F5F5F5F5F5F5F5F5F5F5F5F5F5F5F5F5F5F5F5F5F5F5F5F5F5F5F5F5F5F5F5F5F5F5F5F5F5F5F5F5F5F5F5F5E2F5F5F5F5F5F5F5F5F5F5F5F5F5F5F5F5F5F5F5F5F5F5F5F5F5F5E2E2E2F5F5F5F5F5F5F5F5F5F5F5E2F5F5F5F5F5F5F5F5F5F5F5F5F5F5E2F5F5F5
310
F5F5F5F5F5F5F5F5F5F5F5F5F5F5F5F5F5F5F5F5F5F5F5F5F5F5F5F5F5F5F5F5F5F5F5F5F5F5F5F5F5F5F5F5F5F5F5F5F5F5F5F5F5F5F5F5F5F5F5F5F5F5F5F5F5F5F5F5F5F5F5F5F5F5F5F5F5F5F5F5F5F5F5F5F5F5F5F5F5F5F5F5F5F5F5F5F5F5F5F5F5F5F5F5F5F5F5F5F5F5F5F5F5F5F5F5F5F5F5F5E2F5F5F5F5F5F5
310
F5F5F5F5F5F5F5F5E2F5F5F5F5F5F5F5F5F5F5F5E2E2E2F5F5F5F5F5F5F5F5F5F5F5E2F5F5F5F5F5F5F5F5F5F5F5F5F5F5E2F5F5F5F5F5F5F5F5F5F5F5F5F5F5F5F5F5F5F5F5F5F5F5F5F5F5F5F5F5F5F5F5F5F5F5F5F5F5F5F5F5F5F5F5F5F5F5F5F5F5F5F5F5F5F5F5F5F5F5F5F5F5F5F5F5F5F5F5F5F5F5F5F5F5F5F5F5
310
F5F5F5F5F5F5F5F5F5F5F5F5F5F5F5F5F5F5F5F5F5F5F5F5F5F5F5F5F5F5F5F5F5F5F5F5F5F5F5F5F5F5F5F5F5F5E2F5F5F5F5F5F5F5F5F5F5F5F5F5F5E2F5F5F5F5F5F5F5F5F5F5F5E2E2E2F5F5F5F5F5F5F5F5F5F5F5E2F5F5F5F5F5F5F5F5F5F5F5F5F5F5E2F5F5F5F5F5F5F5F5F5F5F5F5F5F5F5F5F5F5F5F5F5F5F5F5
310
F5F5F5F5F5F5F5F5F5F5F5F5F5F5F5F5F5F5F5F5F5F5F5F5F5F5F5F5F5F5F5F5F5F5F5F5F5F5F5F5F5F5F5F5F5F5F5F5F5F5F5F5F5F5F5F5F5F5F5F5F5F5F5F5F5F5F5F5F5F5F5F5F5F5F5F5F5F5F5F5F5F5F5F5F5F5F5F5F5F5F5F5F5F5F5F5F5F5F5E2F5F5F5F5F5F5F5F5F5F5F5F5F5F5E2F5F5F5F5F5F5F5F5F5F5F5E2
310
E2E2F5F5F5F5F5F5F5F5F5F5F5E2F5F5F5F5F5F5F5F5F5F5F5F5F5F5E2F5F5F5F5F5F5F5F5F5F5F5F5F5F5F5F5F5F5F5F5F5F5F5F5F5F5F5F5F5F5F5F5F5F5F5F5F5F5F5F5F5F5F5F5F5F5F5F5F5F5F5F5F5F5F5F5F5F5F5F5F5F5F5F5F5F5F5F5F5F5F5F5F5F5F5F5F5F5F5F5F5F5F5F5F5F5F5F5F5F5F5F5F5F5F5F5F5F5
310
F5F5F5F5F5F5F5F5F5F5F5F5F5F5F5F5F5F5F5F5F5F5F5F5F5E2F5F5F5F5F5F5F5F5F5F5F5F5F5F5E2F5F5F5F5F5F5F5F5F5F5F5E2E2E2F5F5F5F5F5F5F5F5F5F5F5E2F5F5F5F5F5F5F5F5F5F5F5F5F5F5E2F5F5F5F5F5F5F5F5F5F5F5F5F5F5F5F5F5F5F5F5F5F5F5F5F5F5F5F5F5F5F5F5F5F5F5F5F5F5F5F5F5F5F5F5F5
310
F5F5F5F5F5F5F5F5F5F5F5F5F5F5F5F5F5F5F5F5F5F5F5F5F5F5F5F5F5F5F5F5F5F5F5F5F5F5F5F5F5F5F5F5F5F5F5F5F5F5F5F5F5F5F5F5F5F5F5F5F5F5F5F5F5F5F5F5F5F5F5F5F5F5F5F5F5F5E2F5F5F5F5F5F5F5F5F5F5F5F5F5F5E2F5F5F5F5F5F5F5F5F5F5F5E2E2E2F5F5F5F5F5F5F5F5F5F5F5E2F5F5F5F5F5F5F5
310
F5F5F5F5F5F5F5E2F5F5F5F5F5F5F5F5F5F5F5F5F5F5F5F5F5F5F5F5F5F5F5F5F5F5F5F5F5F5F5F5F5F5F5F5F5F5F5F5F5F5F5F5F5F5F5F5F5F5F5F5F5F5F5F5F5F5F5F5F5F5F5F5F5F5F5F5F5F5F5F5F5F5F5F5F5F5F5F5F5F5F5F5F5F5F5F5F5F5F5F5F5F5F5F5F5F5F5F5F5F5F5F5F5F5F5F5F5F5F5F5F5F5F5F5F5F5F5
310
F5F5F5F5E2F5F5F5F5F5F5F5F5F5F5F5F5F5F5E2F5F5F5F5F5F5F5F5F5F5F5E2E2E2F5F5F5F5F5F5F5F5F5F5F5E2F5F5F5F5F5F5F5F5F5F5F5F5F5F5E2F5F5F5F5F5F5F5F5F5F5F5F5F5F5F5F5F5F5F5F5F5F5F5F5F5F5F5F5F5F5F5F5F5F5F5F5F5F5F5F5F5F5F5F5F5F5F5F5F5F5F5F5F5F5F5F5F5F5F5F5F5F5F5F5F5F5
310
F5F5F5F5F5F5F5F5F5F5F5F5F5F5F5F5F5F5F5F5F5F5F5F5F5F5F5F5F5F5F5F5F5F5F5F5F5F5F5F5F5F5F5F5F5F5F5F5F5F5F5F5F5F5F5F5F5E2F5F5F5F5F5F5F5F5F5F5F5F5F5F5E2F5F5F5F5F5F5F5F5F5F5F5E2E2E2F5F5F5F5F5F5F5F5F5F5F5E2F5F5F5F5F5F5F5F5F5F5F5F5F5F5E2F5F5F5F5F5F5F5F5F5F5F5F5F5
310
F5F5F5F5F5F5F5F5F5F5F5F5F5F5F5F5F5F5F5F5F5F5F5F5F5F5F5F5F5F5F5F5F5F5F5F5F5F5F5F5F5F5F5F5F5F5F5F5F5F5F5F5F5F5F5F5F5F5F5F5F5F5F5F5F5F5F5F5F5F5F5F5F5F5F5F5F5F5F5F5F5F5F5F5F5F5F5F5F5F5F5F5F5F5F5F5F5F5F5F5F5F5F5F5F5F5F5F5F5F5E2F5F5F5F5F5F5F5F5F5F5F5F5F5F5E2F5
310
F5F5F5F5F5F5F5F5F5F5E2E2E2F5F5F5F5F5F5F5F5F5F5F5E2F5F5F5F5F5F5F5F5F5F5F5F5F5F5E2F5F5F5F5F5F5F5F5F5F5F5F5F5F5F5F5F5F5F5F5F5F5F5F5F5F5F5F5F5F5F5F5F5F5F5F5F5F5F5F5F5F5F5F5F5F5F5F5F5F5F5F5F5F5F5F5F5F5F5F5F5F5F5F5F5F5F5F5F5F5F5F5F5F5F5F5F5F5F5F5F5F5F5F5F5F5F5
310
F5F5F5F5F5F5F5F5F5F5F5F5F5F5F5F5F5F5F5F5F5F5F5F5F5F5F5F5F5F5F5F5F5F5F5F5E2F5F5F5F5F5F5F5F5F5F5F5F5F5F5E2F5F5F5F5F5F5F5F5F5F5F5E2E2E2F5F5F5F5F5F5F5F5F5F5F5E2F5F5F5F5F5F5F5F5F5F5F5F5F5F5E2F5F5F5F5F5F5F5F5F5F5F5F5F5F5F5F5F5F5F5F5F5F5F5F5F5F5F5F5F5F5F5F5F5F5
310
F5F5F5F5F5F5F5F5F5F5F5F5F5F5F5F5F5F5F5F5F5F5F5F5F5F5F5F5F5F5F5F5F5F5F5F5F5F5F5F5F5F5F5F5F5F5F5F5F5F5F5F5F5F5F5F5F5F5F5F5F5F5F5F5F5F5F5F5F5F5F5F5F5F5F5F5F5F5F5F5F5F5F5F5F5F5F5F5F5E2F5F5F5F5F5F5F5F5F5F5F5F5F5F5E2F5F5F5F5F5F5F5F5F5F5F5E2E2E2F5F5F5F5F5F5F5F5
310
F5F5F5E2F5F5F5F5F5F5F5F5F5F5F5F5F5F5E2F5F5F5F5F5F5F5F5F5F5F5F5F5F5F5F5F5F5F5F5F5F5F5F5F5F5F5F5F5F5F5F5F5F5F5F5F5F5F5F5F5F5F5F5F5F5F5F5F5F5F5F5F5F5F5F5F5F5F5F5F5F5F5F5F5F5F5F5F5F5F5F5F5F5F5F5F5F5F5F5F5F5F5F5F5F5F5F5F5F5F5F5F5F5F5F5F5F5F5F5F5F5F5F5F5F5F5F5
310
F5F5F5F5F5F5F5F5F5F5F5F5F5F5F5E2F5F5F5F5F5F5F5F5F5F5F5F5F5F5E2F5F5F5F5F5F5F5F5F5F5F5E2E2E2F5F5F5F5F5F5F5F5F5F5F5E2F5F5F5F5F5F5F5F5F5F5F5F5F5F5E2F5F5F5F5F5F5F5F5F5F5F5F5F5F5F5F5F5F5F5F5F5F5F5F5F5F5F5F5F5F5F5F5F5F5F5F5F5F5F5F5F5F5F5F5F5F5F5F5F5F5F5F5F5F5F5
310
F5F5F5F5F5F5F5F5F5F5F5F5F5F5F5F5F5F5F5F5F5F5F5F5F5F5F5F5F5F5F5F5F5F5F5F5F5F5F5F5F5F5F5F5F5F5F5F5F5F5F5F5F5F5F5F5F5F5F5F5F5F5F5F5F5F5F5F5E2F5F5F5F5F5F5F5F5F5F5F5F5F5F5E2F5F5F5F5F5F5F5F5F5F5F5E2E2E2F5F5F5F5F5F5F5F5F5F5F5E2F5F5F5F5F5F5F5F5F5F5F5F5F5F5E2F5F5
310
F5F5F5F5F5F5F5F5F5F5F5F5F5F5F5F5F5F5F5F5F5F5F5F5F5F5F5F5F5F5F5F5F5F5F5F5F5F5F5F5F5F5F5F5F5F5F5F5F5F5F5F5F5F5F5F5F5F5F5F5F5F5F5F5F5F5F5F5F5F5F5F5F5F5F5F5F5F5F5F5F5F5F5F5F5F5F5F5F5F5F5F5F5F5F5F5F5F5F5F5F5F5F5F5F5F5F5F5F5F5F5F5F5F5F5F5F5F5F5F5F5E2F5F5F5F5F5
310
F5F5F5F5F5F5F5F5F5E2F5F5F5F5F5F5F5F5F5F5F5E2E2E2F5F5F5F5F5F5F5F5F5F5F5E2F5F5F5F5F5F5F5F5F5F5F5F5F5F5E2F5F5F5F5F5F5F5F5F5F5F5F5F5F5F5F5F5F5F5F5F5F5F5F5F5F5F5F5F5F5F5F5F5F5F5F5F5F5F5F5F5F5F5F5F5F5F5F5F5F5F5F5F5F5F5F5F5F5F5F5F5F5F5F5F5F5F5F5F5F5F5F5F5F5F5F5
310
F5F5F5F5F5F5F5F5F5F5F5F5F5F5F5F5F5F5F5F5F5F5F5F5F5F5F5F5F5F5F5F5F5F5F5F5F5F5F5F5F5F5F5F5F5F5F5E2F5F5F5F5F5F5F5F5F5F5F5F5F5F5E2F5F5F5F5F5F5F5F5F5F5F5E2E2E2F5F5F5F5F5F5F5F5F5F5F5E2F5F5F5F5F5F5F5F5F5F5F5F5F5F5E2F5F5F5F5F5F5F5F5F5F5F5F5F5F5F5F5F5F5F5F5F5F5F5
310
F5F5F5F5F5F5F5F5F5F5F5F5F5F5F5F5F5F5F5F5F5F5F5F5F5F5F5F5F5F5F5F5F5F5F5F5F5F5F5F5F5F5F5F5F5F5F5F5F5F5F5F5F5F5F5F5F5F5F5F5F5F5F5F5F5F5F5F5F5F5F5F5F5F5F5F5F5F5F5F5F5F5F5F5F5F5F5F5F5F5F5F5F5F5F5F5F5F5F5F5E2F5F5F5F5F5F5F5F5F5F5F5F5F5F5E2F5F5F5F5F5F5F5F5F5F5F5
310
E2E2E2F5F5F5F5F5F5F5F5F5F5F5F5F5F5F5F5F5F5F5F5F5F5F5F5F5F5E2F5F5F5F5F5F5F5F5F5F5F5F5F5F5F5F5F5F5F5F5F5F5F5F5F5F5F5F5F5F5F5F5F5F5F5F5F5F5F5F5F5F5F5F5F5F5F5F5F5F5F5F5F5F5F5F5F5F5F5F5F5F5F5F5F5F5F5F5F5F5F5F5F5F5F5F5F5F5F5F5F5F5F5F5F5F5F5F5F5F5F5F5F5F5F5F5F5
310
F5F5F5F5F5F5F5F5F5F5F5F5F5F5F5F5F5F5F5F5F5F5F5F5F5F5E2F5F5F5F5F5F5F5F5F5F5F5F5F5F5F5F5F5F5F5F5F5F5F5F5F5F5E2E2E2F5F5F5F5F5F5F5F5F5F5F5F5F5F5F5F5F5F5F5F5F5F5F5F5F5F5E2F5F5F5F5F5F5F5F5F5F5F5F5F5F5F5F5F5F5F5F5F5F5F5F5F5F5F5F5F5F5F5F5F5F5F5F5F5F5F5F5F5F5F5F5
310
F5F5F5F5F5F5F5F5F5F5F5F5F5F5F5F5F5F5F5F5F5F5F5F5F5F5F5F5F5F5F5F5F5F5F5F5F5F5F5F5F5F5F5F5F5F5F5F5F5F5F5F5F5F5F5F5F5F5F5F5F5F5F5F5F5F5F5F5F5F5F5F5F5F5F5F5F5F5F5E2F5F5F5F5F5F5F5F5F5F5F5F5F5F5F5F5F5F5F5F5F5F5F5F5F5F5E2E2E2F5F5F5F5F5F5F5F5F5F5F5F5F5F5F5F5F5F5
310
F5F5F5F5F5F5F5F5E2F5F5F5F5F5F5F5F5F5F5F5F5F5F5F5F5F5F5F5F5F5F5F5F5F5F5F5F5F5F5F5F5F5F5F5F5F5F5F5F5F5F5F5F5F5F5F5F5F5F5F5F5F5F5F5F5F5F5F5F5F5F5F5F5F5F5F5F5F5F5F5F5F5F5F5F5F5F5F5F5F5F5F5F5F5F5F5F5F5F5F5F5F5F5F5F5F5F5F5F5F5F5F5F5F5F5F5F5F5F5F5F5F5F5F5F5F5F5
310
F5F5F5F5F5E2F5F5F5F5F5F5F5F5F5F5F5F5F5F5F5F5F5F5F5F5F5F5F5F5F5F5E2E2E2F5F5F5F5F5F5F5F5F5F5F5F5F5F5F5F5F5F5F5F5F5F5F5F5F5F5E2F5F5F5F5F5F5F5F5F5F5F5F5F5F5F5F5F5F5F5F5F5F5F5F5F5F5F5F5F5F5F5F5F5F5F5F5F5F5F5F5F5F5F5F5F5F5F5F5F5F5F5F5F5F5F5F5F5F5F5F5F5F5F5F5F5
310
F5F5F5F5F5F5F5F5F5F5F5F5F5F5F5F5F5F5F5F5F5F5F5F5F5F5F5F5F5F5F5F5F5F5F5F5F5F5F5F5F5F5F5F5F5F5F5F5F5F5F5F5F5F5F5F5F5F5E2F5F5F5F5F5F5F5F5F5F5F5F5F5F5F5F5F5F5F5F5F5F5F5F5F5F5E2E2E2F5F5F5F5F5F5F5F5F5F5F5F5F5F5F5F5F5F5F5F5F5F5F5F5F5F5E2F5F5F5F5F5F5F5F5F5F5F5F5
310
F5F5F5F5F5F5F5F5F5F5F5F5F5F5F5F5F5F5F5F5F5F5F5F5F5F5F5F5F5F5F5F5F5F5F5F5F5F5F5F5F5F5F5F5F5F5F5F5F5F5F5F5F5F5F5F5F5F5F5F5F5F5F5F5F5F5F5F5F5F5F5F5F5F5F5F5F5F5F5F5F5F5F5F5F5F5F5F5F5F5F5F5F5F5F5F5F5F5F5F5F5F5F5F5F5F5F5F5F5F5F5E2F5F5F5F5F5F5F5F5F5F5F5F5F5F5F5
310
F5F5F5F5F5F5F5F5F5F5F5E2E2E2F5F5F5F5F5F5F5F5F5F5F5F5F5F5F5F5F5F5F5F5F5F5F5F5F5F5E2F5F5F5F5F5F5F5F5F5F5F5F5F5F5F5F5F5F5F5F5F5F5F5F5F5F5F5F5F5F5F5F5F5F5F5F5F5F5F5F5F5F5F5F5F5F5F5F5F5F5F5F5F5F5F5F5F5F5F5F5F5F5F5F5F5F5F5F5F5F5F5F5F5F5F5F5F5F5F5F5F5F5F5F5F5F5
310
F5F5F5F5F5F5F5F5F5F5F5F5F5F5F5F5F5F5F5F5F5F5F5F5F5F5F5F5F5F5F5F5F5F5F5F5F5E2F5F5F5F5F5F5F5F5F5F5F5F5F5F5F5F5F5F5F5F5F5F5F5F5F5F5E2E2E2F5F5F5F5F5F5F5F5F5F5F5F5F5F5F5F5F5F5F5F5F5F5F5F5F5F5E2F5F5F5F5F5F5F5F5F5F5F5F5F5F5F5F5F5F5F5F5F5F5F5F5F5F5F5F5F5F5F5F5F5
310
F5F5F5F5F5F5F5F5F5F5F5F5F5F5F5F5F5F5F5F5F5F5F5F5F5F5F5F5F5F5F5F5F5F5F5F5F5F5F5F5F5F5F5F5F5F5F5F5F5F5F5F5F5F5F5F5F5F5F5F5F5F5F5F5F5F5F5F5F5F5F5F5F5F5F5F5F5F5F5F5F5F5F5F5F5F5F5F5F5F5E2F5F5F5F5F5F5F5F5F5F5F5F5F5F5F5F5F5F5F5F5F5F5F5F5F5F5E2E2E2F5F5F5F5F5F5F5
310
F5F5F5F5F5F5F5F5F5F5F5F5F5F5F5F5F5F5F5E2F5F5F5F5F5F5F5F5F5F5F5F5F5F5F5F5F5F5F5F5F5F5F5F5F5F5F5F5F5F5F5F5F5F5F5F5F5F5F5F5F5F5F5F5F5F5F5F5F5F5F5F5F5F5F5F5F5F5F5F5F5F5F5F5F5F5F5F5F5F5F5F5F5F5F5F5F5F5F5F5F5F5F5F5F5F5F5F5F5F5F5F5F5F5F5F5F5F5F5F5F5F5F5F5F5F5F5
310
F5F5F5F5F5F5F5F5F5F5F5F5F5F5F5F5E2F5F5F5F5F5F5F5F5F5F5F5F5F5F5F5F5F5F5F5F5F5F5F5F5F5F5E2E2E2F5F5F5F5F5F5F5F5F5F5F5E2F5F5F5F5F5F5F5F5F5F5F5F5F5F5E2F5F5F5F5F5F5F5F5F5F5F5F5F5F5F5F5F5F5F5F5F5F5F5F5F5F5F5F5F5F5F5F5F5F5F5F5F5F5F5F5F5F5F5F5F5F5F5F5F5F5F5F5F5F5
310
F5F5F5F5F5F5F5F5F5F5F5F5F5F5F5F5F5F5F5F5F5F5F5F5F5F5F5F5F5F5F5F5F5F5F5F5F5F5F5F5F5F5F5F5F5F5F5F5F5F5F5F5F5F5F5F5F5F5F5F5F5F5F5F5F5F5F5F5F5E2F5F5F5F5F5F5F5F5F5F5F5F5F5F5E2F5F5F5F5F5F5F5F5F5F5F5E2E2E2F5F5F5F5F5F5F5F5F5F5F5E2F5F5F5F5F5F5F5F5F5F5F5F5F5F5E2F5
310
F5F5F5F5F5F5F5F5F5F5F5F5F5F5F5F5F5F5F5F5F5F5F5F5F5F5F5F5F5F5F5F5F5F5F5F5F5F5F5F5F5F5F5F5F5F5F5F5F5F5F5F5F5F5F5F5F5F5F5F5F5F5F5F5F5F5F5F5F5F5F5F5F5F5F5F5F5F5F5F5F5F5F5F5F5F5F5F5F5F5F5F5F5F5F5F5F5F5F5F5F5F5F5F5F5F5F5F5F5F5F5F5F5F5F5F5F5F5F5F5F5F5E2F5F5F5F5
310
F5F5F5F5F5F5F5F5F5F5E2F5F5F5F5F5F5F5F5F5F5F5E2E2E2F5F5F5F5F5F5F5F5F5F5F5E2F5F5F5F5F5F5F5F5F5F5F5F5F5F5E2F5F5F5F5F5F5F5F5F5F5F5F5F5F5F5F5F5F5F5F5F5F5F5F5F5F5F5F5F5F5F5F5F5F5F5F5F5F5F5F5F5F5F5F5F5F5F5F5F5F5F5F5F5F5F5F5F5F5F5F5F5F5F5F5F5F5F5F5F5F5F5F5F5F5F5
310
F5F5F5F5F5F5F5F5F5F5F5F5F5F5F5F5F5F5F5F5F5F5F5F5F5F5F5F5F5F5F5F5F5F5F5F5F5F5F5F5F5F5F5F5F5F5F5F5E2F5F5F5F5F5F5F5F5F5F5F5F5F5F5E2F5F5F5F5F5F5F5F5F5F5F5E2E2E2F5F5F5F5F5F5F5F5F5F5F5E2F5F5F5F5F5F5F5F5F5F5F5F5F5F5E2F5F5F5F5F5F5F5F5F5F5F5F5F5F5F5F5F5F5F5F5F5F5
310
F5F5F5F5F5F5F5F5F5F5F5F5F5F5F5F5F5F5F5F5F5F5F5F5F5F5F5F5F5F5F5F5F5F5F5F5F5F5F5F5F5F5F5F5F5F5F5F5F5F5F5F5F5F5F5F5F5F5F5F5F5F5F5F5F5F5F5F5F5F5F5F5F5F5F5F5F5F5F5F5F5F5F5F5F5F5F5F5F5F5F5F5F5F5F5F5F5F5F5F5F5E2F5F5F5F5F5F5F5F5F5F5F5F5F5F5E2F5F5F5F5F5F5F5F5F5F5
310
F5E2E2E2F5F5F5F5F5F5F5F5F5F5F5E2F5F5F5F5F5F5F5F5F5F5F5F5F5F5E2F5F5F5F5F5F5F5F5F5F5F5F5F5F5F5F5F5F5F5F5F5F5F5F5F5F5F5F5F5F5F5F5F5F5F5F5F5F5F5F5F5F5F5F5F5F5F5F5F5F5F5F5F5F5F5F5F5F5F5F5F5F5F5F5F5F5F5F5F5F5F5F5F5F5F5F5F5F5F5F5F5F5F5F5F5F5F5F5F5F5F5F5F5F5F5F5
310
F5F5F5F5F5F5F5F5F5F5F5F5F5F5F5F5F5F5F5F5F5F5F5F5F5F5F5E2F5F5F5F5F5F5F5F5F5F5F5F5F5F5E2F5F5F5F5F5F5F5F5F5F5F5E2E2E2F5F5F5F5F5F5F5F5F5F5F5E2F5F5F5F5F5F5F5F5F5F5F5F5F5F5E2F5F5F5F5F5F5F5F5F5F5F5F5F5F5F5F5F5F5F5F5F5F5F5F5F5F5F5F5F5F5F5F5F5F5F5F5F5F5F5F5F5F5F5
310
F5F5F5F5F5F5F5F5F5F5F5F5F5F5F5F5F5F5F5F5F5F5F5F5F5F5F5F5F5F5F5F5F5F5F5F5F5F5F5F5F5F5F5F5F5F5F5F5F5F5F5F5F5F5F5F5F5F5F5F5F5F5F5F5F5F5F5F5F5F5F5F5F5F5F5F5F5F5F5F5E2F5F5F5F5F5F5F5F5F5F5F5F5F5F5E2F5F5F5F5F5F5F5F5F5F5F5E2E2E2F5F5F5F5F5F5F5F5F5F5F5E2F5F5F5F5F5
310
F5F5F5F5F5F5F5F5F5E2F5F5F5F5F5F5F5F5F5F5F5F5F5F5F5F5F5F5F5F5F5F5F5F5F5F5F5F5F5F5F5F5F5F5F5F5F5F5F5F5F5F5F5F5F5F5F5F5F5F5F5F5F5F5F5F5F5F5F5F5F5F5F5F5F5F5F5F5F5F5F5F5F5F5F5F5F5F5F5F5F5F5F5F5F5F5F5F5F5F5F5F5F5F5F5F5F5F5F5F5F5F5F5F5F5F5F5F5F5F5F5F5F5F5F5F5F5
310
F5F5F5F5F5F5E2F5F5F5F5F5F5F5F5F5F5F5F5F5F5E2F5F5F5F5F5F5F5F5F5F5F5E2E2E2F5F5F5F5F5F5F5F5F5F5F5E2F5F5F5F5F5F5F5F5F5F5F5F5F5F5E2F5F5F5F5F5F5F5F5F5F5F5F5F5F5F5F5F5F5F5F5F5F5F5F5F5F5F5F5F5F5F5F5F5F5F5F5F5F5F5F5F5F5F5F5F5F5F5F5F5F5F5F5F5F5F5F5F5F5F5F5F5F5F5F5
310
F5F5F5F5F5F5F5F5F5F5F5F5F5F5F5F5F5F5F5F5F5F5F5F5F5F5F5F5F5F5F5F5F5F5F5F5F5F5F5F5F5F5F5F5F5F5F5F5F5F5F5F5F5F5F5F5F5F5F5E2F5F5F5F5F5F5F5F5F5F5F5F5F5F5E2F5F5F5F5F5F5F5F5F5F5F5E2E2E2F5F5F5F5F5F5F5F5F5F5F5E2F5F5F5F5F5F5F5F5F5F5F5F5F5F5E2F5F5F5F5F5F5F5F5F5F5F5
310
F5F5F5F5F5F5F5F5F5F5F5F5F5F5F5F5F5F5F5F5F5F5F5F5F5F5F5F5F5F5F5F5F5F5F5F5F5F5F5F5F5F5F5F5F5F5F5F5F5F5F5F5F5F5F5F5F5F5F5F5F5F5F5F5F5F5F5F5F5F5F5F5F5F5F5F5F5F5F5F5F5F5F5F5F5F5F5F5F5F5F5F5F5F5F5F5F5F5F5F5F5F5F5F5F5F5F5F5F5F5F5F5E2F5F5F5F5F5F5F5F5F5F5F5F5F5F5
310
E2F5F5F5F5F5F5F5F5F5F5F5E2E2E2F5F5F5F5F5F5F5F5F5F5F5E2F5F5F5F5F5F5F5F5F5F5F5F5F5F5E2F5F5F5F5F5F5F5F5F5F5F5F5F5F5F5F5F5F5F5F5F5F5F5F5F5F5F5F5F5F5F5F5F5F5F5F5F5F5F5F5F5F5F5F5F5F5F5F5F5F5F5F5F5F5F5F5F5F5F5F5F5F5F5F5F5F5F5F5F5F5F5F5F5F5F5F5F5F5F5F5F5F5F5F5F5
310
F5F5F5F5F5F5F5F5F5F5F5F5F5F5F5F5F5F5F5F5F5F5F5F5F5F5F5F5F5F5F5F5F5F5F5F5F5F5E2F5F5F5F5F5F5F5F5F5F5F5F5F5F5E2F5F5F5F5F5F5F5F5F5F5F5E2E2E2F5F5F5F5F5F5F5F5F5F5F5E2F5F5F5F5F5F5F5F5F5F5F5F5F5F5E2F5F5F5F5F5F5F5F5F5F5F5F5F5F5F5F5F5F5F5F5F5F5F5F5F5F5F5F5F5F5F5F5
310
F5F5F5F5F5F5F5F5F5F5F5F5F5F5F5F5F5F5F5F5F5F5F5F5F5F5F5F5F5F5F5F5F5F5F5F5F5F5F5F5F5F5F5F5F5F5F5F5F5F5F5F5F5F5F5F5F5F5F5F5F5F5F5F5F5F5F5F5F5F5F5F5F5F5F5F5F5F5F5F5F5F5F5F5F5F5F5F5F5F5F5E2F5F5F5F5F5F5F5F5F5F5F5F5F5F5E2F5F5F5F5F5F5F5F5F5F5F5E2E2E2F5F5F5F5F5F5
310
F5F5F5F5F5E2F5F5F5F5F5F5F5F5F5F5F5F5F5F5E2F5F5F5F5F5F5F5F5F5F5F5F5F5F5F5F5F5F5F5F5F5F5F5F5F5F5F5F5F5F5F5F5F5F5F5F5F5F5F5F5F5F5F5F5F5F5F5F5F5F5F5F5F5F5F5F5F5F5F5F5F5F5F5F5F5F5F5F5F5F5F5F5F5F5F5F5F5F5F5F5F5F5F5F5F5F5F5F5F5F5F5F5F5F5F5F5F5F5F5F5F5F5F5F5F5F5
310
F5F5F5F5F5F5F5F5F5F5F5F5F5F5F5F5F5E2F5F5F5F5F5F5F5F5F5F5F5F5F5F5E2F5F5F5F5F5F5F5F5F5F5F5E2E2E2F5F5F5F5F5F5F5F5F5F5F5E2F5F5F5F5F5F5F5F5F5F5F5F5F5F5E2F5F5F5F5F5F5F5F5F5F5F5F5F5F5F5F5F5F5F5F5F5F5F5F5F5F5F5F5F5F5F5F5F5F5F5F5F5F5F5F5F5F5F5F5F5F5F5F5F5F5F5F5F5
310
F5F5F5F5F5F5F5F5F5F5F5F5F5F5F5F5F5F5F5F5F5F5F5F5F5F5F5F5F5F5F5F5F5F5F5F5F5F5F5F5F5F5F5F5F5F5F5F5F5F5F5F5F5F5F5F5F5F5F5F5F5F5F5F5F5F5F5F5F5F5E2F5F5F5F5F5F5F5F5F5F5F5F5F5F5E2F5F5F5F5F5F5F5F5F5F5F5E2E2E2F5F5F5F5F5F5F5F5F5F5F5E2F5F5F5F5F5F5F5F5F5F5F5F5F5F5E2
310
F5F5F5F5F5F5F5F5F5F5F5F5F5F5F5F5F5F5F5F5F5F5F5F5F5F5F5F5F5F5F5F5F5F5F5F5F5F5F5F5F5F5F5F5F5F5F5F5F5F5F5F5F5F5F5F5F5F5F5F5F5F5F5F5F5F5F5F5F5F5F5F5F5F5F5F5F5F5F5F5F5F5F5F5F5F5F5F5F5F5F5F5F5F5F5F5F5F5F5F5F5F5F5F5F5F5F5F5F5F5F5F5F5F5F5F5F5F5F5F5F5F5F5E2F5F5F5
310
F5F5F5F5F5F5F5F5F5F5F5E2F5F5F5F5F5F5F5F5F5F5F5E2E2E2F5F5F5F5F5F5F5F5F5F5F5E2F5F5F5F5F5F5F5F5F5F5F5F5F5F5E2F5F5F5F5F5F5F5F5F5F5F5F5F5F5F5F5F5F5F5F5F5F5F5F5F5F5F5F5F5F5F5F5F5F5F5F5F5F5F5F5F5F5F5F5F5F5F5F5F5F5F5F5F5F5F5F5F5F5F5F5F5F5F5F5F5F5F5F5F5F5F5F5F5F5
310
F5F5F5F5F5F5F5F5F5F5F5F5F5F5F5F5F5F5F5F5F5F5F5F5F5F5F5F5F5F5F5F5F5F5F5F5F5F5F5F5F5F5F5F5F5F5F5F5F5E2F5F5F5F5F5F5F5F5F5F5F5F5F5F5E2F5F5F5F5F5F5F5F5F5F5F5E2E2E2F5F5F5F5F5F5F5F5F5F5F5F5F5F5F5F5F5F5F5F5F5F5F5F5F5F5E2F5F5F5F5F5F5F5F5F5F5F5F5F5F5F5F5F5F5F5F5F5
310
F5F5F5F5F5F5F5F5F5F5F5F5F5F5F5F5F5F5F5F5F5F5F5F5F5F5F5F5F5F5F5F5F5F5F5F5F5F5F5F5F5F5F5F5F5F5F5F5F5F5F5F5F5F5F5F5F5F5F5F5F5F5F5F5F5F5F5F5F5F5F5F5F5F5F5F5F5F5F5F5F5F5F5F5F5F5F5F5F5F5F5F5F5F5F5F5F5F5F5F5F5F5E2F5F5F5F5F5F5F5F5F5F5F5F5F5F5F5F5F5F5F5F5F5F5F5F5
310
F5F5E2E2E2F5F5F5F5F5F5F5F5F5F5F5F5F5F5F5F5F5F5F5F5F5F5F5F5F5F5E2F5F5F5F5F5F5F5F5F5F5F5F5F5F5F5F5F5F5F5F5F5F5F5F5F5F5F5F5F5F5F5F5F5F5F5F5F5F5F5F5F5F5F5F5F5F5F5F5F5F5F5F5F5F5F5F5F5F5F5F5F5F5F5F5F5F5F5F5F5F5F5F5F5F5F5F5F5F5F5F5F5F5F5F5F5F5F5F5F5F5F5F5F5F5F5
310
F5F5F5F5F5F5F5F5F5F5F5F5F5F5F5F5F5F5F5F5F5F5F5F5F5F5F5F5E2F5F5F5F5F5F5F5F5F5F5F5F5F5F5F5F5F5F5F5F5F5F5F5F5F5F5E2E2E2F5F5F5F5F5F5F5F5F5F5F5F5F5F5F5F5F5F5F5F5F5F5F5F5F5F5E2F5F5F5F5F5F5F5F5F5F5F5F5F5F5F5F5F5F5F5F5F5F5F5F5F5F5F5F5F5F5F5F5F5F5F5F5F5F5F5F5F5F5
310
F5F5F5F5F5F5F5F5F5F5F5F5F5F5F5F5F5F5F5F5F5F5F5F5F5F5F5F5F5F5F5F5F5F5F5F5F5F5F5F5F5F5F5F5F5F5F5F5F5F5F5F5F5F5F5F5F5F5F5F5F5F5F5F5F5F5F5F5F5F5F5F5F5F5F5F5F5F5F5F5F5E2F5F5F5F5F5F5F5F5F5F5F5F5F5F5F5F5F5F5F5F5F5F5F5F5F5F5E2E2E2F5F5F5F5F5F5F5F5F5F5F5F5F5F5F5F5
310
F5F5F5F5F5F5F5F5F5F5E2F5F5F5F5F5F5F5F5F5F5F5F5F5F5F5F5F5F5F5F5F5F5F5F5F5F5F5F5F5F5F5F5F5F5F5F5F5F5F5F5F5F5F5F5F5F5F5F5F5F5F5F5F5F5F5F5F5F5F5F5F5F5F5F5F5F5F5F5F5F5F5F5F5F5F5F5F5F5F5F5F5F5F5F5F5F5F5F5F5F5F5F5F5F5F5F5F5F5F5F5F5F5F5F5F5F5F5F5F5F5F5F5F5F5F5F5
310
F5F5F5F5F5F5F5E2F5F5F5F5F5F5F5F5F5F5F5F5F5F5F5F5F5F5F5F5F5F5F5F5F5F5E2E2E2F5F5F5F5F5F5F5F5F5F5F5F5F5F5F5F5F5F5F5F5F5F5F5F5F5F5E2E2E2E2E2E2E2E2E2E2E2E2E2E2E2E2E2E2E2E2E2E2E2E2E2E2E2E2E2E2E2E2E2E2E2E2E2E2E2E2E2E2E2E2E2E2E2E2E2E2E2E2E2E2E2E2E2E2E2E2E2E2E2E2
310
E2E2E2E2E2E2E2E2E2E2E2E2E2E2E2E2E2E2E2E2E2E2E2E2E2E2E2E2E2E2E2E2E2E2E2E2E2E2E2E2E2E2E2E2E2E2E2E2E2E2E2E2E2E2E2E2E2E2E2E2E2F5F5F5F5F5F5F5F5F5F5F5F5F5F5F5F5F5F5F5F5F5F5F5F5F5F5E2E2E2F5F5F5F5F5F5F5F5F5F5F5F5F5F5F5F5F5F5F5F5F5F5F5F5F5F5F5F5F5F5F5F5F5F5F5F5F5
310
F5F5F5F5F5F5F5F5F5F5F5F5F5F5F5F5F5F5F5F5F5F5F5F5F5F5F5F5F5F5F5F5F5F5F5F5F5F5F5F5F5F5F5F5F5F5F5F5F5F5F5F5F5F5F5F5F5F5F5F5F5F5F5F5F5F5F5F5F5F5F5F5F5F5F5F5F5F5F5F5F5F5F5F5F5F5F5F5F5F5F5F5F5F5F5F5F5F5F5F5F5F5F5F5F5F5F5F5F5F5F5F5F5F5F5F5F5F5F5F5F5F5F5F5F5F5F5
310
F5F5F5F5F5F5F5F5F5F5F5F5F5E2E2E2F5F5F5F5F5F5F5F5F5F5F5F5F5F5F5F5F5F5F5F5F5F5F5F5F5F5F5F5F5F5F5F5F5F5F5F5F5F5F5F5F5F5F5F5F5F5F5F5F5F5F5F5F5F5F5F5F5F5F5F5F5F5F5F5F5F5F5F5F5F5F5F5F5F5F5F5F5F5F5F5F5F5F5F5F5F5F5F5F5F5F5F5F5F5F5F5F5F5F5F5F5F5F5F5F5F5F5F5F5F5F5
310
F5F5F5F5F5F5F5F5F5F5F5F5F5F5F5F5F5F5F5F5F5F5F5F5F5F5F5F5F5F5F5F5F5F5F5F5F5F5F5F5F5F5F5F5F5F5F5F5F5F5F5F5F5F5F5F5F5F5F5F5F5F5F5F5F5F5E2E2E2F5F5F5F5F5F5F5F5F5F5F5F5F5F5F5F5F5F5F5F5F5F5F5F5F5F5F5F5F5F5F5F5F5F5F5F5F5F5F5F5F5F5F5F5F5F5F5F5F5F5F5F5F5F5F5F5F5F5
310
F5F5F5F5F5F5F5F5F5F5F5F5F5F5F5F5F5F5F5F5F5F5F5F5F5F5F5F5F5F5F5F5F5F5F5F5F5F5F5F5F5F5F5F5F5F5F5F5F5F5F5F5F5F5F5F5F5F5F5F5F5F5F5F5F5F5F5F5F5F5F5F5F5F5F5F5F5F5F5F5F5F5F5F5F5F5F5F5F5F5F5F5F5F5F5F5F5F5F5F5F5F5F5F5F5F5F5F5F5F5F5F5F5F5F5F5F5F5F5E2E2E2F5F5F5F5F5
310
F5F5F5F5F5F5E2F5F5F5F5F5F5F5F5F5F5F5F5F5F5F5F5F5F5F5F5F5F5F5F5F5F5F5F5F5F5F5F5F5F5F5F5F5F5F5F5F5F5F5F5F5F5F5F5F5F5F5F5F5F5F5F5F5F5F5F5F5F5F5F5F5F5F5F5F5F5F5F5F5F5F5F5F5F5F5F5F5F5F5F5F5F5F5F5F5F5F5F5F5F5F5F5F5F5F5F5F5F5F5F5F5F5F5F5F5F5F5F5F5F5F5F5F5F5F5F5
310
F5F5F5F5F5F5F5F5F5F5F5F5F5F5F5F5F5F5F5F5F5F5F5F5F5F5F5F5F5F5F5F5F5E2F5F5F5F5F5F5F5F5F5F5F5E2E2E2F5F5F5F5F5F5F5F5F5F5F5E2F5F5F5F5F5F5F5F5F5F5F5F5F5F5F5F5F5F5F5F5F5F5F5F5F5F5F5F5F5F5F5F5F5F5F5F5F5F5F5F5F5F5F5F5F5F5F5F5F5F5F5F5F5F5F5F5F5F5F5F5F5F5F5F5F5F5F5
310
F5F5F5F5F5F5F5F5F5F5F5F5F5F5F5F5F5F5F5F5F5F5F5F5F5F5F5F5F5F5F5F5F5F5F5F5F5F5F5F5F5F5F5F5F5F5F5F5F5F5F5F5F5F5F5F5F5F5F5F5F5F5F5F5F5F5F5F5F5F5F5F5F5F5F5F5F5F5F5F5F5F5F5F5F5F5E2F5F5F5F5F5F5F5F5F5F5F5E2E2E2F5F5F5F5F5F5F5F5F5F5F5E2F5F5F5F5F5F5F5F5F5F5F5F5F5F5
310
F5F5F5F5F5F5F5F5F5F5F5F5F5F5F5F5F5F5F5F5F5F5F5F5F5F5F5F5F5F5F5F5F5F5F5F5F5F5F5F5F5F5F5F5F5F5F5F5F5F5F5F5F5F5F5F5F5F5F5F5F5F5F5F5F5F5F5F5F5F5F5F5F5F5F5F5F5F5F5F5F5F5F5F5F5F5F5F5F5F5F5F5F5F5F5F5F5F5F5F5F5F5F5F5F5F5F5F5F5F5F5F5F5F5F5F5F5F5F5F5F5F5F5F5F5F5F5
310
F5F5F5F5F5F5F5F5F5F5F5F5E2F5F5F5F5F5F5F5F5F5F5F5E2E2E2F5F5F5F5F5F5F5F5F5F5F5E2F5F5F5F5F5F5F5F5F5F5F5F5F5F5F5F5F5F5F5F5F5F5F5F5F5F5F5F5F5F5F5F5F5F5F5F5F5F5F5F5F5F5F5F5F5F5F5F5F5F5F5F5F5F5F5F5F5F5F5F5F5F5F5F5F5F5F5F5F5F5F5F5F5F5F5F5F5F5F5F5F5F5F5F5F5F5F5F5
310
F5F5F5F5F5F5F5F5F5F5F5F5F5F5F5F5F5F5F5F5F5F5F5F5F5F5F5F5F5F5F5F5F5F5F5F5F5F5F5F5F5F5F5F5F5F5F5F5F5F5F5F5F5F5F5F5F5F5F5F5F5F5F5F5F5E2F5F5F5F5F5F5F5F5F5F5F5E2E2E2F5F5F5F5F5F5F5F5F5F5F5E2F5F5F5F5F5F5F5F5F5F5F5F5F5F5F5F5F5F5F5F5F5F5F5F5F5F5F5F5F5F5F5F5F5F5F5
310
F5F5F5F5F5F5F5F5F5F5F5F5F5F5F5F5F5F5F5F5F5F5F5F5F5F5F5F5F5F5F5F5F5F5F5F5F5F5F5F5F5F5F5F5F5F5F5F5F5F5F5F5F5F5F5F5F5F5F5F5F5F5F5F5F5F5F5F5F5F5F5F5F5F5F5F5F5F5F5F5F5F5F5F5F5F5F5F5F5F5F5F5F5F5F5F5F5F5F5F5F5F5F5F5F5F5F5F5F5F5F5F5F5F5F5F5F5F5E2F5F5F5F5F5F5F5F5
310
F5F5F5E2E2E2F5F5F5F5F5F5F5F5F5F5F5E2F5F5F5F5F5F5F5F5F5F5F5F5F5F5F5F5F5F5F5F5F5F5F5F5F5F5F5F5F5F5F5F5F5F5F5F5F5F5F5F5F5F5F5F5F5F5F5F5F5F5F5F5F5F5F5F5F5F5F5F5F5F5F5F5F5F5F5F5F5F5F5F5F5F5F5F5F5F5F5F5F5F5F5F5F5F5F5F5F5F5F5F5F5F5F5F5F5F5F5F5F5F5F5F5F5F5F5F5F5
310
F5F5F5F5F5F5F5F5F5F5F5F5F5F5F5F5F5F5F5F5F5F5F5F5F5F5F5F5F5F5F5F5F5F5F5F5F5F5F5F5F5F5F5F5E2F5F5F5F5F5F5F5F5F5F5F5E2E2E2F5F5F5F5F5F5F5F5F5F5F5E2F5F5F5F5F5F5F5F5F5F5F5F5F5F5F5F5F5F5F5F5F5F5F5F5F5F5F5F5F5F5F5F5F5F5F5F5F5F5F5F5F5F5F5F5F5F5F5F5F5F5F5F5F5F5F5F5
310
F5F5F5F5F5F5F5F5F5F5F5F5F5F5F5F5F5F5F5F5F5F5F5F5F5F5F5F5F5F5F5F5F5F5F5F5F5F5F5F5F5F5F5F5F5F5F5F5F5F5F5F5F5F5F5F5F5F5F5F5F5F5F5F5F5F5F5F5F5F5F5F5F5F5F5F5F5F5F5F5F5F5F5F5F5F5F5F5F5F5F5F5F5F5F5F5F5E2F5F5F5F5F5F5F5F5F5F5F5E2E2E2F5F5F5F5F5F5F5F5F5F5F5E2E2E2E2
310
E2E2E2E2E2F5F5F5F5F5F5F5F5F5E2E2E2E2E2E2E2E2E2E2E2E2E2E2E2E2F5F5F5F5F5F5F5F5F5F5E2E2E2E2E2E2E2E2E2E2E2E2E2E2E2E2F5F5F5F5F5F5F5F5F5E2E2E2E2E2E2E2E2E2E2E2E2E2E2E2E2E2F5F5F5F5F5F5F5F5F5E2E2E2E2E2E2E2E2E2E2E2E2E2E2E2E2F5F5F5F5F5F5F5F5F5F5E2E2E2E2E2E2E2E2E2E2
310
E2E2E2E2E2E2F5F5F5F5F5F5F5F5F5E2E2E2E2E2E2E2E2E2F5F5F5F5F5F5F5F5F5F5F5E2E2E2F5F5F5F5F5F5F5F5F5F5F5F5F5F5F5F5F5F5F5F5F5F5F5F5F5F5F5F5F5F5F5F5F5F5F5F5F5F5F5F5F5F5F5F5F5F5F5F5F5F5F5F5F5F5F5F5F5F5F5F5F5F5F5F5F5F5F5F5F5F5F5F5F5F5F5F5F5F5F5F5F5F5F5F5F5F5F5F5F5
310
F5F5F5F5F5F5F5F5F5F5F5F5F5F5F5F5F5F5F5F5F5F5F5F5F5F5F5F5F5F5F5F5F5F5F5F5F5F5F5F5F5F5F5F5F5F5F5F5F5F5F5F5F5F5F5F5F5F5F5F5F5F5F5F5F5F5F5F5F5F5F5F5F5F5F5F5F5F5F5F5F5F5F5F5F5F5F5F5E2E2E2F5F5F5F5F5F5F5F5F5F5F5F5F5F5F5F5F5F5F5F5F5F5F5F5F5F5F5F5F5F5F5F5F5F5F5F5
310
F5F5F5F5F5F5F5F5F5F5F5F5F5F5F5F5F5F5F5F5F5F5F5F5F5F5F5F5F5F5F5F5F5F5F5F5F5F5F5F5F5F5F5F5F5F5F5F5F5F5F5F5F5F5F5F5F5F5F5F5F5F5F5F5F5F5F5F5F5F5F5F5F5F5F5F5F5F5F5F5F5F5F5F5F5F5F5F5F5F5F5F5F5F5F5F5F5F5F5F5F5F5F5F5F5F5F5F5F5F5F5F5F5F5F5F5F5F5F5F5F5F5F5F5F5F5F5
310
F5F5F5F5F5F5F5F5F5F5F5F5F5F5E2E2E2F5F5F5F5F5F5F5F5F5F5F5F5F5F5F5F5F5F5F5F5F5F5F5F5F5F5F5F5F5F5F5F5F5F5F5F5F5F5F5F5F5F5F5F5F5F5F5F5F5F5F5F5F5F5F5F5F5F5F5F5F5F5F5F5F5F5F5F5F5F5F5F5F5F5F5F5F5F5F5F5F5F5F5F5F5F5F5F5F5F5F5F5F5F5F5F5F5F5F5F5F5F5F5F5F5F5F5F5F5F5
310
F5F5F5F5F5F5F5F5F5F5F5F5F5F5F5F5F5F5F5F5F5F5F5F5F5F5F5F5F5F5F5F5F5F5F5F5F5F5F5F5F5F5F5F5F5F5F5F5F5F5F5F5F5F5F5F5F5F5F5F5F5F5F5F5F5F5F5E2E2E2F5F5F5F5F5F5F5F5F5F5F5F5F5F5F5F5F5F5F5F5F5F5F5F5F5F5F5F5F5F5F5F5F5F5F5F5F5F5F5F5F5F5F5F5F5F5F5F5F5F5F5F5F5F5F5F5F5
310
F5F5F5F5F5F5F5F5F5F5F5F5F5F5F5F5F5F5F5F5F5F5F5F5F5F5F5F5F5F5F5F5F5F5F5F5F5F5F5F5F5F5F5F5F5F5F5F5F5F5F5F5F5F5F5F5F5F5F5F5F5F5F5F5F5F5F5F5F5F5F5F5F5F5F5F5F5F5F5F5F5F5F5F5F5F5F5F5F5F5F5F5F5F5F5F5F5F5F5F5F5F5F5F5F5F5F5F5F5F5F5F5F5F5F5F5F5F5F5F5E2EFE2E2E2E2E2
310
E2E2E2E2E2E2E2E2E2E2E2E2E2E2E2E2E2E2E2E2E2E2E2E2E2E2E2E2E2E2E2E2E2E2E2E2E2E2E2E2E2E2E2E2E2E2E2E2E2E2E2E2E2E2E2E2E2E2E2E2E2E2E2E2E2E2E2E2E2E2E2E2E2E2E2E2E2E2E2E2E2E2E2E2E2E2E2E2E2E2E2E2E2E2E2E2E2E2E2E2E2E2E2E2E2E2E2E2E2E2E2E2E2E2E2E2E2E2E2E2E2E2E2E2E2E2E2
310
E2E2E2E2E2E2E2E2E2E2E2E2E2E2E2E2E2E2E2E2E2E2E2E2E2E2E2E2E2E2E2E2E2E2E2E2E2E2E2E2E2E2E2E2E2E2E2EF
  0
XRECORD
  5
CFE7
102
{ACAD_REACTORS
330
CFAF
102
}
330
CFAF
100
AcDbXrecord
280
     1
102
MATERIAL
148
0.0
149
0.0
149
0.0
 93
        0
 94
      127
282
     0
 72
     0
 77
     0
171
     0
175
     0
179
     0
273
     0
  0
XRECORD
  5
CFB0
102
{ACAD_REACTORS
330
CFAF
102
}
330
CFAF
100
AcDbXrecord
280
     1
270
     1
271
     1
  0
XRECORD
  5
CFB1
102
{ACAD_REACTORS
330
CFAF
102
}
330
CFAF
100
AcDbXrecord
280
     1
270
     1
271
     1
  0
XRECORD
  5
CFB2
102
{ACAD_REACTORS
330
CFAF
102
}
330
CFAF
100
AcDbXrecord
280
     1
270
     1
271
     1
  0
XRECORD
  5
CFB3
102
{ACAD_REACTORS
330
CFAF
102
}
330
CFAF
100
AcDbXrecord
280
     1
270
     1
271
     1
  0
XRECORD
  5
CFB4
102
{ACAD_REACTORS
330
CFAF
102
}
330
CFAF
100
AcDbXrecord
280
     1
270
     1
271
     1
  0
XRECORD
  5
CFB5
102
{ACAD_REACTORS
330
CFAF
102
}
330
CFAF
100
AcDbXrecord
280
     1
270
     1
271
     1
  0
XRECORD
  5
CFE6
102
{ACAD_REACTORS
330
CFA7
102
}
330
CFA7
100
AcDbXrecord
280
     1
102
MATERIAL
148
0.0
149
0.0
149
0.0
 93
        0
 94
      127
282
     0
 72
     0
 77
     0
171
     0
175
     0
179
     0
273
     0
  0
XRECORD
  5
CFA8
102
{ACAD_REACTORS
330
CFA7
102
}
330
CFA7
100
AcDbXrecord
280
     1
270
     1
271
     1
  0
XRECORD
  5
CFA9
102
{ACAD_REACTORS
330
CFA7
102
}
330
CFA7
100
AcDbXrecord
280
     1
270
     1
271
     1
  0
XRECORD
  5
CFAA
102
{ACAD_REACTORS
330
CFA7
102
}
330
CFA7
100
AcDbXrecord
280
     1
270
     1
271
     1
  0
XRECORD
  5
CFAB
102
{ACAD_REACTORS
330
CFA7
102
}
330
CFA7
100
AcDbXrecord
280
     1
270
     1
271
     1
  0
XRECORD
  5
CFAC
102
{ACAD_REACTORS
330
CFA7
102
}
330
CFA7
100
AcDbXrecord
280
     1
270
     1
271
     1
  0
XRECORD
  5
CFAD
102
{ACAD_REACTORS
330
CFA7
102
}
330
CFA7
100
AcDbXrecord
280
     1
270
     1
271
     1
  0
XRECORD
  5
CFE3
102
{ACAD_REACTORS
330
CF7D
102
}
330
CF7D
100
AcDbXrecord
280
     1
102
MATERIAL
148
0.0
149
0.0
149
0.0
 93
        0
 94
      127
282
     0
 72
     0
 77
     0
171
     0
175
     0
179
     0
273
     0
  0
XRECORD
  5
CF7E
102
{ACAD_REACTORS
330
CF7D
102
}
330
CF7D
100
AcDbXrecord
280
     1
270
     1
271
     1
  0
XRECORD
  5
CF7F
102
{ACAD_REACTORS
330
CF7D
102
}
330
CF7D
100
AcDbXrecord
280
     1
270
     1
271
     1
  0
XRECORD
  5
CF80
102
{ACAD_REACTORS
330
CF7D
102
}
330
CF7D
100
AcDbXrecord
280
     1
270
     1
271
     1
  0
XRECORD
  5
CF81
102
{ACAD_REACTORS
330
CF7D
102
}
330
CF7D
100
AcDbXrecord
280
     1
270
     1
271
     1
  0
XRECORD
  5
CF82
102
{ACAD_REACTORS
330
CF7D
102
}
330
CF7D
100
AcDbXrecord
280
     1
270
     1
271
     1
  0
XRECORD
  5
CF83
102
{ACAD_REACTORS
330
CF7D
102
}
330
CF7D
100
AcDbXrecord
280
     1
270
     1
271
     1
  0
CELLSTYLEMAP
  5
CFE1
102
{ACAD_REACTORS
330
CFE0
102
}
330
CFE0
100
AcDbCellStyleMap
 90
        3
300
CELLSTYLE
  1
TABLEFORMAT_BEGIN
 90
        5
170
     1
 91
        0
 92
    32768
 62
   257
 93
        1
300
CONTENTFORMAT
  1
CONTENTFORMAT_BEGIN
 90
        0
 91
        0
 92
        4
 93
        0
300

 40
0.0
140
1.0
 94
        5
 62
     0
340
CF93
144
6.0
309
CONTENTFORMAT_END
171
     1
301
MARGIN
  1
CELLMARGIN_BEGIN
 40
1.5
 40
1.5
 40
1.5
 40
1.5
 40
0.18
 40
0.18
309
CELLMARGIN_END
 94
        6
 95
        1
302
GRIDFORMAT
  1
GRIDFORMAT_BEGIN
 90
        0
 91
        1
 62
     0
 92
       -2
340
0
 93
        0
 40
0.045
309
GRIDFORMAT_END
 95
        2
302
GRIDFORMAT
  1
GRIDFORMAT_BEGIN
 90
        0
 91
        1
 62
     0
 92
       -2
340
0
 93
        0
 40
0.045
309
GRIDFORMAT_END
 95
        4
302
GRIDFORMAT
  1
GRIDFORMAT_BEGIN
 90
        0
 91
        1
 62
     0
 92
       -2
340
0
 93
        0
 40
0.045
309
GRIDFORMAT_END
 95
        8
302
GRIDFORMAT
  1
GRIDFORMAT_BEGIN
 90
        0
 91
        1
 62
     0
 92
       -2
340
0
 93
        0
 40
0.045
309
GRIDFORMAT_END
 95
       16
302
GRIDFORMAT
  1
GRIDFORMAT_BEGIN
 90
        0
 91
        1
 62
     0
 92
       -2
340
0
 93
        0
 40
0.045
309
GRIDFORMAT_END
 95
       32
302
GRIDFORMAT
  1
GRIDFORMAT_BEGIN
 90
        0
 91
        1
 62
     0
 92
       -2
340
0
 93
        0
 40
0.045
309
GRIDFORMAT_END
309
TABLEFORMAT_END
  1
CELLSTYLE_BEGIN
 90
        1
 91
        1
300
_TITLE
309
CELLSTYLE_END
300
CELLSTYLE
  1
TABLEFORMAT_BEGIN
 90
        5
170
     1
 91
        0
 92
        0
 62
   257
 93
        1
300
CONTENTFORMAT
  1
CONTENTFORMAT_BEGIN
 90
        0
 91
        0
 92
        4
 93
        0
300

 40
0.0
140
1.0
 94
        5
 62
     0
340
CF93
144
4.5
309
CONTENTFORMAT_END
171
     1
301
MARGIN
  1
CELLMARGIN_BEGIN
 40
1.5
 40
1.5
 40
1.5
 40
1.5
 40
0.18
 40
0.18
309
CELLMARGIN_END
 94
        6
 95
        1
302
GRIDFORMAT
  1
GRIDFORMAT_BEGIN
 90
        0
 91
        1
 62
     0
 92
       -2
340
0
 93
        0
 40
0.045
309
GRIDFORMAT_END
 95
        2
302
GRIDFORMAT
  1
GRIDFORMAT_BEGIN
 90
        0
 91
        1
 62
     0
 92
       -2
340
0
 93
        0
 40
0.045
309
GRIDFORMAT_END
 95
        4
302
GRIDFORMAT
  1
GRIDFORMAT_BEGIN
 90
        0
 91
        1
 62
     0
 92
       -2
340
0
 93
        0
 40
0.045
309
GRIDFORMAT_END
 95
        8
302
GRIDFORMAT
  1
GRIDFORMAT_BEGIN
 90
        0
 91
        1
 62
     0
 92
       -2
340
0
 93
        0
 40
0.045
309
GRIDFORMAT_END
 95
       16
302
GRIDFORMAT
  1
GRIDFORMAT_BEGIN
 90
        0
 91
        1
 62
     0
 92
       -2
340
0
 93
        0
 40
0.045
309
GRIDFORMAT_END
 95
       32
302
GRIDFORMAT
  1
GRIDFORMAT_BEGIN
 90
        0
 91
        1
 62
     0
 92
       -2
340
0
 93
        0
 40
0.045
309
GRIDFORMAT_END
309
TABLEFORMAT_END
  1
CELLSTYLE_BEGIN
 90
        2
 91
        1
300
_HEADER
309
CELLSTYLE_END
300
CELLSTYLE
  1
TABLEFORMAT_BEGIN
 90
        5
170
     1
 91
        0
 92
        0
 62
   257
 93
        1
300
CONTENTFORMAT
  1
CONTENTFORMAT_BEGIN
 90
        0
 91
        0
 92
        4
 93
        0
300

 40
0.0
140
1.0
 94
        2
 62
     0
340
CF93
144
4.5
309
CONTENTFORMAT_END
171
     1
301
MARGIN
  1
CELLMARGIN_BEGIN
 40
1.5
 40
1.5
 40
1.5
 40
1.5
 40
0.18
 40
0.18
309
CELLMARGIN_END
 94
        6
 95
        1
302
GRIDFORMAT
  1
GRIDFORMAT_BEGIN
 90
        0
 91
        1
 62
     0
 92
       -2
340
0
 93
        0
 40
0.045
309
GRIDFORMAT_END
 95
        2
302
GRIDFORMAT
  1
GRIDFORMAT_BEGIN
 90
        0
 91
        1
 62
     0
 92
       -2
340
0
 93
        0
 40
0.045
309
GRIDFORMAT_END
 95
        4
302
GRIDFORMAT
  1
GRIDFORMAT_BEGIN
 90
        0
 91
        1
 62
     0
 92
       -2
340
0
 93
        0
 40
0.045
309
GRIDFORMAT_END
 95
        8
302
GRIDFORMAT
  1
GRIDFORMAT_BEGIN
 90
        0
 91
        1
 62
     0
 92
       -2
340
0
 93
        0
 40
0.045
309
GRIDFORMAT_END
 95
       16
302
GRIDFORMAT
  1
GRIDFORMAT_BEGIN
 90
        0
 91
        1
 62
     0
 92
       -2
340
0
 93
        0
 40
0.045
309
GRIDFORMAT_END
 95
       32
302
GRIDFORMAT
  1
GRIDFORMAT_BEGIN
 90
        0
 91
        1
 62
     0
 92
       -2
340
0
 93
        0
 40
0.045
309
GRIDFORMAT_END
309
TABLEFORMAT_END
  1
CELLSTYLE_BEGIN
 90
        3
 91
        2
300
_DATA
309
CELLSTYLE_END
  0
XRECORD
  5
CFE8
102
{ACAD_REACTORS
330
CFE0
102
}
330
CFE0
100
AcDbXrecord
280
     1
102
ACAD_ROUNDTRIP_PRE2007_TABLESTYLE
 90
        4
 91
        0
  1

 92
        4
 93
        0
  2

 94
        4
 95
        0
  3

  0
XRECORD
  5
CFE5
102
{ACAD_REACTORS
330
CFE4
102
}
330
CFE4
100
AcDbXrecord
280
     1
102
RTVSPropertyOp0
 70
     1
102
RTVSPropertyOp1
 70
     1
102
RTVSPropertyOp2
 70
     1
102
RTVSPropertyOp3
 70
     1
102
RTVSPropertyOp4
 70
     1
102
RTVSPropertyOp5
 70
     1
102
RTVSPropertyOp6
 70
     1
102
RTVSPropertyOp7
 70
     1
102
RTVSPropertyOp8
 70
     1
102
RTVSPropertyOp9
 70
     1
102
RTVSPropertyOp10
 70
     1
102
RTVSPropertyOp11
 70
     1
102
RTVSPropertyOp12
 70
     1
102
RTVSPropertyOp13
 70
     1
102
RTVSPropertyOp14
 70
     1
102
RTVSPropertyOp15
 70
     1
102
RTVSPropertyOp16
 70
     1
102
RTVSPropertyOp17
 70
     1
102
RTVSPropertyOp18
 70
     1
102
RTVSPropertyOp19
 70
     1
102
RTVSPropertyOp20
 70
     1
102
RTVSPropertyOp21
 70
     1
102
RTVSPropertyOp22
 70
     1
102
RTVSPropertyOp23
 70
     1
102
RTVSPropertyOp24
 70
     1
102
RTVSPropertyOp25
 70
     1
102
RTVSPropertyOp26
 70
     1
102
RTVSPropertyOp27
 70
     1
  0
XRECORD
  5
CFEC
102
{ACAD_REACTORS
330
CFEB
102
}
330
CFEB
100
AcDbXrecord
280
     1
102
RTVSPropertyOp0
 70
     1
102
RTVSPropertyOp1
 70
     1
102
RTVSPropertyOp2
 70
     1
102
RTVSPropertyOp3
 70
     1
102
RTVSPropertyOp4
 70
     1
102
RTVSPropertyOp5
 70
     1
102
RTVSPropertyOp6
 70
     1
102
RTVSPropertyOp7
 70
     1
102
RTVSPropertyOp8
 70
     1
102
RTVSPropertyOp9
 70
     1
102
RTVSPropertyOp10
 70
     1
102
RTVSPropertyOp11
 70
     1
102
RTVSPropertyOp12
 70
     1
102
RTVSPropertyOp13
 70
     1
102
RTVSPropertyOp14
 70
     1
102
RTVSPropertyOp15
 70
     1
102
RTVSPropertyOp16
 70
     1
102
RTVSPropertyOp17
 70
     1
102
RTVSPropertyOp18
 70
     1
102
RTVSPropertyOp19
 70
     1
102
RTVSPropertyOp20
 70
     1
102
RTVSPropertyOp21
 70
     1
102
RTVSPropertyOp22
 70
     1
102
RTVSPropertyOp23
 70
     1
102
RTVSPropertyOp24
 70
     1
102
RTVSPropertyOp25
 70
     1
102
RTVSPropertyOp26
 70
     1
102
RTVSPropertyOp27
 70
     1
  0
XRECORD
  5
CFEA
102
{ACAD_REACTORS
330
CFE9
102
}
330
CFE9
100
AcDbXrecord
280
     1
102
RTVSPropertyOp0
 70
     1
102
RTVSPropertyOp1
 70
     1
102
RTVSPropertyOp2
 70
     1
102
RTVSPropertyOp3
 70
     1
102
RTVSPropertyOp4
 70
     1
102
RTVSPropertyOp5
 70
     1
102
RTVSPropertyOp6
 70
     1
102
RTVSPropertyOp7
 70
     1
102
RTVSPropertyOp8
 70
     1
102
RTVSPropertyOp9
 70
     1
102
RTVSPropertyOp10
 70
     1
102
RTVSPropertyOp11
 70
     1
102
RTVSPropertyOp12
 70
     1
102
RTVSPropertyOp13
 70
     1
102
RTVSPropertyOp14
 70
     1
102
RTVSPropertyOp15
 70
     1
102
RTVSPropertyOp16
 70
     1
102
RTVSPropertyOp17
 70
     1
102
RTVSPropertyOp18
 70
     1
102
RTVSPropertyOp19
 70
     1
102
RTVSPropertyOp20
 70
     1
102
RTVSPropertyOp21
 70
     1
102
RTVSPropertyOp22
 70
     1
102
RTVSPropertyOp23
 70
     1
102
RTVSPropertyOp24
 70
     1
102
RTVSPropertyOp25
 70
     1
102
RTVSPropertyOp26
 70
     1
102
RTVSPropertyOp27
 70
     1
  0
ENDSEC
  0
EOF
