  0
SECTION
  2
HEADER
  9
$ACADVER
  1
AC1018
  9
$ACADMAINTVER
 70
   104
  9
$DWGCODEPAGE
  3
ANSI_932
  9
$AUTHOR
  1
pyxis04
  9
$LASTSAVEDBY
  1
pyxis04
  9
$INSBASE
 10
0.0
 20
0.0
 30
0.0
  9
$EXTMIN
 10
171873.1
 20
-15630.9
 30
0.0
  9
$EXTMAX
 10
201573.2
 20
5369.2
 30
0.0
  9
$LIMMIN
 10
113974.262998
 20
-77879.737002
  9
$LIMMAX
 10
259472.037002
 20
67618.037002
  9
$ORTHOMODE
 70
     0
  9
$REGENMODE
 70
     1
  9
$FILLMODE
 70
     1
  9
$QTEXTMODE
 70
     0
  9
$MIRRTEXT
 70
     0
  9
$LTSCALE
 40
1.0
  9
$ATTMODE
 70
     1
  9
$TEXTSIZE
 40
375.0
  9
$TRACEWID
 40
1.0
  9
$TEXTSTYLE
  7
Standard
  9
$CLAYER
  8
A231_壁：種別
  9
$CELTYPE
  6
ByLayer
  9
$CECOLOR
 62
   256
  9
$CELTSCALE
 40
50.0
  9
$DISPSILH
 70
     0
  9
$DIMSCALE
 40
1.0
  9
$DIMASZ
 40
2.5
  9
$DIMEXO
 40
0.625
  9
$DIMDLI
 40
3.75
  9
$DIMRND
 40
0.0
  9
$DIMDLE
 40
0.0
  9
$DIMEXE
 40
1.25
  9
$DIMTP
 40
0.0
  9
$DIMTM
 40
0.0
  9
$DIMTXT
 40
2.5
  9
$DIMCEN
 40
2.5
  9
$DIMTSZ
 40
0.0
  9
$DIMTOL
 70
     0
  9
$DIMLIM
 70
     0
  9
$DIMTIH
 70
     0
  9
$DIMTOH
 70
     0
  9
$DIMSE1
 70
     0
  9
$DIMSE2
 70
     0
  9
$DIMTAD
 70
     1
  9
$DIMZIN
 70
     8
  9
$DIMBLK
  1

  9
$DIMASO
 70
     1
  9
$DIMSHO
 70
     1
  9
$DIMPOST
  1

  9
$DIMAPOST
  1

  9
$DIMALT
 70
     0
  9
$DIMALTD
 70
     3
  9
$DIMALTF
 40
0.03937
  9
$DIMLFAC
 40
1.0
  9
$DIMTOFL
 70
     1
  9
$DIMTVP
 40
0.0
  9
$DIMTIX
 70
     0
  9
$DIMSOXD
 70
     0
  9
$DIMSAH
 70
     0
  9
$DIMBLK1
  1

  9
$DIMBLK2
  1

  9
$DIMSTYLE
  2
ISO-25
  9
$DIMCLRD
 70
     0
  9
$DIMCLRE
 70
     0
  9
$DIMCLRT
 70
     0
  9
$DIMTFAC
 40
1.0
  9
$DIMGAP
 40
0.625
  9
$DIMJUST
 70
     0
  9
$DIMSD1
 70
     0
  9
$DIMSD2
 70
     0
  9
$DIMTOLJ
 70
     0
  9
$DIMTZIN
 70
     8
  9
$DIMALTZ
 70
     0
  9
$DIMALTTZ
 70
     0
  9
$DIMUPT
 70
     0
  9
$DIMDEC
 70
     2
  9
$DIMTDEC
 70
     2
  9
$DIMALTU
 70
     2
  9
$DIMALTTD
 70
     3
  9
$DIMTXSTY
  7
Standard
  9
$DIMAUNIT
 70
     0
  9
$DIMADEC
 70
     0
  9
$DIMALTRND
 40
0.0
  9
$DIMAZIN
 70
     0
  9
$DIMDSEP
 70
    44
  9
$DIMATFIT
 70
     3
  9
$DIMFRAC
 70
     0
  9
$DIMLDRBLK
  1

  9
$DIMLUNIT
 70
     2
  9
$DIMLWD
 70
    -2
  9
$DIMLWE
 70
    -2
  9
$DIMTMOVE
 70
     0
  9
$LUNITS
 70
     2
  9
$LUPREC
 70
     6
  9
$SKETCHINC
 40
1.0
  9
$FILLETRAD
 40
0.0
  9
$AUNITS
 70
     0
  9
$AUPREC
 70
     8
  9
$MENU
  1
.
  9
$ELEVATION
 40
0.0
  9
$PELEVATION
 40
0.0
  9
$THICKNESS
 40
0.0
  9
$LIMCHECK
 70
     0
  9
$CHAMFERA
 40
0.0
  9
$CHAMFERB
 40
0.0
  9
$CHAMFERC
 40
0.0
  9
$CHAMFERD
 40
0.0
  9
$SKPOLY
 70
     0
  9
$TDCREATE
 40
2454145.195247280
  9
$TDUCREATE
 40
2454144.820247280
  9
$TDUPDATE
 40
2454145.196122512
  9
$TDUUPDATE
 40
2454144.821122512
  9
$TDINDWG
 40
0.0008794907
  9
$TDUSRTIMER
 40
0.0008776389
  9
$USRTIMER
 70
     1
  9
$ANGBASE
 50
0.0
  9
$ANGDIR
 70
     0
  9
$PDMODE
 70
     0
  9
$PDSIZE
 40
0.0
  9
$PLINEWID
 40
0.0
  9
$SPLFRAME
 70
     0
  9
$SPLINETYPE
 70
     6
  9
$SPLINESEGS
 70
     8
  9
$HANDSEED
  5
A805
  9
$SURFTAB1
 70
     6
  9
$SURFTAB2
 70
     6
  9
$SURFTYPE
 70
     6
  9
$SURFU
 70
     6
  9
$SURFV
 70
     6
  9
$UCSBASE
  2

  9
$UCSNAME
  2

  9
$UCSORG
 10
0.0
 20
0.0
 30
0.0
  9
$UCSXDIR
 10
1.0
 20
0.0
 30
0.0
  9
$UCSYDIR
 10
0.0
 20
1.0
 30
0.0
  9
$UCSORTHOREF
  2

  9
$UCSORTHOVIEW
 70
     0
  9
$UCSORGTOP
 10
0.0
 20
0.0
 30
0.0
  9
$UCSORGBOTTOM
 10
0.0
 20
0.0
 30
0.0
  9
$UCSORGLEFT
 10
0.0
 20
0.0
 30
0.0
  9
$UCSORGRIGHT
 10
0.0
 20
0.0
 30
0.0
  9
$UCSORGFRONT
 10
0.0
 20
0.0
 30
0.0
  9
$UCSORGBACK
 10
0.0
 20
0.0
 30
0.0
  9
$PUCSBASE
  2

  9
$PUCSNAME
  2

  9
$PUCSORG
 10
0.0
 20
0.0
 30
0.0
  9
$PUCSXDIR
 10
1.0
 20
0.0
 30
0.0
  9
$PUCSYDIR
 10
0.0
 20
1.0
 30
0.0
  9
$PUCSORTHOREF
  2

  9
$PUCSORTHOVIEW
 70
     0
  9
$PUCSORGTOP
 10
0.0
 20
0.0
 30
0.0
  9
$PUCSORGBOTTOM
 10
0.0
 20
0.0
 30
0.0
  9
$PUCSORGLEFT
 10
0.0
 20
0.0
 30
0.0
  9
$PUCSORGRIGHT
 10
0.0
 20
0.0
 30
0.0
  9
$PUCSORGFRONT
 10
0.0
 20
0.0
 30
0.0
  9
$PUCSORGBACK
 10
0.0
 20
0.0
 30
0.0
  9
$USERI1
 70
     0
  9
$USERI2
 70
     0
  9
$USERI3
 70
     0
  9
$USERI4
 70
     0
  9
$USERI5
 70
     0
  9
$USERR1
 40
0.0
  9
$USERR2
 40
0.0
  9
$USERR3
 40
0.0
  9
$USERR4
 40
0.0
  9
$USERR5
 40
0.0
  9
$WORLDVIEW
 70
     1
  9
$SHADEDGE
 70
     3
  9
$SHADEDIF
 70
    70
  9
$TILEMODE
 70
     1
  9
$MAXACTVP
 70
    64
  9
$PINSBASE
 10
0.0
 20
0.0
 30
0.0
  9
$PLIMCHECK
 70
     0
  9
$PEXTMIN
 10
25.7
 20
19.5
 30
0.0
  9
$PEXTMAX
 10
231.3
 20
175.5
 30
0.0
  9
$PLIMMIN
 10
-20.0
 20
-7.5
  9
$PLIMMAX
 10
277.0
 20
202.5
  9
$UNITMODE
 70
     0
  9
$VISRETAIN
 70
     1
  9
$PLINEGEN
 70
     0
  9
$PSLTSCALE
 70
     0
  9
$TREEDEPTH
 70
  3020
  9
$CMLSTYLE
  2
Standard
  9
$CMLJUST
 70
     0
  9
$CMLSCALE
 40
20.0
  9
$PROXYGRAPHICS
 70
     1
  9
$MEASUREMENT
 70
     1
  9
$CELWEIGHT
370
    13
  9
$ENDCAPS
280
     0
  9
$JOINSTYLE
280
     0
  9
$LWDISPLAY
290
     1
  9
$INSUNITS
 70
     4
  9
$HYPERLINKBASE
  1

  9
$STYLESHEET
  1

  9
$XEDIT
290
     1
  9
$CEPSNTYPE
380
     0
  9
$PSTYLEMODE
290
     1
  9
$FINGERPRINTGUID
  2
{D0686311-93E5-4965-BCEF-37CCEB3C99A5}
  9
$VERSIONGUID
  2
{387A601E-E697-4F95-A263-71BCBFF6BFF5}
  9
$EXTNAMES
290
     1
  9
$PSVPSCALE
 40
0.0
  9
$OLESTARTUP
290
     0
  9
$SORTENTS
280
   127
  9
$INDEXCTL
280
     0
  9
$HIDETEXT
280
     1
  9
$XCLIPFRAME
290
     0
  9
$HALOGAP
280
     0
  9
$OBSCOLOR
 70
   257
  9
$OBSLTYPE
280
     0
  9
$INTERSECTIONDISPLAY
280
     0
  9
$INTERSECTIONCOLOR
 70
   257
  9
$DIMASSOC
280
     1
  9
$PROJECTNAME
  1

  0
ENDSEC
  0
SECTION
  2
CLASSES
  0
CLASS
  1
ACDBDICTIONARYWDFLT
  2
AcDbDictionaryWithDefault
  3
ObjectDBX Classes
 90
        0
 91
        1
280
     0
281
     0
  0
CLASS
  1
DICTIONARYVAR
  2
AcDbDictionaryVar
  3
ObjectDBX Classes
 90
        0
 91
        3
280
     0
281
     0
  0
CLASS
  1
TABLESTYLE
  2
AcDbTableStyle
  3
ObjectDBX Classes
 90
     4095
 91
        1
280
     0
281
     0
  0
CLASS
  1
MATERIAL
  2
AcDbMaterial
  3
ObjectDBX Classes
 90
     1153
 91
        3
280
     0
281
     0
  0
CLASS
  1
VISUALSTYLE
  2
AcDbVisualStyle
  3
ObjectDBX Classes
 90
     4095
 91
        3
280
     0
281
     0
  0
CLASS
  1
SCALE
  2
AcDbScale
  3
ObjectDBX Classes
 90
     1153
 91
       17
280
     0
281
     0
  0
CLASS
  1
MLEADERSTYLE
  2
AcDbMLeaderStyle
  3
ACDB_MLEADERSTYLE_CLASS
 90
     4095
 91
        0
280
     0
281
     0
  0
CLASS
  1
CELLSTYLEMAP
  2
AcDbCellStyleMap
  3
ObjectDBX Classes
 90
     1152
 91
        1
280
     0
281
     0
  0
ENDSEC
  0
SECTION
  2
TABLES
  0
TABLE
  2
VPORT
  5
A7B2
330
0
100
AcDbSymbolTable
 70
     2
  0
VPORT
  5
4B
330
A7B2
100
AcDbSymbolTableRecord
100
AcDbViewportTableRecord
  2
*ACTIVE
 70
     0
 10
0.0
 20
0.0
 11
1.0
 21
1.0
 12
186723.139209
 22
-5293.669959
 13
0.0
 23
0.0
 14
100.0
 24
100.0
 15
100.0
 25
100.0
 16
0.0
 26
0.0
 36
1.0
 17
0.0
 27
0.0
 37
0.0
 40
21973.93594
 41
3.442559
 42
50.0
 43
0.0
 44
0.0
 50
0.0
 51
0.0
 71
     0
 72
   100
 73
     1
 74
     0
 75
     0
 76
     0
 77
     0
 78
     1
281
     0
 65
     1
110
0.0
120
0.0
130
0.0
111
1.0
121
0.0
131
0.0
112
0.0
122
1.0
132
0.0
 79
     0
146
0.0
  0
ENDTAB
  0
TABLE
  2
LTYPE
  5
A7AD
330
0
100
AcDbSymbolTable
 70
    13
  0
LTYPE
  5
A7AE
330
A7AD
100
AcDbSymbolTableRecord
100
AcDbLinetypeTableRecord
  2
ByBlock
 70
     0
  3

 72
    65
 73
     0
 40
0.0
  0
LTYPE
  5
A7AF
330
A7AD
100
AcDbSymbolTableRecord
100
AcDbLinetypeTableRecord
  2
ByLayer
 70
     0
  3

 72
    65
 73
     0
 40
0.0
  0
LTYPE
  5
A79C
330
A7AD
100
AcDbSymbolTableRecord
100
AcDbLinetypeTableRecord
  2
Continuous
 70
     0
  3
Solid line
 72
    65
 73
     0
 40
0.0
  0
LTYPE
  5
442B
330
A7AD
100
AcDbSymbolTableRecord
100
AcDbLinetypeTableRecord
  2
4_CENTER2
 70
     0
  3

 72
    65
 73
     4
 40
1.88
 49
1.4
 74
     0
 49
-0.16
 74
     0
 49
0.16
 74
     0
 49
-0.16
 74
     0
  0
LTYPE
  5
442D
330
A7AD
100
AcDbSymbolTableRecord
100
AcDbLinetypeTableRecord
  2
7_CENTER
 70
     0
  3

 72
    65
 73
     4
 40
6.68
 49
6.2
 74
     0
 49
-0.16
 74
     0
 49
0.16
 74
     0
 49
-0.16
 74
     0
  0
LTYPE
  5
4510
330
A7AD
100
AcDbSymbolTableRecord
100
AcDbLinetypeTableRecord
  2
2_HIDDEN2
 70
     0
  3

 72
    65
 73
     2
 40
0.34
 49
0.24
 74
     0
 49
-0.1
 74
     0
  0
LTYPE
  5
454A
330
A7AD
100
AcDbSymbolTableRecord
100
AcDbLinetypeTableRecord
  2
1_HIDDEN
 70
     0
  3

 72
    65
 73
     2
 40
0.1
 49
0.0
 74
     0
 49
-0.1
 74
     0
  0
LTYPE
  5
455C
330
A7AD
100
AcDbSymbolTableRecord
100
AcDbLinetypeTableRecord
  2
6_PHANTOM
 70
     0
  3

 72
    65
 73
     6
 40
4.9
 49
4.2
 74
     0
 49
-0.14
 74
     0
 49
0.14
 74
     0
 49
-0.14
 74
     0
 49
0.14
 74
     0
 49
-0.14
 74
     0
  0
LTYPE
  5
456E
330
A7AD
100
AcDbSymbolTableRecord
100
AcDbLinetypeTableRecord
  2
3_DASHED
 70
     0
  3

 72
    65
 73
     2
 40
0.58
 49
0.48
 74
     0
 49
-0.1
 74
     0
  0
LTYPE
  5
4D7E
330
A7AD
100
AcDbSymbolTableRecord
100
AcDbLinetypeTableRecord
  2
CENTER
 70
     0
  3

 72
    65
 73
     4
 40
50.8
 49
31.75
 74
     0
 49
-6.35
 74
     0
 49
6.35
 74
     0
 49
-6.35
 74
     0
  0
LTYPE
  5
A7EA
330
A7AD
100
AcDbSymbolTableRecord
100
AcDbLinetypeTableRecord
  2
DGN Style 1
 70
     0
  3
Dgn Style 1
 72
    65
 73
     2
 40
0.6
 49
0.0
 74
     0
 49
-0.6
 74
     0
  0
LTYPE
  5
A7EB
330
A7AD
100
AcDbSymbolTableRecord
100
AcDbLinetypeTableRecord
  2
DGN Style 2
 70
     0
  3
Dgn Style 2
 72
    65
 73
     2
 40
1.0
 49
0.6
 74
     0
 49
-0.4
 74
     0
  0
LTYPE
  5
A7EC
330
A7AD
100
AcDbSymbolTableRecord
100
AcDbLinetypeTableRecord
  2
DGN Style 6
 70
     0
  3
Dgn Style 6
 72
    65
 73
     6
 40
1.9
 49
0.0
 74
     0
 49
-0.4
 74
     0
 49
0.7
 74
     0
 49
-0.4
 74
     0
 49
0.0
 74
     0
 49
-0.4
 74
     0
  0
LTYPE
  5
A7ED
330
A7AD
100
AcDbSymbolTableRecord
100
AcDbLinetypeTableRecord
  2
DGN Style 4
 70
     0
  3
Dgn Style 4
 72
    65
 73
     4
 40
1.6
 49
0.8
 74
     0
 49
-0.4
 74
     0
 49
0.0
 74
     0
 49
-0.4
 74
     0
  0
LTYPE
  5
A7EE
330
A7AD
100
AcDbSymbolTableRecord
100
AcDbLinetypeTableRecord
  2
DGN Style 3
 70
     0
  3
Dgn Style 3
 72
    65
 73
     2
 40
1.4
 49
1.0
 74
     0
 49
-0.4
 74
     0
  0
ENDTAB
  0
TABLE
  2
LAYER
  5
A7A7
102
{ACAD_XDICTIONARY
360
A7A8
102
}
330
0
100
AcDbSymbolTable
 70
   136
  0
LAYER
  5
A78F
330
A7A7
100
AcDbSymbolTableRecord
100
AcDbLayerTableRecord
  2
0
 70
     0
 62
     7
  6
Continuous
370
    -3
390
A790
  0
LAYER
  5
53C2
330
A7A7
100
AcDbSymbolTableRecord
100
AcDbLayerTableRecord
  2
A231_壁：種別
 70
     0
 62
     7
  6
Continuous
370
     9
390
A790
  0
LAYER
  5
97AF
330
A7A7
100
AcDbSymbolTableRecord
100
AcDbLayerTableRecord
  2
1階座席
 70
     0
 62
     3
  6
Continuous
370
     9
390
A790
  0
LAYER
  5
9820
330
A7A7
100
AcDbSymbolTableRecord
100
AcDbLayerTableRecord
  2
3-0通芯
 70
     0
 62
     7
  6
Continuous
370
     9
390
A790
  0
LAYER
  5
9C8F
330
A7A7
100
AcDbSymbolTableRecord
100
AcDbLayerTableRecord
  2
枠
 70
     0
 62
     7
  6
Continuous
290
     0
370
     9
390
A790
  0
LAYER
  5
9C90
330
A7A7
100
AcDbSymbolTableRecord
100
AcDbLayerTableRecord
  2
2階座席
 70
     0
 62
     5
  6
Continuous
370
     9
390
A790
  0
LAYER
  5
4D86
330
A7A7
100
AcDbSymbolTableRecord
100
AcDbLayerTableRecord
  2
A242_記号２
 70
     0
 62
     7
  6
Continuous
370
     9
390
A790
  0
LAYER
  5
4D87
330
A7A7
100
AcDbSymbolTableRecord
100
AcDbLayerTableRecord
  2
A670_細点線
 70
     0
 62
     7
  6
DGN Style 1
370
     9
390
A790
  0
LAYER
  5
4D88
330
A7A7
100
AcDbSymbolTableRecord
100
AcDbLayerTableRecord
  2
A661_中破線
 70
     0
 62
     7
  6
DGN Style 2
370
    13
390
A790
  0
LAYER
  5
4D89
330
A7A7
100
AcDbSymbolTableRecord
100
AcDbLayerTableRecord
  2
A622_シャッター
 70
     0
 62
     7
  6
DGN Style 6
370
    13
390
A790
  0
LAYER
  5
4D8A
330
A7A7
100
AcDbSymbolTableRecord
100
AcDbLayerTableRecord
  2
A854_衛生設備_記号
 70
     0
 62
   250
  6
Continuous
370
    13
390
A790
  0
LAYER
  5
4D8B
330
A7A7
100
AcDbSymbolTableRecord
100
AcDbLayerTableRecord
  2
A322_ハッチング点線
 70
     0
 62
     7
  6
DGN Style 1
370
     9
390
A790
  0
LAYER
  5
4D8C
330
A7A7
100
AcDbSymbolTableRecord
100
AcDbLayerTableRecord
  2
A743_駐車場
 70
     0
 62
     7
  6
Continuous
370
     9
390
A790
  0
LAYER
  5
4D8D
330
A7A7
100
AcDbSymbolTableRecord
100
AcDbLayerTableRecord
  2
A740_外構
 70
     0
 62
     7
  6
Continuous
370
     9
390
A790
  0
LAYER
  5
4D8E
330
A7A7
100
AcDbSymbolTableRecord
100
AcDbLayerTableRecord
  2
A823_サイン
 70
     0
 62
     7
  6
Continuous
370
     9
390
A790
  0
LAYER
  5
4D8F
330
A7A7
100
AcDbSymbolTableRecord
100
AcDbLayerTableRecord
  2
A856_消防設備
 70
     0
 62
     7
  6
DGN Style 6
370
    13
390
A790
  0
LAYER
  5
4D90
330
A7A7
100
AcDbSymbolTableRecord
100
AcDbLayerTableRecord
  2
A571_床ピット
 70
     0
 62
     7
  6
Continuous
370
     9
390
A790
  0
LAYER
  5
4D91
330
A7A7
100
AcDbSymbolTableRecord
100
AcDbLayerTableRecord
  2
C132_ＧＬ
 70
     0
 62
     7
  6
DGN Style 4
370
     9
390
A790
  0
LAYER
  5
4D92
330
A7A7
100
AcDbSymbolTableRecord
100
AcDbLayerTableRecord
  2
A343_基礎
 70
     0
 62
     7
  6
Continuous
370
     9
390
A790
  0
LAYER
  5
4D93
330
A7A7
100
AcDbSymbolTableRecord
100
AcDbLayerTableRecord
  2
A344_樋
 70
     0
 62
     7
  6
Continuous
370
     9
390
A790
  0
LAYER
  5
4D95
330
A7A7
100
AcDbSymbolTableRecord
100
AcDbLayerTableRecord
  2
A711_自敷地境界線
 70
     0
 62
     7
  6
DGN Style 6
370
    30
390
A790
  0
LAYER
  5
4D96
330
A7A7
100
AcDbSymbolTableRecord
100
AcDbLayerTableRecord
  2
A733_工作物
 70
     0
 62
     7
  6
Continuous
370
     9
390
A790
  0
LAYER
  5
4D97
330
A7A7
100
AcDbSymbolTableRecord
100
AcDbLayerTableRecord
  2
A732_舗装
 70
     0
 62
     7
  6
Continuous
370
     9
390
A790
  0
LAYER
  5
4D98
330
A7A7
100
AcDbSymbolTableRecord
100
AcDbLayerTableRecord
  2
A741_擁壁
 70
     0
 62
     7
  6
Continuous
370
     9
390
A790
  0
LAYER
  5
4D99
330
A7A7
100
AcDbSymbolTableRecord
100
AcDbLayerTableRecord
  2
A742_解体建物
 70
     0
 62
     7
  6
Continuous
370
     9
390
A790
  0
LAYER
  5
4D9A
330
A7A7
100
AcDbSymbolTableRecord
100
AcDbLayerTableRecord
  2
A650_細実線
 70
     0
 62
    30
  6
Continuous
370
     9
390
A790
  0
LAYER
  5
4D9B
330
A7A7
100
AcDbSymbolTableRecord
100
AcDbLayerTableRecord
  2
A651_中実線
 70
     0
 62
     7
  6
Continuous
370
    13
390
A790
  0
LAYER
  5
4D9C
330
A7A7
100
AcDbSymbolTableRecord
100
AcDbLayerTableRecord
  2
A652_太実線
 70
     0
 62
     7
  6
Continuous
370
    30
390
A790
  0
LAYER
  5
4D9D
330
A7A7
100
AcDbSymbolTableRecord
100
AcDbLayerTableRecord
  2
A660_細破線
 70
     0
 62
     7
  6
DGN Style 2
370
     9
390
A790
  0
LAYER
  5
4D9E
330
A7A7
100
AcDbSymbolTableRecord
100
AcDbLayerTableRecord
  2
A662_太破線
 70
     0
 62
     7
  6
DGN Style 2
370
    30
390
A790
  0
LAYER
  5
4D9F
330
A7A7
100
AcDbSymbolTableRecord
100
AcDbLayerTableRecord
  2
A671_中点線
 70
     0
 62
     7
  6
DGN Style 1
370
    13
390
A790
  0
LAYER
  5
4DA0
330
A7A7
100
AcDbSymbolTableRecord
100
AcDbLayerTableRecord
  2
A672_太点線
 70
     0
 62
     7
  6
DGN Style 1
370
    30
390
A790
  0
LAYER
  5
4DA1
330
A7A7
100
AcDbSymbolTableRecord
100
AcDbLayerTableRecord
  2
A680_細鎖線
 70
     0
 62
     7
  6
DGN Style 6
370
     9
390
A790
  0
LAYER
  5
4DA2
330
A7A7
100
AcDbSymbolTableRecord
100
AcDbLayerTableRecord
  2
A681_中鎖線
 70
     0
 62
     7
  6
DGN Style 6
370
    13
390
A790
  0
LAYER
  5
4DA3
330
A7A7
100
AcDbSymbolTableRecord
100
AcDbLayerTableRecord
  2
A682_太鎖線
 70
     0
 62
     7
  6
DGN Style 6
370
    30
390
A790
  0
LAYER
  5
4DA4
330
A7A7
100
AcDbSymbolTableRecord
100
AcDbLayerTableRecord
  2
A244_記号中線
 70
     0
 62
     7
  6
Continuous
370
    13
390
A790
  0
LAYER
  5
4DA5
330
A7A7
100
AcDbSymbolTableRecord
100
AcDbLayerTableRecord
  2
A245_記号太線
 70
     0
 62
     7
  6
Continuous
370
    30
390
A790
  0
LAYER
  5
4DA6
330
A7A7
100
AcDbSymbolTableRecord
100
AcDbLayerTableRecord
  2
A246_記号点線
 70
     0
 62
     7
  6
DGN Style 1
370
     9
390
A790
  0
LAYER
  5
4DA7
330
A7A7
100
AcDbSymbolTableRecord
100
AcDbLayerTableRecord
  2
A247_記号破線
 70
     0
 62
     7
  6
DGN Style 2
370
     9
390
A790
  0
LAYER
  5
4DA8
330
A7A7
100
AcDbSymbolTableRecord
100
AcDbLayerTableRecord
  2
A323_ハッチング破線
 70
     0
 62
     7
  6
DGN Style 2
370
     9
390
A790
  0
LAYER
  5
4DA9
330
A7A7
100
AcDbSymbolTableRecord
100
AcDbLayerTableRecord
  2
A714_各種制限線
 70
     0
 62
     7
  6
DGN Style 6
370
     9
390
A790
  0
LAYER
  5
4DAA
330
A7A7
100
AcDbSymbolTableRecord
100
AcDbLayerTableRecord
  2
A565_目地点線
 70
     0
 62
     7
  6
DGN Style 1
370
     9
390
A790
  0
LAYER
  5
4DAB
330
A7A7
100
AcDbSymbolTableRecord
100
AcDbLayerTableRecord
  2
A566_目地破線
 70
     0
 62
     7
  6
DGN Style 2
370
     9
390
A790
  0
LAYER
  5
4DAC
330
A7A7
100
AcDbSymbolTableRecord
100
AcDbLayerTableRecord
  2
A347_防水
 70
     0
 62
     7
  6
DGN Style 6
370
    13
390
A790
  0
LAYER
  5
4DAD
330
A7A7
100
AcDbSymbolTableRecord
100
AcDbLayerTableRecord
  2
A222_引出線
 70
     0
 62
     7
  6
Continuous
370
     9
390
A790
  0
LAYER
  5
4DAE
330
A7A7
100
AcDbSymbolTableRecord
100
AcDbLayerTableRecord
  2
A712_他敷地境界線
 70
     0
 62
     7
  6
DGN Style 6
370
     9
390
A790
  0
LAYER
  5
4DAF
330
A7A7
100
AcDbSymbolTableRecord
100
AcDbLayerTableRecord
  2
A614_カーテン実線
 70
     0
 62
     7
  6
Continuous
370
     9
390
A790
  0
LAYER
  5
4DB0
330
A7A7
100
AcDbSymbolTableRecord
100
AcDbLayerTableRecord
  2
A842_搬送機破線
 70
     0
 62
     7
  6
DGN Style 2
370
     9
390
A790
  0
LAYER
  5
4DB1
330
A7A7
100
AcDbSymbolTableRecord
100
AcDbLayerTableRecord
  2
C131_通芯
 70
     0
 62
     7
  6
DGN Style 4
370
     9
390
A790
  0
LAYER
  5
4DB2
330
A7A7
100
AcDbSymbolTableRecord
100
AcDbLayerTableRecord
  2
C151_壁芯
 70
     0
 62
     7
  6
DGN Style 4
370
     9
390
A790
  0
LAYER
  5
4DB3
330
A7A7
100
AcDbSymbolTableRecord
100
AcDbLayerTableRecord
  2
C135_捨芯
 70
     0
 62
     7
  6
DGN Style 4
290
     0
370
     9
390
A790
  0
LAYER
  5
4999
330
A7A7
100
AcDbSymbolTableRecord
100
AcDbLayerTableRecord
  2
A221_記入文字
 70
     0
 62
     7
  6
Continuous
370
     9
390
A790
  0
LAYER
  5
4C79
330
A7A7
100
AcDbSymbolTableRecord
100
AcDbLayerTableRecord
  2
A341_床ピット
 70
     0
 62
   201
  6
Continuous
370
    13
390
A790
  0
LAYER
  5
4C7B
330
A7A7
100
AcDbSymbolTableRecord
100
AcDbLayerTableRecord
  2
C111_図枠
 70
     0
 62
     7
  6
Continuous
370
     9
390
A790
  0
LAYER
  5
4C7D
330
A7A7
100
AcDbSymbolTableRecord
100
AcDbLayerTableRecord
  2
C121_図面名称
 70
     0
 62
     7
  6
Continuous
370
    53
390
A790
  0
LAYER
  5
4C7F
330
A7A7
100
AcDbSymbolTableRecord
100
AcDbLayerTableRecord
  2
C115_OFF
 70
     0
 62
     7
  6
Continuous
290
     0
370
     9
390
A790
  0
LAYER
  5
4C83
330
A7A7
100
AcDbSymbolTableRecord
100
AcDbLayerTableRecord
  2
C132_FL
 70
     0
 62
     7
  6
Continuous
370
    40
390
A790
  0
LAYER
  5
4C87
330
A7A7
100
AcDbSymbolTableRecord
100
AcDbLayerTableRecord
  2
C133_雑芯
 70
     0
 62
     7
  6
DGN Style 4
370
     9
390
A790
  0
LAYER
  5
4C89
330
A7A7
100
AcDbSymbolTableRecord
100
AcDbLayerTableRecord
  2
C134_雑芯２
 70
     0
 62
     7
  6
DGN Style 4
370
     9
390
A790
  0
LAYER
  5
4C8D
330
A7A7
100
AcDbSymbolTableRecord
100
AcDbLayerTableRecord
  2
C136_雑芯３
 70
     0
 62
     7
  6
DGN Style 4
370
     9
390
A790
  0
LAYER
  5
4C8F
330
A7A7
100
AcDbSymbolTableRecord
100
AcDbLayerTableRecord
  2
C137_雑芯４
 70
     0
 62
   254
  6
DGN Style 4
370
     9
390
A790
  0
LAYER
  5
4C91
330
A7A7
100
AcDbSymbolTableRecord
100
AcDbLayerTableRecord
  2
C138_雑芯５
 70
     0
 62
    40
  6
DGN Style 4
370
     9
390
A790
  0
LAYER
  5
4459
330
A7A7
100
AcDbSymbolTableRecord
100
AcDbLayerTableRecord
  2
C161_通心寸法
 70
     0
 62
     7
  6
Continuous
370
     9
390
A790
  0
LAYER
  5
445D
330
A7A7
100
AcDbSymbolTableRecord
100
AcDbLayerTableRecord
  2
C162_その他寸法
 70
     0
 62
     7
  6
Continuous
370
     9
390
A790
  0
LAYER
  5
4C95
330
A7A7
100
AcDbSymbolTableRecord
100
AcDbLayerTableRecord
  2
A211_室名
 70
     0
 62
     7
  6
Continuous
370
     9
390
A790
  0
LAYER
  5
4C97
330
A7A7
100
AcDbSymbolTableRecord
100
AcDbLayerTableRecord
  2
A241_方位
 70
     0
 62
     7
  6
Continuous
370
     9
390
A790
  0
LAYER
  5
4C99
330
A7A7
100
AcDbSymbolTableRecord
100
AcDbLayerTableRecord
  2
A242_記号
 70
     0
 62
     7
  6
Continuous
370
     9
390
A790
  0
LAYER
  5
4C9B
330
A7A7
100
AcDbSymbolTableRecord
100
AcDbLayerTableRecord
  2
A243_建具記号
 70
     0
 62
     7
  6
Continuous
370
     9
390
A790
  0
LAYER
  5
4C9D
330
A7A7
100
AcDbSymbolTableRecord
100
AcDbLayerTableRecord
  2
A245_雲マーク
 70
     0
 62
     7
  6
Continuous
370
    40
390
A790
  0
LAYER
  5
4C9F
330
A7A7
100
AcDbSymbolTableRecord
100
AcDbLayerTableRecord
  2
A311_吹抜線
 70
     0
 62
     7
  6
DGN Style 4
370
     9
390
A790
  0
LAYER
  5
4CA1
330
A7A7
100
AcDbSymbolTableRecord
100
AcDbLayerTableRecord
  2
A321_ハッチング
 70
     0
 62
     7
  6
Continuous
370
     9
390
A790
  0
LAYER
  5
4CA3
330
A7A7
100
AcDbSymbolTableRecord
100
AcDbLayerTableRecord
  2
A342_屋根・庇
 70
     0
 62
     7
  6
Continuous
370
     9
390
A790
  0
LAYER
  5
4CA5
330
A7A7
100
AcDbSymbolTableRecord
100
AcDbLayerTableRecord
  2
A343_機械基礎
 70
     0
 62
     7
  6
Continuous
370
     9
390
A790
  0
LAYER
  5
4CA7
330
A7A7
100
AcDbSymbolTableRecord
100
AcDbLayerTableRecord
  2
A361_ＯＦＦ
 70
     0
 62
     7
  6
Continuous
370
     9
390
A790
  0
LAYER
  5
4CA9
330
A7A7
100
AcDbSymbolTableRecord
100
AcDbLayerTableRecord
  2
A411_柱：ＲＣ
 70
     0
 62
     7
  6
DGN Style 2
370
     9
390
A790
  0
LAYER
  5
4CAB
330
A7A7
100
AcDbSymbolTableRecord
100
AcDbLayerTableRecord
  2
A412_柱：Ｓ
 70
     0
 62
     7
  6
Continuous
370
    30
390
A790
  0
LAYER
  5
4CAD
330
A7A7
100
AcDbSymbolTableRecord
100
AcDbLayerTableRecord
  2
A421_壁：ＲＣ
 70
     0
 62
     7
  6
Continuous
370
    30
390
A790
  0
LAYER
  5
4CAF
330
A7A7
100
AcDbSymbolTableRecord
100
AcDbLayerTableRecord
  2
A422_壁：ＡＬＣ
 70
     0
 62
     7
  6
Continuous
370
    13
390
A790
  0
LAYER
  5
4CB1
330
A7A7
100
AcDbSymbolTableRecord
100
AcDbLayerTableRecord
  2
A431_梁
 70
     0
 62
     7
  6
Continuous
370
     9
390
A790
  0
LAYER
  5
4CB3
330
A7A7
100
AcDbSymbolTableRecord
100
AcDbLayerTableRecord
  2
A441_壁：ＬＧＳ
 70
     0
 62
     7
  6
Continuous
370
    13
390
A790
  0
LAYER
  5
4CB5
330
A7A7
100
AcDbSymbolTableRecord
100
AcDbLayerTableRecord
  2
A442_壁：木軸
 70
     0
 62
     7
  6
Continuous
370
    13
390
A790
  0
LAYER
  5
4CB7
330
A7A7
100
AcDbSymbolTableRecord
100
AcDbLayerTableRecord
  2
A444_壁：下地鉄骨、間柱
 70
     0
 62
     7
  6
Continuous
370
     9
390
A790
  0
LAYER
  5
4CB9
330
A7A7
100
AcDbSymbolTableRecord
100
AcDbLayerTableRecord
  2
A521_壁：仕上
 70
     0
 62
     7
  6
Continuous
370
    30
390
A790
  0
LAYER
  5
4CBB
330
A7A7
100
AcDbSymbolTableRecord
100
AcDbLayerTableRecord
  2
R003_防火区画
 70
     0
 62
     7
  6
Continuous
370
    70
390
A790
  0
LAYER
  5
4CBD
330
A7A7
100
AcDbSymbolTableRecord
100
AcDbLayerTableRecord
  2
R004_防煙区画
 70
     0
 62
     7
  6
Continuous
370
    70
390
A790
  0
LAYER
  5
4CBF
330
A7A7
100
AcDbSymbolTableRecord
100
AcDbLayerTableRecord
  2
A522_壁：仕上
 70
     0
 62
     7
  6
Continuous
370
    30
390
A790
  0
LAYER
  5
4CC1
330
A7A7
100
AcDbSymbolTableRecord
100
AcDbLayerTableRecord
  2
A523_壁：仕上
 70
     0
 62
     7
  6
Continuous
370
    30
390
A790
  0
LAYER
  5
4CC3
330
A7A7
100
AcDbSymbolTableRecord
100
AcDbLayerTableRecord
  2
A524_壁：仕上
 70
     0
 62
     7
  6
Continuous
370
    30
390
A790
  0
LAYER
  5
4CC5
330
A7A7
100
AcDbSymbolTableRecord
100
AcDbLayerTableRecord
  2
A525_壁：仕上
 70
     0
 62
     7
  6
Continuous
370
    30
390
A790
  0
LAYER
  5
4CC7
330
A7A7
100
AcDbSymbolTableRecord
100
AcDbLayerTableRecord
  2
A531_パーティション
 70
     0
 62
     7
  6
Continuous
370
    13
390
A790
  0
LAYER
  5
4CC9
330
A7A7
100
AcDbSymbolTableRecord
100
AcDbLayerTableRecord
  2
A551_階段
 70
     0
 62
     7
  6
Continuous
370
     9
390
A790
  0
LAYER
  5
4CCB
330
A7A7
100
AcDbSymbolTableRecord
100
AcDbLayerTableRecord
  2
A561_耐火被覆
 70
     0
 62
     7
  6
Continuous
370
     9
390
A790
  0
LAYER
  5
4CCD
330
A7A7
100
AcDbSymbolTableRecord
100
AcDbLayerTableRecord
  2
A562_断熱材
 70
     0
 62
     7
  6
Continuous
370
     9
390
A790
  0
LAYER
  5
4CCF
330
A7A7
100
AcDbSymbolTableRecord
100
AcDbLayerTableRecord
  2
A563_手摺
 70
     0
 62
     7
  6
Continuous
370
     9
390
A790
  0
LAYER
  5
4CD1
330
A7A7
100
AcDbSymbolTableRecord
100
AcDbLayerTableRecord
  2
A564_目地
 70
     0
 62
     7
  6
Continuous
370
     9
390
A790
  0
LAYER
  5
4CD3
330
A7A7
100
AcDbSymbolTableRecord
100
AcDbLayerTableRecord
  2
A565_側溝
 70
     0
 62
     7
  6
Continuous
370
     9
390
A790
  0
LAYER
  5
4CD5
330
A7A7
100
AcDbSymbolTableRecord
100
AcDbLayerTableRecord
  2
A566_樋
 70
     0
 62
     7
  6
Continuous
370
     9
390
A790
  0
LAYER
  5
4CD7
330
A7A7
100
AcDbSymbolTableRecord
100
AcDbLayerTableRecord
  2
A568_EXP．J
 70
     0
 62
     7
  6
Continuous
370
     9
390
A790
  0
LAYER
  5
4CD9
330
A7A7
100
AcDbSymbolTableRecord
100
AcDbLayerTableRecord
  2
A569_雑金物
 70
     0
 62
     7
  6
Continuous
370
     9
390
A790
  0
LAYER
  5
4CDB
330
A7A7
100
AcDbSymbolTableRecord
100
AcDbLayerTableRecord
  2
A611_窓
 70
     0
 62
     7
  6
Continuous
370
     9
390
A790
  0
LAYER
  5
4CDD
330
A7A7
100
AcDbSymbolTableRecord
100
AcDbLayerTableRecord
  2
A621_扉枠
 70
     0
 62
     7
  6
Continuous
370
    30
390
A790
  0
LAYER
  5
4CDF
330
A7A7
100
AcDbSymbolTableRecord
100
AcDbLayerTableRecord
  2
A624_沓摺
 70
     0
 62
     7
  6
Continuous
370
     9
390
A790
  0
LAYER
  5
4CE1
330
A7A7
100
AcDbSymbolTableRecord
100
AcDbLayerTableRecord
  2
A622_扉
 70
     0
 62
     7
  6
Continuous
370
    13
390
A790
  0
LAYER
  5
4CE3
330
A7A7
100
AcDbSymbolTableRecord
100
AcDbLayerTableRecord
  2
A725_等高線
 70
     0
 62
     7
  6
Continuous
370
     9
390
A790
  0
LAYER
  5
4CE5
330
A7A7
100
AcDbSymbolTableRecord
100
AcDbLayerTableRecord
  2
A731_門･塀
 70
     0
 62
     7
  6
Continuous
370
     9
390
A790
  0
LAYER
  5
4CE7
330
A7A7
100
AcDbSymbolTableRecord
100
AcDbLayerTableRecord
  2
A741_植栽
 70
     0
 62
     7
  6
Continuous
370
     9
390
A790
  0
LAYER
  5
4CE9
330
A7A7
100
AcDbSymbolTableRecord
100
AcDbLayerTableRecord
  2
A811_造作家具
 70
     0
 62
     7
  6
Continuous
370
     9
390
A790
  0
LAYER
  5
4CEB
330
A7A7
100
AcDbSymbolTableRecord
100
AcDbLayerTableRecord
  2
A822_別途：家具
 70
     0
 62
     7
  6
DGN Style 1
370
     9
390
A790
  0
LAYER
  5
4CED
330
A7A7
100
AcDbSymbolTableRecord
100
AcDbLayerTableRecord
  2
A831_衛生機器
 70
     0
 62
     7
  6
Continuous
370
     9
390
A790
  0
LAYER
  5
4CEF
330
A7A7
100
AcDbSymbolTableRecord
100
AcDbLayerTableRecord
  2
A841_ＥＬＶ・ＥＳＣ
 70
     0
 62
     7
  6
Continuous
370
     9
390
A790
  0
LAYER
  5
4CF1
330
A7A7
100
AcDbSymbolTableRecord
100
AcDbLayerTableRecord
  2
A851_電気設備_実形
 70
     0
 62
     7
  6
Continuous
370
     9
390
A790
  0
LAYER
  5
4CF3
330
A7A7
100
AcDbSymbolTableRecord
100
AcDbLayerTableRecord
  2
A855_空調設備_実形
 70
     0
 62
    67
  6
Continuous
370
     9
390
A790
  0
LAYER
  5
4CF5
330
A7A7
100
AcDbSymbolTableRecord
100
AcDbLayerTableRecord
  2
R001_申請用文字
 70
     0
 62
     7
  6
Continuous
370
     9
390
A790
  0
LAYER
  5
4CF7
330
A7A7
100
AcDbSymbolTableRecord
100
AcDbLayerTableRecord
  2
R002_1F延焼の恐れのある部分
 70
     0
 62
     7
  6
DGN Style 4
370
     9
390
A790
  0
LAYER
  5
4CF9
330
A7A7
100
AcDbSymbolTableRecord
100
AcDbLayerTableRecord
  2
R012_2F延焼の恐れのある部分
 70
     0
 62
     7
  6
DGN Style 4
370
     9
390
A790
  0
LAYER
  5
4CFB
330
A7A7
100
AcDbSymbolTableRecord
100
AcDbLayerTableRecord
  2
A362_ON
 70
     0
 62
     7
  6
Continuous
370
     9
390
A790
  0
LAYER
  5
4CFD
330
A7A7
100
AcDbSymbolTableRecord
100
AcDbLayerTableRecord
  2
A425_石・タイル
 70
     0
 62
     7
  6
Continuous
370
    13
390
A790
  0
LAYER
  5
4CFF
330
A7A7
100
AcDbSymbolTableRecord
100
AcDbLayerTableRecord
  2
A570_樹脂類
 70
     0
 62
     7
  6
Continuous
370
     9
390
A790
  0
LAYER
  5
4D01
330
A7A7
100
AcDbSymbolTableRecord
100
AcDbLayerTableRecord
  2
A571_シーリング
 70
     0
 62
     7
  6
Continuous
370
     9
390
A790
  0
LAYER
  5
4D03
330
A7A7
100
AcDbSymbolTableRecord
100
AcDbLayerTableRecord
  2
A860_車両
 70
     0
 62
     7
  6
DGN Style 2
370
     9
390
A790
  0
LAYER
  5
4D05
330
A7A7
100
AcDbSymbolTableRecord
100
AcDbLayerTableRecord
  2
A331_見上げ線
 70
     0
 62
     7
  6
DGN Style 2
370
     9
390
A790
  0
LAYER
  5
4D07
330
A7A7
100
AcDbSymbolTableRecord
100
AcDbLayerTableRecord
  2
A613_カーテンボックス
 70
     0
 62
     7
  6
Continuous
370
     9
390
A790
  0
LAYER
  5
4D09
330
A7A7
100
AcDbSymbolTableRecord
100
AcDbLayerTableRecord
  2
A346_見え掛り線
 70
     0
 62
     7
  6
Continuous
370
     9
390
A790
  0
LAYER
  5
4D0B
330
A7A7
100
AcDbSymbolTableRecord
100
AcDbLayerTableRecord
  2
A430_地業
 70
     0
 62
    35
  6
Continuous
370
     9
390
A790
  0
LAYER
  5
4D0D
330
A7A7
100
AcDbSymbolTableRecord
100
AcDbLayerTableRecord
  2
A711_境界線
 70
     0
 62
     7
  6
Continuous
370
     9
390
A790
  0
LAYER
  5
4D0F
330
A7A7
100
AcDbSymbolTableRecord
100
AcDbLayerTableRecord
  2
A735_建物の外周線
 70
     0
 62
     7
  6
Continuous
370
    30
390
A790
  0
LAYER
  5
4D11
330
A7A7
100
AcDbSymbolTableRecord
100
AcDbLayerTableRecord
  2
A736_既存建物
 70
     0
 62
     4
  6
DGN Style 3
370
     9
390
A790
  0
LAYER
  5
4D13
330
A7A7
100
AcDbSymbolTableRecord
100
AcDbLayerTableRecord
  2
A722_周辺道路
 70
     0
 62
     8
  6
Continuous
370
     9
390
A790
  0
LAYER
  5
4D15
330
A7A7
100
AcDbSymbolTableRecord
100
AcDbLayerTableRecord
  2
A723_周辺建物
 70
     0
 62
   201
  6
Continuous
370
     9
390
A790
  0
LAYER
  5
4D17
330
A7A7
100
AcDbSymbolTableRecord
100
AcDbLayerTableRecord
  2
A345_既存部分
 70
     0
 62
     8
  6
DGN Style 2
370
     9
390
A790
  0
LAYER
  5
4D19
330
A7A7
100
AcDbSymbolTableRecord
100
AcDbLayerTableRecord
  2
A312_面積算定線
 70
     0
 62
     7
  6
Continuous
370
    40
390
A790
  0
LAYER
  5
4D1B
330
A7A7
100
AcDbSymbolTableRecord
100
AcDbLayerTableRecord
  2
A853_衛生設備_実形
 70
     0
 62
     7
  6
Continuous
370
     9
390
A790
  0
LAYER
  5
4D1E
330
A7A7
100
AcDbSymbolTableRecord
100
AcDbLayerTableRecord
  2
A721_道路中心線
 70
     0
 62
     7
  6
Continuous
370
     9
390
A790
  0
LAYER
  5
4D20
330
A7A7
100
AcDbSymbolTableRecord
100
AcDbLayerTableRecord
  2
A713_斜線制限
 70
     0
 62
     7
  6
Continuous
370
     9
390
A790
  0
LAYER
  5
4D22
330
A7A7
100
AcDbSymbolTableRecord
100
AcDbLayerTableRecord
  2
A733_ストリートファニチャ
 70
     0
 62
     7
  6
Continuous
370
     9
390
A790
  0
LAYER
  5
4D24
330
A7A7
100
AcDbSymbolTableRecord
100
AcDbLayerTableRecord
  2
A732_ペイブメント
 70
     0
 62
     7
  6
Continuous
370
     9
390
A790
  0
ENDTAB
  0
TABLE
  2
STYLE
  5
A7AA
330
0
100
AcDbSymbolTable
 70
     3
  0
STYLE
  5
A7AB
330
A7AA
100
AcDbSymbolTableRecord
100
AcDbTextStyleTableRecord
  2
Standard
 70
     0
 40
0.0
 41
1.0
 50
0.0
 71
     0
 42
375.0
  3
txt
  4

  0
STYLE
  5
A7EF
330
A7AA
100
AcDbSymbolTableRecord
100
AcDbTextStyleTableRecord
  2
Style-HGSｺﾞｼｯｸM
 70
     0
 40
0.0
 41
1.0
 50
0.0
 71
     0
 42
375.0
  3

  4

1001
ACAD
1000
HGSGothicM
1071
    32823
  0
STYLE
  5
A7F1
330
A7AA
100
AcDbSymbolTableRecord
100
AcDbTextStyleTableRecord
  2
Style-HG明朝B
 70
     0
 40
0.0
 41
1.0
 50
0.0
 71
     0
 42
375.0
  3

  4

1001
ACAD
1000
HGMinchoB
1071
    32790
  0
ENDTAB
  0
TABLE
  2
VIEW
  5
A7B0
330
0
100
AcDbSymbolTable
 70
     0
  0
ENDTAB
  0
TABLE
  2
UCS
  5
A7B1
330
0
100
AcDbSymbolTable
 70
     0
  0
ENDTAB
  0
TABLE
  2
APPID
  5
A7B6
330
0
100
AcDbSymbolTable
 70
     2
  0
APPID
  5
A7B7
330
A7B6
100
AcDbSymbolTableRecord
100
AcDbRegAppTableRecord
  2
ACAD
 70
     0
  0
APPID
  5
A7A0
330
A7B6
100
AcDbSymbolTableRecord
100
AcDbRegAppTableRecord
  2
ACAD_PSEXT
 70
     0
  0
ENDTAB
  0
TABLE
  2
DIMSTYLE
  5
A7B8
330
0
100
AcDbSymbolTable
 70
     1
100
AcDbDimStyleTable
 71
     1
340
A7B9
  0
DIMSTYLE
105
A7B9
330
A7B8
100
AcDbSymbolTableRecord
100
AcDbDimStyleTableRecord
  2
ISO-25
 70
     0
 41
2.5
 42
0.625
 43
3.75
 44
1.25
 73
     0
 74
     0
 77
     1
 78
     8
140
2.5
141
2.5
143
0.03937
147
0.625
171
     3
172
     1
271
     2
272
     2
274
     3
278
    44
283
     0
284
     8
340
A7AB
  0
ENDTAB
  0
TABLE
  2
BLOCK_RECORD
  5
A78C
330
0
100
AcDbSymbolTable
 70
     0
  0
BLOCK_RECORD
  5
A78D
330
A78C
100
AcDbSymbolTableRecord
100
AcDbBlockTableRecord
  2
*Model_Space
340
A79E
  0
BLOCK_RECORD
  5
A7A1
330
A78C
100
AcDbSymbolTableRecord
100
AcDbBlockTableRecord
  2
*Paper_Space
340
A7A4
  0
ENDTAB
  0
ENDSEC
  0
SECTION
  2
BLOCKS
  0
BLOCK
  5
A78E
330
A78D
100
AcDbEntity
  8
0
100
AcDbBlockBegin
  2
*Model_Space
 70
     0
 10
0.0
 20
0.0
 30
0.0
  3
*Model_Space
  1

  0
ENDBLK
  5
A79D
330
A78D
100
AcDbEntity
  8
0
100
AcDbBlockEnd
  0
BLOCK
  5
A7A2
330
A7A1
100
AcDbEntity
 67
     1
  8
0
100
AcDbBlockBegin
  2
*Paper_Space
 70
     0
 10
0.0
 20
0.0
 30
0.0
  3
*Paper_Space
  1

  0
ENDBLK
  5
A7A3
330
A7A1
100
AcDbEntity
 67
     1
  8
0
100
AcDbBlockEnd
  0
ENDSEC
  0
SECTION
  2
ENTITIES
  0
TEXT
  5
A34F
330
A78D
100
AcDbEntity
  8
1階座席
  6
Continuous
 62
     7
370
     9
100
AcDbText
 10
181983.28252
 20
-4599.759208
 30
0.0
 40
225.0
  1
鏡
  7
Style-HGSｺﾞｼｯｸM
 11
181983.28252
 21
-4374.759208
 31
0.0
100
AcDbText
 73
     3
  0
TEXT
  5
A350
330
A78D
100
AcDbEntity
  8
1階座席
  6
Continuous
 62
     7
370
     9
100
AcDbText
 10
185839.575747
 20
-1743.737474
 30
0.0
 40
225.0
  1
第1楽屋（西）
  7
Style-HGSｺﾞｼｯｸM
 11
185839.575747
 21
-1518.737474
 31
0.0
100
AcDbText
 73
     3
  0
TEXT
  5
A351
330
A78D
100
AcDbEntity
  8
1階座席
  6
Continuous
 62
     7
370
     9
100
AcDbText
 10
189107.088887
 20
-4456.30774
 30
0.0
 40
225.0
  1
第1楽屋（東）
  7
Style-HGSｺﾞｼｯｸM
 11
189107.088887
 21
-4231.30774
 31
0.0
100
AcDbText
 73
     3
  0
TEXT
  5
A352
330
A78D
100
AcDbEntity
  8
1階座席
  6
Continuous
 62
     7
370
     9
100
AcDbText
 10
181983.28252
 20
-3611.094928
 30
0.0
 40
225.0
  1
鏡
  7
Style-HGSｺﾞｼｯｸM
 11
181983.28252
 21
-3386.094928
 31
0.0
100
AcDbText
 73
     3
  0
TEXT
  5
A353
330
A78D
100
AcDbEntity
  8
1階座席
  6
Continuous
 62
     7
370
     9
100
AcDbText
 10
181983.28252
 20
-2622.430649
 30
0.0
 40
225.0
  1
鏡
  7
Style-HGSｺﾞｼｯｸM
 11
181983.28252
 21
-2397.430649
 31
0.0
100
AcDbText
 73
     3
  0
TEXT
  5
A354
330
A78D
100
AcDbEntity
  8
1階座席
  6
Continuous
 62
     7
370
     9
100
AcDbText
 10
181983.28252
 20
-1552.506291
 30
0.0
 40
225.0
  1
鏡
  7
Style-HGSｺﾞｼｯｸM
 11
181983.28252
 21
-1327.506291
 31
0.0
100
AcDbText
 73
     3
  0
TEXT
  5
A355
330
A78D
100
AcDbEntity
  8
1階座席
  6
Continuous
 62
     7
370
     9
100
AcDbText
 10
192066.868244
 20
-1660.095268
 30
0.0
 40
225.0
  1
鏡
  7
Style-HGSｺﾞｼｯｸM
 11
192066.868244
 21
-1435.095268
 31
0.0
100
AcDbText
 73
     3
  0
TEXT
  5
A356
330
A78D
100
AcDbEntity
  8
1階座席
  6
Continuous
 62
     7
370
     9
100
AcDbText
 10
192060.238758
 20
-2621.396461
 30
0.0
 40
225.0
  1
鏡
  7
Style-HGSｺﾞｼｯｸM
 11
192060.238758
 21
-2396.396461
 31
0.0
100
AcDbText
 73
     3
  0
TEXT
  5
A357
330
A78D
100
AcDbEntity
  8
1階座席
  6
Continuous
 62
     7
370
     9
100
AcDbText
 10
192075.828461
 20
-3552.084634
 30
0.0
 40
225.0
  1
鏡
  7
Style-HGSｺﾞｼｯｸM
 11
192075.828461
 21
-3327.084634
 31
0.0
100
AcDbText
 73
     3
  0
TEXT
  5
A358
330
A78D
100
AcDbEntity
  8
1階座席
  6
Continuous
 62
     7
370
     9
100
AcDbText
 10
192053.609272
 20
-4551.873805
 30
0.0
 40
225.0
  1
鏡
  7
Style-HGSｺﾞｼｯｸM
 11
192053.609272
 21
-4326.873805
 31
0.0
100
AcDbText
 73
     3
  0
TEXT
  5
A359
330
A78D
100
AcDbEntity
  8
1階座席
  6
Continuous
 62
     7
370
     9
100
AcDbText
 10
191687.903723
 20
-4462.831546
 30
0.0
 40
225.0
  1
化粧台カウンター
 50
90.0
  7
Style-HGSｺﾞｼｯｸM
 11
191462.903723
 21
-4462.831546
 31
0.0
100
AcDbText
 73
     3
  0
TEXT
  5
A35A
330
A78D
100
AcDbEntity
  8
1階座席
  6
Continuous
 62
     7
370
     9
100
AcDbText
 10
182759.96562
 20
-4462.831546
 30
0.0
 40
225.0
  1
化粧台カウンター
 50
90.0
  7
Style-HGSｺﾞｼｯｸM
 11
182534.96562
 21
-4462.831546
 31
0.0
100
AcDbText
 73
     3
  0
TEXT
  5
A35B
330
A78D
100
AcDbEntity
  8
1階座席
  6
Continuous
 62
     7
370
     9
100
AcDbText
 10
192156.36962
 20
-14406.793132
 30
0.0
 40
275.0
  1
SC=1/100(A4)
 41
1.090909
  7
Style-HGSｺﾞｼｯｸM
 11
192156.36962
 21
-14131.793132
 31
0.0
100
AcDbText
 73
     3
  0
TEXT
  5
A35C
330
A78D
100
AcDbEntity
  8
1階座席
  6
Continuous
 62
     7
370
     9
100
AcDbText
 10
191254.963108
 20
-14973.990327
 30
0.0
 40
325.0
  1
1
  7
Style-HGSｺﾞｼｯｸM
 11
191254.963108
 21
-14648.990327
 31
0.0
100
AcDbText
 73
     3
  0
LWPOLYLINE
  5
A35D
330
A78D
100
AcDbEntity
  8
3-0通芯
  6
Continuous
 62
     7
370
    13
100
AcDbPolyline
 90
        3
 70
   128
 43
0.0
 10
186309.532392
 20
-9179.974528
 10
186459.532392
 20
-9279.974528
 10
186309.532392
 20
-9379.974528
  0
LINE
  5
A35E
330
A78D
100
AcDbEntity
  8
3-0通芯
  6
Continuous
 62
     7
370
    13
100
AcDbLine
 10
181909.532392
 20
-9279.974528
 30
0.0
 11
183791.81047
 21
-9279.974528
 31
0.0
  0
LWPOLYLINE
  5
A35F
330
A78D
100
AcDbEntity
  8
3-0通芯
  6
Continuous
 62
     7
370
    13
100
AcDbPolyline
 90
        3
 70
   128
 43
0.0
 10
182059.532392
 20
-9179.974528
 10
181909.532392
 20
-9279.974528
 10
182059.532392
 20
-9379.974528
  0
LWPOLYLINE
  5
A360
330
A78D
100
AcDbEntity
  8
3-0通芯
  6
Continuous
 62
     7
370
    13
100
AcDbPolyline
 90
        3
 70
   128
 43
0.0
 10
179809.532392
 20
-1129.974528
 10
179709.532392
 20
-979.974528
 10
179609.532392
 20
-1129.974528
  0
LINE
  5
A361
330
A78D
100
AcDbEntity
  8
A733_ストリートファニチャ
370
    13
100
AcDbLine
 10
179709.532392
 20
-979.974528
 30
0.0
 11
179709.532392
 21
-2560.003557
 31
0.0
  0
LWPOLYLINE
  5
A362
330
A78D
100
AcDbEntity
  8
3-0通芯
  6
Continuous
 62
     7
370
    13
100
AcDbPolyline
 90
        3
 70
   128
 43
0.0
 10
179809.532392
 20
-4889.974528
 10
179709.532392
 20
-5039.974528
 10
179609.532392
 20
-4889.974528
  0
LINE
  5
A363
330
A78D
100
AcDbEntity
  8
A733_ストリートファニチャ
370
    13
100
AcDbLine
 10
179709.532392
 20
-3250.714218
 30
0.0
 11
179709.532392
 21
-5039.974528
 31
0.0
  0
LINE
  5
A364
330
A78D
100
AcDbEntity
  8
3-0通芯
  6
Continuous
 62
     7
370
    13
100
AcDbLine
 10
184184.532392
 20
-9279.974528
 30
0.0
 11
186459.532392
 21
-9279.974528
 31
0.0
  0
TEXT
  5
A365
330
A78D
100
AcDbEntity
  8
1階座席
  6
Continuous
 62
     7
370
    13
100
AcDbText
 10
183775.605503
 20
-9389.531557
 30
0.0
 40
225.0
  1
4.5
  7
Style-HGSｺﾞｼｯｸM
 11
183775.605503
 21
-9164.531557
 31
0.0
100
AcDbText
 73
     3
  0
TEXT
  5
A366
330
A78D
100
AcDbEntity
  8
1階座席
  6
Continuous
 62
     7
370
    13
100
AcDbText
 10
179550.558272
 20
-2979.897941
 30
0.0
 40
225.0
  1
4.0
  7
Style-HGSｺﾞｼｯｸM
 11
179550.558272
 21
-2754.897941
 31
0.0
100
AcDbText
 73
     3
  0
TEXT
  5
A367
330
A78D
100
AcDbEntity
  8
1階座席
  6
Continuous
 62
     7
370
     9
100
AcDbText
 10
186271.105267
 20
-2062.227276
 30
0.0
 40
225.0
  1
24㎡ 
  7
Style-HGSｺﾞｼｯｸM
 11
186271.105267
 21
-1837.227276
 31
0.0
100
AcDbText
 73
     3
  0
TEXT
  5
A368
330
A78D
100
AcDbEntity
  8
1階座席
  6
Continuous
 62
     7
370
     9
100
AcDbText
 10
185980.181466
 20
-2368.879891
 30
0.0
 40
225.0
  1
（7坪）
  7
Style-HGSｺﾞｼｯｸM
 11
185980.181466
 21
-2143.879891
 31
0.0
100
AcDbText
 73
     3
  0
TEXT
  5
A369
330
A78D
100
AcDbEntity
  8
1階座席
  6
Continuous
 62
     7
370
     9
100
AcDbText
 10
189934.524223
 20
-4741.789541
 30
0.0
 40
225.0
  1
17㎡ 
  7
Style-HGSｺﾞｼｯｸM
 11
189934.524223
 21
-4516.789541
 31
0.0
100
AcDbText
 73
     3
  0
TEXT
  5
A36A
330
A78D
100
AcDbEntity
  8
1階座席
  6
Continuous
 62
     7
370
     9
100
AcDbText
 10
189706.502704
 20
-5013.975435
 30
0.0
 40
225.0
  1
（5坪）
  7
Style-HGSｺﾞｼｯｸM
 11
189706.502704
 21
-4788.975435
 31
0.0
100
AcDbText
 73
     3
  0
LINE
  5
A36B
330
A78D
100
AcDbEntity
  8
A733_ストリートファニチャ
370
    13
100
AcDbLine
 10
194609.532392
 20
-979.974528
 30
0.0
 11
194609.532392
 21
-2742.350106
 31
0.0
  0
LINE
  5
A36C
330
A78D
100
AcDbEntity
  8
A733_ストリートファニチャ
370
    13
100
AcDbLine
 10
188409.532392
 20
1220.025472
 30
0.0
 11
189968.120531
 21
1220.025472
 31
0.0
  0
LWPOLYLINE
  5
A36D
330
A78D
100
AcDbEntity
  8
3-0通芯
  6
Continuous
 62
     7
370
    13
100
AcDbPolyline
 90
        3
 70
   128
 43
0.0
 10
192259.532392
 20
1320.025472
 10
192409.532392
 20
1220.025472
 10
192259.532392
 20
1120.025472
  0
LWPOLYLINE
  5
A36E
330
A78D
100
AcDbEntity
  8
3-0通芯
  6
Continuous
 62
     7
370
    13
100
AcDbPolyline
 90
        3
 70
   128
 43
0.0
 10
188559.532392
 20
1320.025472
 10
188409.532392
 20
1220.025472
 10
188559.532392
 20
1120.025472
  0
LWPOLYLINE
  5
A36F
330
A78D
100
AcDbEntity
  8
3-0通芯
  6
Continuous
 62
     7
370
    13
100
AcDbPolyline
 90
        3
 70
   128
 43
0.0
 10
194709.532392
 20
-1129.974528
 10
194609.532392
 20
-979.974528
 10
194509.532392
 20
-1129.974528
  0
LWPOLYLINE
  5
A370
330
A78D
100
AcDbEntity
  8
3-0通芯
  6
Continuous
 62
     7
370
    13
100
AcDbPolyline
 90
        3
 70
   128
 43
0.0
 10
194709.532392
 20
-4889.974528
 10
194609.532392
 20
-5039.974528
 10
194509.532392
 20
-4889.974528
  0
LINE
  5
A371
330
A78D
100
AcDbEntity
  8
A733_ストリートファニチャ
370
    13
100
AcDbLine
 10
194609.532392
 20
-3536.328782
 30
0.0
 11
194609.532392
 21
-5039.974528
 31
0.0
  0
LINE
  5
A372
330
A78D
100
AcDbEntity
  8
A733_ストリートファニチャ
370
    13
100
AcDbLine
 10
190844.524717
 20
1220.025472
 30
0.0
 11
192409.532392
 21
1220.025472
 31
0.0
  0
TEXT
  5
A373
330
A78D
100
AcDbEntity
  8
1階座席
  6
Continuous
 62
     7
370
    13
100
AcDbText
 10
194444.715727
 20
-3287.414072
 30
0.0
 40
225.0
  1
4.0
  7
Style-HGSｺﾞｼｯｸM
 11
194444.715727
 21
-3062.414072
 31
0.0
100
AcDbText
 73
     3
  0
TEXT
  5
A374
330
A78D
100
AcDbEntity
  8
1階座席
  6
Continuous
 62
     7
370
    13
100
AcDbText
 10
190272.274645
 20
1121.450192
 30
0.0
 40
225.0
  1
4.0
  7
Style-HGSｺﾞｼｯｸM
 11
190272.274645
 21
1346.450192
 31
0.0
100
AcDbText
 73
     3
  0
TEXT
  5
A375
330
A78D
100
AcDbEntity
  8
1階座席
  6
Continuous
 62
     7
370
     9
100
AcDbText
 10
183311.980168
 20
-14746.436605
 30
0.0
 40
375.0
  1
第 １ 楽屋（西）・第 １ 楽屋（東）
 41
0.8
  7
Style-HGSｺﾞｼｯｸM
 11
183311.980168
 21
-14371.436605
 31
0.0
100
AcDbText
 73
     3
  0
LINE
  5
A376
330
A78D
100
AcDbEntity
  8
A733_ストリートファニチャ
 62
     7
370
     9
100
AcDbLine
 10
192409.532392
 20
-3870.589395
 30
0.0
 11
192609.532392
 21
-3870.589395
 31
0.0
  0
ARC
  5
A377
330
A78D
100
AcDbEntity
  8
A733_ストリートファニチャ
 62
     7
370
     9
100
AcDbCircle
 10
187959.345351
 20
-5239.974528
 30
0.0
 40
300.0
100
AcDbArc
 50
94.705624
 51
183.369668
  0
LINE
  5
A378
330
A78D
100
AcDbEntity
  8
A733_ストリートファニチャ
 62
     7
370
    13
100
AcDbLine
 10
187934.73445
 20
-4940.985726
 30
0.0
 11
187934.73445
 21
-5266.045091
 31
0.0
  0
ARC
  5
A379
330
A78D
100
AcDbEntity
  8
A733_ストリートファニチャ
 62
     7
370
     9
100
AcDbCircle
 10
186759.345351
 20
-5239.974528
 30
0.0
 40
900.0
100
AcDbArc
 50
0.212274
 51
90.0
  0
LINE
  5
A37A
330
A78D
100
AcDbEntity
  8
A733_ストリートファニチャ
 62
     7
370
     9
100
AcDbLine
 10
181809.532392
 20
-4537.974528
 30
0.0
 11
181809.532392
 21
-3137.974528
 31
0.0
  0
LINE
  5
A37B
330
A78D
100
AcDbEntity
  8
A733_ストリートファニチャ
 62
     7
370
     9
100
AcDbLine
 10
181709.532392
 20
-4537.974528
 30
0.0
 11
181709.532392
 21
-3137.974528
 31
0.0
  0
LINE
  5
A37C
330
A78D
100
AcDbEntity
  8
A733_ストリートファニチャ
 62
     7
370
     9
100
AcDbLine
 10
181909.532392
 20
-4537.974528
 30
0.0
 11
181909.532392
 21
-3137.974528
 31
0.0
  0
LINE
  5
A37D
330
A78D
100
AcDbEntity
  8
A733_ストリートファニチャ
 62
     7
370
     9
100
AcDbLine
 10
185159.719434
 20
-7079.974528
 30
0.0
 11
185159.719434
 21
-6209.974528
 31
0.0
  0
ARC
  5
A37E
330
A78D
100
AcDbEntity
  8
A733_ストリートファニチャ
 62
     7
370
     9
100
AcDbCircle
 10
186597.153816
 20
-6229.974528
 30
0.0
 40
832.922564
100
AcDbArc
 50
268.982902
 51
89.148461
  0
LINE
  5
A37F
330
A78D
100
AcDbEntity
  8
A733_ストリートファニチャ
 62
     7
370
     9
100
AcDbLine
 10
184909.719434
 20
-7079.974528
 30
0.0
 11
184909.719434
 21
-6209.974528
 31
0.0
  0
LINE
  5
A380
330
A78D
100
AcDbEntity
  8
A733_ストリートファニチャ
 62
     7
370
     9
100
AcDbLine
 10
184659.719434
 20
-7079.974528
 30
0.0
 11
184659.719434
 21
-6209.974528
 31
0.0
  0
LINE
  5
A381
330
A78D
100
AcDbEntity
  8
A733_ストリートファニチャ
 62
     7
370
     9
100
AcDbLine
 10
184409.719434
 20
-7079.974528
 30
0.0
 11
184409.719434
 21
-6209.974528
 31
0.0
  0
LINE
  5
A382
330
A78D
100
AcDbEntity
  8
A733_ストリートファニチャ
 62
     7
370
     9
100
AcDbLine
 10
184159.719434
 20
-7079.974528
 30
0.0
 11
184159.719434
 21
-6209.974528
 31
0.0
  0
LINE
  5
A383
330
A78D
100
AcDbEntity
  8
A733_ストリートファニチャ
 62
     7
370
     9
100
AcDbLine
 10
183909.719434
 20
-7079.974528
 30
0.0
 11
183909.719434
 21
-6209.974528
 31
0.0
  0
LINE
  5
A384
330
A78D
100
AcDbEntity
  8
A733_ストリートファニチャ
 62
     7
370
     9
100
AcDbLine
 10
183659.719434
 20
-7079.974528
 30
0.0
 11
183659.719434
 21
-6209.974528
 31
0.0
  0
LINE
  5
A385
330
A78D
100
AcDbEntity
  8
A733_ストリートファニチャ
 62
     7
370
     9
100
AcDbLine
 10
183409.719434
 20
-7079.974528
 30
0.0
 11
183409.719434
 21
-6209.974528
 31
0.0
  0
LINE
  5
A386
330
A78D
100
AcDbEntity
  8
A733_ストリートファニチャ
 62
     7
370
     9
100
AcDbLine
 10
183159.719434
 20
-7079.974528
 30
0.0
 11
183159.719434
 21
-6209.974528
 31
0.0
  0
LINE
  5
A387
330
A78D
100
AcDbEntity
  8
A733_ストリートファニチャ
 62
     7
370
     9
100
AcDbLine
 10
182909.719434
 20
-7079.974528
 30
0.0
 11
182909.719434
 21
-6209.974528
 31
0.0
  0
LINE
  5
A388
330
A78D
100
AcDbEntity
  8
A733_ストリートファニチャ
 62
     7
370
     9
100
AcDbLine
 10
185409.719434
 20
-7079.974528
 30
0.0
 11
185409.719434
 21
-6209.974528
 31
0.0
  0
LINE
  5
A389
330
A78D
100
AcDbEntity
  8
A733_ストリートファニチャ
 62
     7
370
     9
100
AcDbLine
 10
182909.719434
 20
-6109.974528
 30
0.0
 11
182909.719434
 21
-5239.974528
 31
0.0
  0
LINE
  5
A38A
330
A78D
100
AcDbEntity
  8
A733_ストリートファニチャ
 62
     7
370
     9
100
AcDbLine
 10
183164.371683
 20
-6109.974528
 30
0.0
 11
183164.371683
 21
-5239.974528
 31
0.0
  0
LINE
  5
A38B
330
A78D
100
AcDbEntity
  8
A733_ストリートファニチャ
 62
     7
370
     9
100
AcDbLine
 10
185406.552487
 20
-6637.97795
 30
0.0
 11
182504.906741
 21
-6637.97795
 31
0.0
  0
LINE
  5
A38C
330
A78D
100
AcDbEntity
  8
A733_ストリートファニチャ
 62
     7
370
     9
100
AcDbLine
 10
182504.906741
 20
-6637.97795
 30
0.0
 11
182504.906741
 21
-5731.930464
 31
0.0
  0
LINE
  5
A38D
330
A78D
100
AcDbEntity
  8
A733_ストリートファニチャ
 62
     7
370
     9
100
AcDbLine
 10
183550.373013
 20
-5582.834042
 30
0.0
 11
183703.412592
 21
-5582.834042
 31
0.0
  0
LINE
  5
A38E
330
A78D
100
AcDbEntity
  8
A733_ストリートファニチャ
 62
     7
370
     9
100
AcDbLine
 10
183703.412592
 20
-5582.834042
 30
0.0
 11
183534.561676
 21
-5875.292408
 31
0.0
  0
LINE
  5
A38F
330
A78D
100
AcDbEntity
  8
A733_ストリートファニチャ
 62
     7
370
     9
100
AcDbLine
 10
183720.616026
 20
-5875.292408
 30
0.0
 11
183534.561676
 21
-5875.292408
 31
0.0
  0
LINE
  5
A390
330
A78D
100
AcDbEntity
  8
A733_ストリートファニチャ
 62
     7
370
     9
100
AcDbLine
 10
183720.616026
 20
-5875.292408
 30
0.0
 11
183866.297001
 21
-6107.61926
 31
0.0
  0
LINE
  5
A391
330
A78D
100
AcDbEntity
  8
A733_ストリートファニチャ
 62
     7
370
     9
100
AcDbLine
 10
183352.42298
 20
-5239.974528
 30
0.0
 11
183550.373013
 21
-5582.834042
 31
0.0
  0
LINE
  5
A392
330
A78D
100
AcDbEntity
  8
A733_ストリートファニチャ
 62
     7
370
     9
100
AcDbLine
 10
182504.906741
 20
-5731.930464
 30
0.0
 11
183617.331733
 21
-5731.930464
 31
0.0
  0
LINE
  5
A393
330
A78D
100
AcDbEntity
  8
A733_ストリートファニチャ
 62
     7
370
     9
100
AcDbLine
 10
182809.719434
 20
-6109.974528
 30
0.0
 11
185509.719434
 21
-6109.974528
 31
0.0
  0
LINE
  5
A394
330
A78D
100
AcDbEntity
  8
A733_ストリートファニチャ
 62
     7
370
     9
100
AcDbLine
 10
182809.719434
 20
-6209.974528
 30
0.0
 11
182809.719434
 21
-6109.974528
 31
0.0
  0
LINE
  5
A395
330
A78D
100
AcDbEntity
  8
A733_ストリートファニチャ
 62
     7
370
     9
100
AcDbLine
 10
192509.532392
 20
-3870.589395
 30
0.0
 11
192509.532392
 21
-2070.589395
 31
0.0
  0
LINE
  5
A396
330
A78D
100
AcDbEntity
  8
A733_ストリートファニチャ
 62
     7
370
     9
100
AcDbLine
 10
192409.532392
 20
-3870.589395
 30
0.0
 11
192409.532392
 21
-2070.589395
 31
0.0
  0
LINE
  5
A397
330
A78D
100
AcDbEntity
  8
A733_ストリートファニチャ
 62
     7
370
     9
100
AcDbLine
 10
192609.532392
 20
-3870.589395
 30
0.0
 11
192609.532392
 21
-2070.589395
 31
0.0
  0
LINE
  5
A398
330
A78D
100
AcDbEntity
  8
A733_ストリートファニチャ
 62
     7
370
     9
100
AcDbLine
 10
188409.532392
 20
-6139.974528
 30
0.0
 11
188209.532392
 21
-6139.974528
 31
0.0
  0
LINE
  5
A399
330
A78D
100
AcDbEntity
  8
A733_ストリートファニチャ
 62
     7
370
     9
100
AcDbLine
 10
188409.532392
 20
-5239.974528
 30
0.0
 11
188409.532392
 21
-6139.974528
 31
0.0
  0
LINE
  5
A39A
330
A78D
100
AcDbEntity
  8
A733_ストリートファニチャ
 62
     7
370
     9
100
AcDbLine
 10
188209.532392
 20
-5239.974528
 30
0.0
 11
188209.532392
 21
-6139.974528
 31
0.0
  0
LINE
  5
A39B
330
A78D
100
AcDbEntity
  8
A733_ストリートファニチャ
 62
     7
370
     9
100
AcDbLine
 10
188209.532392
 20
-5239.974528
 30
0.0
 11
187959.345351
 21
-5239.974528
 31
0.0
  0
LINE
  5
A39C
330
A78D
100
AcDbEntity
  8
A733_ストリートファニチャ
 62
     7
370
     9
100
AcDbLine
 10
188209.532392
 20
-7079.974528
 30
0.0
 11
188209.532392
 21
-7279.974528
 31
0.0
  0
LINE
  5
A39D
330
A78D
100
AcDbEntity
  8
A733_ストリートファニチャ
 62
     7
370
     9
100
AcDbLine
 10
190184.532392
 20
-6939.974528
 30
0.0
 11
190334.532392
 21
-6939.974528
 31
0.0
  0
LINE
  5
A39E
330
A78D
100
AcDbEntity
  8
A733_ストリートファニチャ
 62
     7
370
     9
100
AcDbLine
 10
190184.532392
 20
-6339.974528
 30
0.0
 11
190334.532392
 21
-6339.974528
 31
0.0
  0
LINE
  5
A39F
330
A78D
100
AcDbEntity
  8
A733_ストリートファニチャ
 62
     7
370
     9
100
AcDbLine
 10
190184.532392
 20
-6339.974528
 30
0.0
 11
190184.532392
 21
-5239.974528
 31
0.0
  0
LINE
  5
A3A0
330
A78D
100
AcDbEntity
  8
A733_ストリートファニチャ
 62
     7
370
     9
100
AcDbLine
 10
188409.532392
 20
-5239.974528
 30
0.0
 11
190184.532392
 21
-5239.974528
 31
0.0
  0
LINE
  5
A3A1
330
A78D
100
AcDbEntity
  8
A733_ストリートファニチャ
 62
     7
370
     9
100
AcDbLine
 10
190334.532392
 20
-6339.974528
 30
0.0
 11
190334.532392
 21
-5239.974528
 31
0.0
  0
LINE
  5
A3A2
330
A78D
100
AcDbEntity
  8
A733_ストリートファニチャ
 62
     7
370
     9
100
AcDbLine
 10
190334.532392
 20
-5239.974528
 30
0.0
 11
192409.532392
 21
-5239.974528
 31
0.0
  0
LINE
  5
A3A3
330
A78D
100
AcDbEntity
  8
A733_ストリートファニチャ
 62
     7
370
     9
100
AcDbLine
 10
190334.532392
 20
-7079.974528
 30
0.0
 11
190334.532392
 21
-6939.974528
 31
0.0
  0
LINE
  5
A3A4
330
A78D
100
AcDbEntity
  8
A733_ストリートファニチャ
 62
     7
370
     9
100
AcDbLine
 10
190184.532392
 20
-7079.974528
 30
0.0
 11
190184.532392
 21
-6939.974528
 31
0.0
  0
LINE
  5
A3A5
330
A78D
100
AcDbEntity
  8
A733_ストリートファニチャ
 62
     7
370
     9
100
AcDbLine
 10
189759.532392
 20
-5989.974528
 30
0.0
 11
190184.532392
 21
-5989.974528
 31
0.0
  0
LINE
  5
A3A6
330
A78D
100
AcDbEntity
  8
A733_ストリートファニチャ
 62
     7
370
     9
100
AcDbLine
 10
189759.532392
 20
-5989.974528
 30
0.0
 11
189759.532392
 21
-5239.974528
 31
0.0
  0
LINE
  5
A3A7
330
A78D
100
AcDbEntity
  8
A733_ストリートファニチャ
 62
     7
370
     9
100
AcDbLine
 10
188409.532392
 20
-5839.974528
 30
0.0
 11
189759.532392
 21
-5839.974528
 31
0.0
  0
LINE
  5
A3A8
330
A78D
100
AcDbEntity
  8
A733_ストリートファニチャ
 62
     7
370
     9
100
AcDbLine
 10
190184.532392
 20
-5839.974528
 30
0.0
 11
189834.532392
 21
-5839.974528
 31
0.0
  0
LINE
  5
A3A9
330
A78D
100
AcDbEntity
  8
A733_ストリートファニチャ
 62
     7
370
     9
100
AcDbLine
 10
189834.532392
 20
-5839.974528
 30
0.0
 11
189834.532392
 21
-5239.974528
 31
0.0
  0
LINE
  5
A3AA
330
A78D
100
AcDbEntity
  8
A733_ストリートファニチャ
 62
     7
370
     9
100
AcDbLine
 10
190263.705147
 20
-6933.509823
 30
0.0
 11
189734.56722
 21
-6933.509823
 31
0.0
  0
ARC
  5
A3AB
330
A78D
100
AcDbEntity
  8
A733_ストリートファニチャ
 62
     7
370
     9
100
AcDbCircle
 10
190334.532392
 20
-6939.974528
 30
0.0
 40
600.0
100
AcDbArc
 50
90.0
 51
179.382654
  0
LINE
  5
A3AC
330
A78D
100
AcDbEntity
  8
A733_ストリートファニチャ
 62
     7
370
     9
100
AcDbLine
 10
189834.532392
 20
-5239.974528
 30
0.0
 11
190181.843492
 21
-5841.534998
 31
0.0
  0
LINE
  5
A3AD
330
A78D
100
AcDbEntity
  8
A733_ストリートファニチャ
 62
     7
370
     9
100
AcDbLine
 10
188509.532392
 20
-5389.974528
 30
0.0
 11
188509.532392
 21
-5789.974528
 31
0.0
  0
LINE
  5
A3AE
330
A78D
100
AcDbEntity
  8
A733_ストリートファニチャ
 62
     7
370
     9
100
AcDbLine
 10
188509.532392
 20
-5389.974528
 30
0.0
 11
189109.532392
 21
-5389.974528
 31
0.0
  0
LINE
  5
A3AF
330
A78D
100
AcDbEntity
  8
A733_ストリートファニチャ
 62
     7
370
     9
100
AcDbLine
 10
188509.532392
 20
-5789.974528
 30
0.0
 11
189109.532392
 21
-5789.974528
 31
0.0
  0
LINE
  5
A3B0
330
A78D
100
AcDbEntity
  8
A733_ストリートファニチャ
 62
     7
370
     9
100
AcDbLine
 10
189109.532392
 20
-5389.974528
 30
0.0
 11
189109.532392
 21
-5789.974528
 31
0.0
  0
LINE
  5
A3B1
330
A78D
100
AcDbEntity
  8
A733_ストリートファニチャ
 62
     7
370
     9
100
AcDbLine
 10
192409.532392
 20
-5039.974528
 30
0.0
 11
192409.532392
 21
-3870.589395
 31
0.0
  0
LINE
  5
A3B2
330
A78D
100
AcDbEntity
  8
A733_ストリートファニチャ
 62
     7
370
     9
100
AcDbLine
 10
187959.345351
 20
-5039.974528
 30
0.0
 11
187959.345351
 21
-5239.974528
 31
0.0
  0
LINE
  5
A3B3
330
A78D
100
AcDbEntity
  8
A733_ストリートファニチャ
 62
     7
370
     9
100
AcDbLine
 10
187959.345351
 20
-5039.974528
 30
0.0
 11
192409.532392
 21
-5039.974528
 31
0.0
  0
CIRCLE
  5
A3B4
330
A78D
100
AcDbEntity
  8
A733_ストリートファニチャ
 62
     7
370
     9
100
AcDbCircle
 10
185401.179193
 20
-6633.322861
 30
0.0
 40
100.0
  0
LINE
  5
A3B5
330
A78D
100
AcDbEntity
  8
A733_ストリートファニチャ
 62
     7
370
     9
100
AcDbLine
 10
183666.138487
 20
-6109.974528
 30
0.0
 11
183666.138487
 21
-5875.292408
 31
0.0
  0
LINE
  5
A3B6
330
A78D
100
AcDbEntity
  8
A733_ストリートファニチャ
 62
     7
370
     9
100
AcDbLine
 10
183403.308256
 20
-6109.974528
 30
0.0
 11
183403.308256
 21
-5328.110412
 31
0.0
  0
LINE
  5
A3B7
330
A78D
100
AcDbEntity
  8
A733_ストリートファニチャ
 62
     7
370
     9
100
AcDbLine
 10
183617.331733
 20
-5731.930464
 30
0.0
 11
183134.36882
 21
-5861.339986
 31
0.0
  0
LINE
  5
A3B8
330
A78D
100
AcDbEntity
  8
A733_ストリートファニチャ
 62
     7
370
     9
100
AcDbLine
 10
183617.331733
 20
-5731.930464
 30
0.0
 11
183134.36882
 21
-5602.520941
 31
0.0
  0
LINE
  5
A3B9
330
A78D
100
AcDbEntity
  8
A733_ストリートファニチャ
 62
     7
370
     9
100
AcDbLine
 10
192609.532392
 20
-7279.974528
 30
0.0
 11
188209.532392
 21
-7279.974528
 31
0.0
  0
LINE
  5
A3BA
330
A78D
100
AcDbEntity
  8
A733_ストリートファニチャ
 62
     7
370
     9
100
AcDbLine
 10
192409.532392
 20
-7079.974528
 30
0.0
 11
192409.532392
 21
-5239.974528
 31
0.0
  0
LINE
  5
A3BB
330
A78D
100
AcDbEntity
  8
A733_ストリートファニチャ
 62
     7
370
     9
100
AcDbLine
 10
192409.532392
 20
-7079.974528
 30
0.0
 11
188209.532392
 21
-7079.974528
 31
0.0
  0
LINE
  5
A3BC
330
A78D
100
AcDbEntity
  8
A733_ストリートファニチャ
 62
     7
370
     9
100
AcDbLine
 10
192609.532392
 20
-6870.077124
 30
0.0
 11
192609.532392
 21
-3870.589395
 31
0.0
  0
LINE
  5
A3BD
330
A78D
100
AcDbEntity
  8
A733_ストリートファニチャ
 62
     7
370
     9
100
AcDbLine
 10
191189.532392
 20
-6159.974528
 30
0.0
 11
191189.532392
 21
-6305.519129
 31
0.0
  0
LINE
  5
A3BE
330
A78D
100
AcDbEntity
  8
A733_ストリートファニチャ
 62
     7
370
     9
100
AcDbLine
 10
191189.532392
 20
-6905.519129
 30
0.0
 11
191189.532392
 21
-7079.974528
 31
0.0
  0
LINE
  5
A3BF
330
A78D
100
AcDbEntity
  8
A733_ストリートファニチャ
 62
     7
370
     9
100
AcDbLine
 10
192289.532392
 20
-7079.974528
 30
0.0
 11
192289.532392
 21
-6159.974528
 31
0.0
  0
LINE
  5
A3C0
330
A78D
100
AcDbEntity
  8
A733_ストリートファニチャ
 62
     7
370
     9
100
AcDbLine
 10
192289.532392
 20
-6159.974528
 30
0.0
 11
192289.532392
 21
-5254.429927
 31
0.0
  0
LINE
  5
A3C1
330
A78D
100
AcDbEntity
  8
A733_ストリートファニチャ
 62
     7
370
     9
100
AcDbLine
 10
190334.532392
 20
-6159.974528
 30
0.0
 11
192409.532392
 21
-6159.974528
 31
0.0
  0
ARC
  5
A3C2
330
A78D
100
AcDbEntity
  8
A733_ストリートファニチャ
 62
     7
370
     9
100
AcDbCircle
 10
191189.261411
 20
-6905.519129
 30
0.0
 40
600.0
100
AcDbArc
 50
88.063895
 51
180.0
  0
LINE
  5
A3C3
330
A78D
100
AcDbEntity
  8
A733_ストリートファニチャ
 62
     7
370
     9
100
AcDbLine
 10
191189.261411
 20
-6905.519129
 30
0.0
 11
190589.261411
 21
-6905.519129
 31
0.0
  0
ARC
  5
A3C4
330
A78D
100
AcDbEntity
  8
A733_ストリートファニチャ
 62
     7
370
     9
100
AcDbCircle
 10
190372.537936
 20
-6159.974528
 30
0.0
 40
600.0
100
AcDbArc
 50
358.063895
 51
90.0
  0
LINE
  5
A3C5
330
A78D
100
AcDbEntity
  8
A733_ストリートファニチャ
 62
     7
370
     9
100
AcDbLine
 10
190372.537936
 20
-6159.974528
 30
0.0
 11
190372.537936
 21
-5559.974528
 31
0.0
  0
LINE
  5
A3C6
330
A78D
100
AcDbEntity
  8
A733_ストリートファニチャ
 62
     7
370
     9
100
AcDbLine
 10
186859.532392
 20
-3320.189762
 30
0.0
 11
186859.532392
 21
-3420.189762
 31
0.0
  0
LINE
  5
A3C7
330
A78D
100
AcDbEntity
  8
A733_ストリートファニチャ
 62
     7
370
     9
100
AcDbLine
 10
188059.532392
 20
-3320.189762
 30
0.0
 11
188059.532392
 21
-3420.189762
 31
0.0
  0
LINE
  5
A3C8
330
A78D
100
AcDbEntity
  8
A733_ストリートファニチャ
 62
     7
370
     9
100
AcDbLine
 10
188409.532392
 20
-1832.807602
 30
0.0
 11
188409.532392
 21
-3320.189762
 31
0.0
  0
LINE
  5
A3C9
330
A78D
100
AcDbEntity
  8
A733_ストリートファニチャ
 62
     7
370
     9
100
AcDbLine
 10
188409.532392
 20
-4976.29363
 30
0.0
 11
188409.532392
 21
-5039.974528
 31
0.0
  0
LINE
  5
A3CA
330
A78D
100
AcDbEntity
  8
A733_ストリートファニチャ
 62
     7
370
     9
100
AcDbLine
 10
188309.532392
 20
-1846.974528
 30
0.0
 11
188309.532392
 21
-3320.189762
 31
0.0
  0
LINE
  5
A3CB
330
A78D
100
AcDbEntity
  8
A733_ストリートファニチャ
 62
     7
370
     9
100
AcDbLine
 10
188309.532392
 20
-3420.189762
 30
0.0
 11
188309.532392
 21
-3776.29363
 31
0.0
  0
LINE
  5
A3CC
330
A78D
100
AcDbEntity
  8
A733_ストリートファニチャ
 62
     7
370
     9
100
AcDbLine
 10
188309.532392
 20
-4976.29363
 30
0.0
 11
188309.532392
 21
-5039.974528
 31
0.0
  0
LINE
  5
A3CD
330
A78D
100
AcDbEntity
  8
A733_ストリートファニチャ
 62
     7
370
     9
100
AcDbLine
 10
186559.532392
 20
-3420.189762
 30
0.0
 11
186559.532392
 21
-5039.974528
 31
0.0
  0
LINE
  5
A3CE
330
A78D
100
AcDbEntity
  8
A733_ストリートファニチャ
 62
     7
370
     9
100
AcDbLine
 10
186459.532392
 20
-3320.189762
 30
0.0
 11
186459.532392
 21
-5039.974528
 31
0.0
  0
LINE
  5
A3CF
330
A78D
100
AcDbEntity
  8
A733_ストリートファニチャ
 62
     7
370
     9
100
AcDbLine
 10
186459.532392
 20
-3320.189762
 30
0.0
 11
186859.532392
 21
-3320.189762
 31
0.0
  0
LINE
  5
A3D0
330
A78D
100
AcDbEntity
  8
A733_ストリートファニチャ
 62
     7
370
     9
100
AcDbLine
 10
188059.532392
 20
-3320.189762
 30
0.0
 11
188309.532392
 21
-3320.189762
 31
0.0
  0
LINE
  5
A3D1
330
A78D
100
AcDbEntity
  8
A733_ストリートファニチャ
 62
     7
370
     9
100
AcDbLine
 10
186559.532392
 20
-3420.189762
 30
0.0
 11
186859.532392
 21
-3420.189762
 31
0.0
  0
LINE
  5
A3D2
330
A78D
100
AcDbEntity
  8
A733_ストリートファニチャ
 62
     7
370
     9
100
AcDbLine
 10
188059.532392
 20
-3420.189762
 30
0.0
 11
188309.532392
 21
-3420.189762
 31
0.0
  0
LINE
  5
A3D3
330
A78D
100
AcDbEntity
  8
A733_ストリートファニチャ
 62
     7
370
     9
100
AcDbLine
 10
188409.532392
 20
-4976.29363
 30
0.0
 11
188309.532392
 21
-4976.29363
 31
0.0
  0
LINE
  5
A3D4
330
A78D
100
AcDbEntity
  8
A733_ストリートファニチャ
 62
     7
370
     9
100
AcDbLine
 10
188409.532392
 20
-3776.29363
 30
0.0
 11
188309.532392
 21
-3776.29363
 31
0.0
  0
ARC
  5
A3D5
330
A78D
100
AcDbEntity
  8
A733_ストリートファニチャ
 62
     7
370
     9
100
AcDbCircle
 10
188409.532392
 20
-4976.29363
 30
0.0
 40
800.0
100
AcDbArc
 50
0.0
 51
90.0
  0
LINE
  5
A3D6
330
A78D
100
AcDbEntity
  8
A733_ストリートファニチャ
 62
     7
370
    13
100
AcDbLine
 10
188409.532392
 20
-4976.29363
 30
0.0
 11
189209.532392
 21
-4976.29363
 31
0.0
  0
ARC
  5
A3D7
330
A78D
100
AcDbEntity
  8
A733_ストリートファニチャ
 62
     7
370
     9
100
AcDbCircle
 10
186859.532392
 20
-3320.189762
 30
0.0
 40
800.0
100
AcDbArc
 50
0.0
 51
90.0
  0
LINE
  5
A3D8
330
A78D
100
AcDbEntity
  8
A733_ストリートファニチャ
 62
     7
370
    13
100
AcDbLine
 10
186859.532392
 20
-3320.189762
 30
0.0
 11
186859.532392
 21
-2520.189762
 31
0.0
  0
LINE
  5
A3D9
330
A78D
100
AcDbEntity
  8
A733_ストリートファニチャ
 62
     7
370
     9
100
AcDbLine
 10
184109.532392
 20
-963.705346
 30
0.0
 11
184109.532392
 21
-796.243709
 31
0.0
  0
LINE
  5
A3DA
330
A78D
100
AcDbEntity
  8
A733_ストリートファニチャ
 62
     7
370
     9
100
AcDbLine
 10
184109.532392
 20
-796.243709
 30
0.0
 11
184179.532392
 21
-796.243709
 31
0.0
  0
LINE
  5
A3DB
330
A78D
100
AcDbEntity
  8
A733_ストリートファニチャ
 62
     7
370
     9
100
AcDbLine
 10
184179.532392
 20
-796.243709
 30
0.0
 11
184179.532392
 21
-963.705346
 31
0.0
  0
LINE
  5
A3DC
330
A78D
100
AcDbEntity
  8
A733_ストリートファニチャ
 62
     7
370
     9
100
AcDbLine
 10
184179.532392
 20
-963.705346
 30
0.0
 11
184109.532392
 21
-963.705346
 31
0.0
  0
LINE
  5
A3DD
330
A78D
100
AcDbEntity
  8
A733_ストリートファニチャ
 62
     7
370
     9
100
AcDbLine
 10
182709.532392
 20
-840.897484
 30
0.0
 11
184109.532392
 21
-840.897484
 31
0.0
  0
LINE
  5
A3DE
330
A78D
100
AcDbEntity
  8
A733_ストリートファニチャ
 62
     7
370
     9
100
AcDbLine
 10
184179.532392
 20
-840.897484
 30
0.0
 11
185579.532392
 21
-840.897484
 31
0.0
  0
LINE
  5
A3DF
330
A78D
100
AcDbEntity
  8
A733_ストリートファニチャ
 62
     7
370
     9
100
AcDbLine
 10
182709.532392
 20
-979.974528
 30
0.0
 11
185579.532392
 21
-979.974528
 31
0.0
  0
LINE
  5
A3E0
330
A78D
100
AcDbEntity
  8
A733_ストリートファニチャ
 62
     7
370
     9
100
AcDbLine
 10
185579.532392
 20
-779.974528
 30
0.0
 11
182709.532392
 21
-779.974528
 31
0.0
  0
LINE
  5
A3E1
330
A78D
100
AcDbEntity
  8
A733_ストリートファニチャ
 62
     7
370
     9
100
AcDbLine
 10
190139.532392
 20
-963.705346
 30
0.0
 11
190139.532392
 21
-796.243709
 31
0.0
  0
LINE
  5
A3E2
330
A78D
100
AcDbEntity
  8
A733_ストリートファニチャ
 62
     7
370
     9
100
AcDbLine
 10
190139.532392
 20
-796.243709
 30
0.0
 11
190209.532392
 21
-796.243709
 31
0.0
  0
LINE
  5
A3E3
330
A78D
100
AcDbEntity
  8
A733_ストリートファニチャ
 62
     7
370
     9
100
AcDbLine
 10
190209.532392
 20
-796.243709
 30
0.0
 11
190209.532392
 21
-963.705346
 31
0.0
  0
LINE
  5
A3E4
330
A78D
100
AcDbEntity
  8
A733_ストリートファニチャ
 62
     7
370
     9
100
AcDbLine
 10
190209.532392
 20
-963.705346
 30
0.0
 11
190139.532392
 21
-963.705346
 31
0.0
  0
LINE
  5
A3E5
330
A78D
100
AcDbEntity
  8
A733_ストリートファニチャ
 62
     7
370
     9
100
AcDbLine
 10
188739.532392
 20
-840.897484
 30
0.0
 11
190139.532392
 21
-840.897484
 31
0.0
  0
LINE
  5
A3E6
330
A78D
100
AcDbEntity
  8
A733_ストリートファニチャ
 62
     7
370
     9
100
AcDbLine
 10
190209.532392
 20
-840.897484
 30
0.0
 11
191609.532392
 21
-840.897484
 31
0.0
  0
LINE
  5
A3E7
330
A78D
100
AcDbEntity
  8
A733_ストリートファニチャ
 62
     7
370
     9
100
AcDbLine
 10
188739.532392
 20
-979.974528
 30
0.0
 11
191609.532392
 21
-979.974528
 31
0.0
  0
LINE
  5
A3E8
330
A78D
100
AcDbEntity
  8
A733_ストリートファニチャ
 62
     7
370
     9
100
AcDbLine
 10
191609.532392
 20
-779.974528
 30
0.0
 11
188739.532392
 21
-779.974528
 31
0.0
  0
LINE
  5
A3E9
330
A78D
100
AcDbEntity
  8
A733_ストリートファニチャ
 62
     7
370
    13
100
AcDbLine
 10
188059.532392
 20
-3316.635252
 30
0.0
 11
188059.532392
 21
-2916.627355
 31
0.0
  0
ARC
  5
A3EA
330
A78D
100
AcDbEntity
  8
A733_ストリートファニチャ
 62
     7
370
     9
100
AcDbCircle
 10
188409.532392
 20
-3776.29363
 30
0.0
 40
400.007897
100
AcDbArc
 50
269.706047
 51
0.0
  0
ARC
  5
A3EB
330
A78D
100
AcDbEntity
  8
A733_ストリートファニチャ
 62
     7
370
     9
100
AcDbCircle
 10
188059.532392
 20
-3316.635252
 30
0.0
 40
400.007897
100
AcDbArc
 50
90.0
 51
180.33943
  0
LINE
  5
A3EC
330
A78D
100
AcDbEntity
  8
A733_ストリートファニチャ
 62
     7
370
    13
100
AcDbLine
 10
188409.532392
 20
-3776.29363
 30
0.0
 11
188809.540289
 21
-3776.29363
 31
0.0
  0
ARC
  5
A3ED
330
A78D
100
AcDbEntity
  8
A733_ストリートファニチャ
 62
     7
370
     9
100
AcDbCircle
 10
191848.032813
 20
-6592.745658
 30
0.0
 40
64.999999
100
AcDbArc
 50
180.00137
 51
238.185803
  0
ARC
  5
A3EE
330
A78D
100
AcDbEntity
  8
A733_ストリートファニチャ
 62
     7
370
     9
100
AcDbCircle
 10
191971.916906
 20
-6393.052761
 30
0.0
 40
299.9999830000001
100
AcDbArc
 50
238.183606
 51
272.612973
  0
ARC
  5
A3EF
330
A78D
100
AcDbEntity
  8
A733_ストリートファニチャ
 62
     7
370
     9
100
AcDbCircle
 10
191983.033204
 20
-6592.749778
 30
0.0
 40
100.000001
100
AcDbArc
 50
273.183926
 51
359.999173
  0
ARC
  5
A3F0
330
A78D
100
AcDbEntity
  8
A733_ストリートファニチャ
 62
     7
370
     9
100
AcDbCircle
 10
191983.033204
 20
-6592.749778
 30
0.0
 40
100.000001
100
AcDbArc
 50
359.999173
 51
86.814435
  0
LINE
  5
A3F1
330
A78D
100
AcDbEntity
  8
A733_ストリートファニチャ
 62
     7
370
     9
100
AcDbLine
 10
192180.371184
 20
-6429.751207
 30
0.0
 11
192180.418121
 21
-6456.247376
 31
0.0
  0
LINE
  5
A3F2
330
A78D
100
AcDbEntity
  8
A733_ストリートファニチャ
 62
     7
370
     9
100
AcDbLine
 10
192145.159379
 20
-6755.737332
 30
0.0
 11
192145.483855
 21
-6727.738856
 31
0.0
  0
LINE
  5
A3F3
330
A78D
100
AcDbEntity
  8
A733_ストリートファニチャ
 62
     7
370
     9
100
AcDbLine
 10
192180.39415
 20
-6727.752419
 30
0.0
 11
192180.351056
 21
-6755.747066
 31
0.0
  0
LINE
  5
A3F4
330
A78D
100
AcDbEntity
  8
A733_ストリートファニチャ
 62
     7
370
     9
100
AcDbLine
 10
191988.590699
 20
-6692.589707
 30
0.0
 11
191985.608752
 21
-6692.747403
 31
0.0
  0
LINE
  5
A3F5
330
A78D
100
AcDbEntity
  8
A733_ストリートファニチャ
 62
     7
370
     9
100
AcDbLine
 10
192135.148428
 20
-6678.699333
 30
0.0
 11
192135.161146
 21
-6743.852107
 31
0.0
  0
LINE
  5
A3F6
330
A78D
100
AcDbEntity
  8
A733_ストリートファニチャ
 62
     7
370
     9
100
AcDbLine
 10
192135.112605
 20
-6617.74883
 30
0.0
 11
192135.148428
 21
-6678.699333
 31
0.0
  0
LINE
  5
A3F7
330
A78D
100
AcDbEntity
  8
A733_ストリートファニチャ
 62
     7
370
     9
100
AcDbLine
 10
192135.162398
 20
-6441.649165
 30
0.0
 11
192135.139556
 21
-6506.792935
 31
0.0
  0
LINE
  5
A3F8
330
A78D
100
AcDbEntity
  8
A733_ストリートファニチャ
 62
     7
370
     9
100
AcDbLine
 10
192135.256848
 20
-6392.746949
 30
0.0
 11
192154.733251
 21
-6393.255938
 31
0.0
  0
LINE
  5
A3F9
330
A78D
100
AcDbEntity
  8
A733_ストリートファニチャ
 62
     7
370
     9
100
AcDbLine
 10
192201.646654
 20
-6395.492544
 30
0.0
 11
192235.20973
 21
-6397.702287
 31
0.0
  0
LINE
  5
A3FA
330
A78D
100
AcDbEntity
  8
A733_ストリートファニチャ
 62
     7
370
     9
100
AcDbLine
 10
192160.124208
 20
-6395.881693
 30
0.0
 11
192225.623214
 21
-6400.912887
 31
0.0
  0
LINE
  5
A3FB
330
A78D
100
AcDbEntity
  8
A733_ストリートファニチャ
 62
     7
370
     9
100
AcDbLine
 10
192090.417998
 20
-6393.021247
 30
0.0
 11
192105.290875
 21
-6393.825914
 31
0.0
  0
LINE
  5
A3FC
330
A78D
100
AcDbEntity
  8
A733_ストリートファニチャ
 62
     7
370
     9
100
AcDbLine
 10
192235.209683
 20
-6787.389412
 30
0.0
 11
192201.647157
 21
-6789.605477
 31
0.0
  0
LINE
  5
A3FD
330
A78D
100
AcDbEntity
  8
A733_ストリートファニチャ
 62
     7
370
     9
100
AcDbLine
 10
192154.735102
 20
-6792.243954
 30
0.0
 11
192135.257159
 21
-6792.744904
 31
0.0
  0
LINE
  5
A3FE
330
A78D
100
AcDbEntity
  8
A733_ストリートファニチャ
 62
     7
370
     9
100
AcDbLine
 10
192225.62404
 20
-6784.583133
 30
0.0
 11
192160.127012
 21
-6789.62121
 31
0.0
  0
LINE
  5
A3FF
330
A78D
100
AcDbEntity
  8
A733_ストリートファニチャ
 62
     7
370
     9
100
AcDbLine
 10
192105.287572
 20
-6792.180781
 30
0.0
 11
192090.419726
 21
-6792.474614
 31
0.0
  0
LINE
  5
A400
330
A78D
100
AcDbEntity
  8
A733_ストリートファニチャ
 62
     7
370
     9
100
AcDbLine
 10
192135.139556
 20
-6506.792935
 30
0.0
 11
192135.115659
 21
-6567.752997
 31
0.0
  0
LINE
  5
A401
330
A78D
100
AcDbEntity
  8
A733_ストリートファニチャ
 62
     7
370
     9
100
AcDbLine
 10
192135.11297
 20
-6592.746218
 30
0.0
 11
192135.115659
 21
-6567.752997
 31
0.0
  0
LINE
  5
A402
330
A78D
100
AcDbEntity
  8
A733_ストリートファニチャ
 62
     7
370
     9
100
AcDbLine
 10
191985.603106
 20
-6492.752644
 30
0.0
 11
191988.589745
 21
-6492.902911
 31
0.0
  0
LINE
  5
A403
330
A78D
100
AcDbEntity
  8
A733_ストリートファニチャ
 62
     7
370
     9
100
AcDbLine
 10
192145.955999
 20
-6427.725335
 30
0.0
 11
192144.221071
 21
-6427.739436
 31
0.0
  0
LINE
  5
A404
330
A78D
100
AcDbEntity
  8
A733_ストリートファニチャ
 62
     7
370
     9
100
AcDbLine
 10
192137.190731
 20
-6427.815176
 30
0.0
 11
192144.221071
 21
-6427.739436
 31
0.0
  0
LINE
  5
A405
330
A78D
100
AcDbEntity
  8
A733_ストリートファニチャ
 62
     7
370
     9
100
AcDbLine
 10
192135.162398
 20
-6441.649165
 30
0.0
 11
192135.221728
 21
-6429.803093
 31
0.0
  0
LINE
  5
A406
330
A78D
100
AcDbEntity
  8
A733_ストリートファニチャ
 62
     7
370
     9
100
AcDbLine
 10
192135.112605
 20
-6617.74883
 30
0.0
 11
192135.11297
 21
-6592.746218
 31
0.0
  0
LINE
  5
A407
330
A78D
100
AcDbEntity
  8
A733_ストリートファニチャ
 62
     7
370
     9
100
AcDbLine
 10
192151.81222
 20
-6757.78333
 30
0.0
 11
192150.436061
 21
-6757.778851
 31
0.0
  0
LINE
  5
A408
330
A78D
100
AcDbEntity
  8
A733_ストリートファニチャ
 62
     7
370
     9
100
AcDbLine
 10
192173.024596
 20
-6757.79679
 30
0.0
 11
192169.08716
 21
-6757.823787
 31
0.0
  0
LINE
  5
A409
330
A78D
100
AcDbEntity
  8
A733_ストリートファニチャ
 62
     7
370
     9
100
AcDbLine
 10
192165.440876
 20
-6757.829667
 30
0.0
 11
192161.695873
 21
-6757.82617
 31
0.0
  0
LINE
  5
A40A
330
A78D
100
AcDbEntity
  8
A733_ストリートファニチャ
 62
     7
370
     9
100
AcDbLine
 10
192146.840454
 20
-6757.759766
 30
0.0
 11
192137.195421
 21
-6757.656534
 31
0.0
  0
LINE
  5
A40B
330
A78D
100
AcDbEntity
  8
A733_ストリートファニチャ
 62
     7
370
     9
100
AcDbLine
 10
192135.216701
 20
-6755.668588
 30
0.0
 11
192135.161146
 21
-6743.852107
 31
0.0
  0
LINE
  5
A40C
330
A78D
100
AcDbEntity
  8
A733_ストリートファニチャ
 62
     7
370
     9
100
AcDbLine
 10
192173.024596
 20
-6757.79679
 30
0.0
 11
192174.056053
 21
-6757.790878
 31
0.0
  0
LINE
  5
A40D
330
A78D
100
AcDbEntity
  8
A733_ストリートファニチャ
 62
     7
370
     9
100
AcDbLine
 10
192173.779909
 20
-6787.371536
 30
0.0
 11
192160.268485
 21
-6788.544272
 31
0.0
  0
LINE
  5
A40E
330
A78D
100
AcDbEntity
  8
A733_ストリートファニチャ
 62
     7
370
     9
100
AcDbLine
 10
192160.268485
 20
-6788.544272
 30
0.0
 11
192155.555405
 21
-6788.756466
 31
0.0
  0
LINE
  5
A40F
330
A78D
100
AcDbEntity
  8
A733_ストリートファニチャ
 62
     7
370
     9
100
AcDbLine
 10
192155.555405
 20
-6788.756466
 30
0.0
 11
192147.270239
 21
-6789.35205
 31
0.0
  0
LINE
  5
A410
330
A78D
100
AcDbEntity
  8
A733_ストリートファニチャ
 62
     7
370
     9
100
AcDbLine
 10
192072.888741
 20
-6791.759056
 30
0.0
 11
192069.451862
 21
-6791.764715
 31
0.0
  0
LINE
  5
A411
330
A78D
100
AcDbEntity
  8
A733_ストリートファニチャ
 62
     7
370
     9
100
AcDbLine
 10
192069.451862
 20
-6791.764715
 30
0.0
 11
192068.459017
 21
-6791.756328
 31
0.0
  0
LINE
  5
A412
330
A78D
100
AcDbEntity
  8
A733_ストリートファニチャ
 62
     7
370
     9
100
AcDbLine
 10
192068.459017
 20
-6791.756328
 30
0.0
 11
192060.989442
 21
-6791.695914
 31
0.0
  0
LINE
  5
A413
330
A78D
100
AcDbEntity
  8
A733_ストリートファニチャ
 62
     7
370
     9
100
AcDbLine
 10
192077.306369
 20
-6791.769681
 30
0.0
 11
192072.888741
 21
-6791.759056
 31
0.0
  0
LINE
  5
A414
330
A78D
100
AcDbEntity
  8
A733_ストリートファニチャ
 62
     7
370
     9
100
AcDbLine
 10
192168.369658
 20
-6397.775641
 30
0.0
 11
192172.887111
 21
-6398.17622
 31
0.0
  0
LINE
  5
A415
330
A78D
100
AcDbEntity
  8
A733_ストリートファニチャ
 62
     7
370
     9
100
AcDbLine
 10
192151.749724
 20
-6396.323753
 30
0.0
 11
192168.03649
 21
-6397.613877
 31
0.0
  0
LINE
  5
A416
330
A78D
100
AcDbEntity
  8
A733_ストリートファニチャ
 62
     7
370
     9
100
AcDbLine
 10
192148.217036
 20
-6396.18926
 30
0.0
 11
192151.508005
 21
-6396.308285
 31
0.0
  0
LINE
  5
A417
330
A78D
100
AcDbEntity
  8
A733_ストリートファニチャ
 62
     7
370
     9
100
AcDbLine
 10
192072.887031
 20
-6393.734979
 30
0.0
 11
192087.15422
 21
-6393.810446
 31
0.0
  0
LINE
  5
A418
330
A78D
100
AcDbEntity
  8
A733_ストリートファニチャ
 62
     7
370
     9
100
AcDbLine
 10
192139.276815
 20
-6592.752041
 30
0.0
 11
192139.273314
 21
-6568.749978
 31
0.0
  0
LINE
  5
A419
330
A78D
100
AcDbEntity
  8
A733_ストリートファニチャ
 62
     7
370
     9
100
AcDbLine
 10
192069.455562
 20
-6393.729495
 30
0.0
 11
192072.887031
 21
-6393.734979
 31
0.0
  0
LINE
  5
A41A
330
A78D
100
AcDbEntity
  8
A733_ストリートファニチャ
 62
     7
370
     9
100
AcDbLine
 10
192068.456225
 20
-6393.734479
 30
0.0
 11
192069.455562
 21
-6393.729495
 31
0.0
  0
LINE
  5
A41B
330
A78D
100
AcDbEntity
  8
A733_ストリートファニチャ
 62
     7
370
     9
100
AcDbLine
 10
192060.752146
 20
-6393.80255
 30
0.0
 11
192068.456225
 21
-6393.734479
 31
0.0
  0
LINE
  5
A41C
330
A78D
100
AcDbEntity
  8
A733_ストリートファニチャ
 62
     7
370
     9
100
AcDbLine
 10
192042.900291
 20
-6394.743275
 30
0.0
 11
192058.457296
 21
-6393.878013
 31
0.0
  0
LINE
  5
A41D
330
A78D
100
AcDbEntity
  8
A733_ストリートファニチャ
 62
     7
370
     9
100
AcDbLine
 10
192139.274712
 20
-6616.74863
 30
0.0
 11
192139.276815
 21
-6592.752041
 31
0.0
  0
LINE
  5
A41E
330
A78D
100
AcDbEntity
  8
A733_ストリートファニチャ
 62
     7
370
     9
100
AcDbLine
 10
192169.08716
 20
-6757.823787
 30
0.0
 11
192165.440876
 21
-6757.829667
 31
0.0
  0
LINE
  5
A41F
330
A78D
100
AcDbEntity
  8
A733_ストリートファニチャ
 62
     7
370
     9
100
AcDbLine
 10
192058.462404
 20
-6791.622841
 30
0.0
 11
192043.420705
 21
-6790.783022
 31
0.0
  0
LINE
  5
A420
330
A78D
100
AcDbEntity
  8
A733_ストリートファニチャ
 62
     7
370
     9
100
AcDbLine
 10
192118.23482
 20
-6403.106898
 30
0.0
 11
192142.816398
 21
-6401.393691
 31
0.0
  0
LINE
  5
A421
330
A78D
100
AcDbEntity
  8
A733_ストリートファニチャ
 62
     7
370
     9
100
AcDbLine
 10
192142.825965
 20
-6784.101558
 30
0.0
 11
192118.23784
 21
-6782.396733
 31
0.0
  0
LINE
  5
A422
330
A78D
100
AcDbEntity
  8
A733_ストリートファニチャ
 62
     7
370
     9
100
AcDbLine
 10
192174.056053
 20
-6757.790878
 30
0.0
 11
192174.879317
 21
-6757.794036
 31
0.0
  0
LINE
  5
A423
330
A78D
100
AcDbEntity
  8
A733_ストリートファニチャ
 62
     7
370
     9
100
AcDbLine
 10
192156.101785
 20
-6757.833671
 30
0.0
 11
192151.81222
 21
-6757.78333
 31
0.0
  0
LINE
  5
A424
330
A78D
100
AcDbEntity
  8
A733_ストリートファニチャ
 62
     7
370
     9
100
AcDbLine
 10
192154.727579
 20
-6427.701899
 30
0.0
 11
192165.447692
 21
-6427.644148
 31
0.0
  0
LINE
  5
A425
330
A78D
100
AcDbEntity
  8
A733_ストリートファニチャ
 62
     7
370
     9
100
AcDbLine
 10
192165.447692
 20
-6427.644148
 30
0.0
 11
192174.975629
 21
-6427.682265
 31
0.0
  0
LINE
  5
A426
330
A78D
100
AcDbEntity
  8
A733_ストリートファニチャ
 62
     7
370
     9
100
AcDbLine
 10
192172.642645
 20
-6457.891821
 30
0.0
 11
192173.455976
 21
-6457.898419
 31
0.0
  0
LINE
  5
A427
330
A78D
100
AcDbEntity
  8
A733_ストリートファニチャ
 62
     7
370
     9
100
AcDbLine
 10
192172.582198
 20
-6457.934074
 30
0.0
 11
192172.376597
 21
-6458.261104
 31
0.0
  0
LINE
  5
A428
330
A78D
100
AcDbEntity
  8
A733_ストリートファニチャ
 62
     7
370
     9
100
AcDbLine
 10
192144.806378
 20
-6456.79652
 30
0.0
 11
192144.477211
 21
-6427.756398
 31
0.0
  0
LINE
  5
A429
330
A78D
100
AcDbEntity
  8
A733_ストリートファニチャ
 62
     7
370
     9
100
AcDbLine
 10
192241.552702
 20
-6401.302505
 30
0.0
 11
192243.557837
 21
-6399.753481
 31
0.0
  0
LINE
  5
A42A
330
A78D
100
AcDbEntity
  8
A733_ストリートファニチャ
 62
     7
370
     9
100
AcDbLine
 10
192144.476859
 20
-6757.735758
 30
0.0
 11
192144.832059
 21
-6727.141488
 31
0.0
  0
LINE
  5
A42B
330
A78D
100
AcDbEntity
  8
A733_ストリートファニチャ
 62
     7
370
     9
100
AcDbLine
 10
192145.51359
 20
-6456.253135
 30
0.0
 11
192145.559576
 21
-6429.744252
 31
0.0
  0
LINE
  5
A42C
330
A78D
100
AcDbEntity
  8
A733_ストリートファニチャ
 62
     7
370
     9
100
AcDbLine
 10
192289.532392
 20
-6417.091107
 30
0.0
 11
192243.972648
 21
-6415.115185
 31
0.0
  0
LINE
  5
A42D
330
A78D
100
AcDbEntity
  8
A733_ストリートファニチャ
 62
     7
370
     9
100
AcDbLine
 10
192174.879317
 20
-6757.794036
 30
0.0
 11
192176.094938
 21
-6757.808694
 31
0.0
  0
LINE
  5
A42E
330
A78D
100
AcDbEntity
  8
A733_ストリートファニチャ
 62
     7
370
     9
100
AcDbLine
 10
192146.512341
 20
-6457.244783
 30
0.0
 11
192179.425932
 21
-6457.24724
 31
0.0
  0
LINE
  5
A42F
330
A78D
100
AcDbEntity
  8
A733_ストリートファニチャ
 62
     7
370
     9
100
AcDbLine
 10
192169.664978
 20
-6428.243225
 30
0.0
 11
192169.658046
 21
-6427.647768
 31
0.0
  0
LINE
  5
A430
330
A78D
100
AcDbEntity
  8
A733_ストリートファニチャ
 62
     7
370
     9
100
AcDbLine
 10
192145.955999
 20
-6427.725335
 30
0.0
 11
192152.812784
 21
-6427.683746
 31
0.0
  0
LINE
  5
A431
330
A78D
100
AcDbEntity
  8
A733_ストリートファニチャ
 62
     7
370
     9
100
AcDbLine
 10
192178.18689
 20
-6765.241028
 30
0.0
 11
192179.534175
 21
-6765.239749
 31
0.0
  0
LINE
  5
A432
330
A78D
100
AcDbEntity
  8
A733_ストリートファニチャ
 62
     7
370
     9
100
AcDbLine
 10
192180.026168
 20
-6784.852416
 30
0.0
 11
192180.035351
 21
-6765.747463
 31
0.0
  0
LINE
  5
A433
330
A78D
100
AcDbEntity
  8
A733_ストリートファニチャ
 62
     7
370
     9
100
AcDbLine
 10
192150.436061
 20
-6757.778851
 30
0.0
 11
192146.840454
 21
-6757.759766
 31
0.0
  0
LINE
  5
A434
330
A78D
100
AcDbEntity
  8
A733_ストリートファニチャ
 62
     7
370
     9
100
AcDbLine
 10
192174.062739
 20
-6757.794124
 30
0.0
 11
192174.061927
 21
-6757.248454
 31
0.0
  0
LINE
  5
A435
330
A78D
100
AcDbEntity
  8
A733_ストリートファニチャ
 62
     7
370
     9
100
AcDbLine
 10
192178.034075
 20
-6458.749793
 30
0.0
 11
192146.809257
 21
-6458.765903
 31
0.0
  0
LINE
  5
A436
330
A78D
100
AcDbEntity
  8
A733_ストリートファニチャ
 62
     7
370
     9
100
AcDbLine
 10
192239.20009
 20
-6399.747145
 30
0.0
 11
192244.028663
 21
-6399.748001
 31
0.0
  0
LINE
  5
A437
330
A78D
100
AcDbEntity
  8
A733_ストリートファニチャ
 62
     7
370
     9
100
AcDbLine
 10
192146.83013
 20
-6725.175946
 30
0.0
 11
192178.040721
 21
-6725.174959
 31
0.0
  0
LINE
  5
A438
330
A78D
100
AcDbEntity
  8
A733_ストリートファニチャ
 62
     7
370
     9
100
AcDbLine
 10
192146.163894
 20
-6756.748302
 30
0.0
 11
192179.344446
 21
-6756.745436
 31
0.0
  0
LINE
  5
A439
330
A78D
100
AcDbEntity
  8
A733_ストリートファニチャ
 62
     7
370
     9
100
AcDbLine
 10
192177.536789
 20
-6401.750167
 30
0.0
 11
192176.816508
 21
-6401.741932
 31
0.0
  0
LINE
  5
A43A
330
A78D
100
AcDbEntity
  8
A733_ストリートファニチャ
 62
     7
370
     9
100
AcDbLine
 10
192176.818739
 20
-6400.886548
 30
0.0
 11
192176.81868
 21
-6426.676928
 31
0.0
  0
LINE
  5
A43B
330
A78D
100
AcDbEntity
  8
A733_ストリートファニチャ
 62
     7
370
     9
100
AcDbLine
 10
192157.660107
 20
-6427.677182
 30
0.0
 11
192157.662323
 21
-6428.248318
 31
0.0
  0
LINE
  5
A43C
330
A78D
100
AcDbEntity
  8
A733_ストリートファニチャ
 62
     7
370
     9
100
AcDbLine
 10
192176.286
 20
-6725.677908
 30
0.0
 11
192176.285234
 21
-6726.754317
 31
0.0
  0
LINE
  5
A43D
330
A78D
100
AcDbEntity
  8
A733_ストリートファニチャ
 62
     7
370
     9
100
AcDbLine
 10
192180.031751
 20
-6723.175706
 30
0.0
 11
192180.035902
 21
-6592.746828
 31
0.0
  0
LINE
  5
A43E
330
A78D
100
AcDbEntity
  8
A733_ストリートファニチャ
 62
     7
370
     9
100
AcDbLine
 10
192177.68699
 20
-6764.747703
 30
0.0
 11
192177.683194
 21
-6758.805667
 31
0.0
  0
LINE
  5
A43F
330
A78D
100
AcDbEntity
  8
A733_ストリートファニチャ
 62
     7
370
     9
100
AcDbLine
 10
192235.78344
 20
-6795.75073
 30
0.0
 11
192235.780959
 21
-6787.256453
 31
0.0
  0
LINE
  5
A440
330
A78D
100
AcDbEntity
  8
A733_ストリートファニチャ
 62
     7
370
     9
100
AcDbLine
 10
192232.292926
 20
-6789.244878
 30
0.0
 11
192235.786439
 21
-6789.250194
 31
0.0
  0
LINE
  5
A441
330
A78D
100
AcDbEntity
  8
A733_ストリートファニチャ
 62
     7
370
     9
100
AcDbLine
 10
192231.531443
 20
-6788.742964
 30
0.0
 11
192231.531855
 21
-6787.63609
 31
0.0
  0
LINE
  5
A442
330
A78D
100
AcDbEntity
  8
A733_ストリートファニチャ
 62
     7
370
     9
100
AcDbLine
 10
192203.583869
 20
-6794.742782
 30
0.0
 11
192235.780619
 21
-6794.746935
 31
0.0
  0
LINE
  5
A443
330
A78D
100
AcDbEntity
  8
A733_ストリートファニチャ
 62
     7
370
     9
100
AcDbLine
 10
192205.286352
 20
-6797.747742
 30
0.0
 11
192233.785756
 21
-6797.749506
 31
0.0
  0
LINE
  5
A444
330
A78D
100
AcDbEntity
  8
A733_ストリートファニチャ
 62
     7
370
     9
100
AcDbLine
 10
192203.7429
 20
-6795.745312
 30
0.0
 11
192203.74375
 21
-6795.247266
 31
0.0
  0
LINE
  5
A445
330
A78D
100
AcDbEntity
  8
A733_ストリートファニチャ
 62
     7
370
     9
100
AcDbLine
 10
192203.281252
 20
-6789.495601
 30
0.0
 11
192203.283503
 21
-6794.448232
 31
0.0
  0
LINE
  5
A446
330
A78D
100
AcDbEntity
  8
A733_ストリートファニチャ
 62
     7
370
     9
100
AcDbLine
 10
192161.98872
 20
-6617.74179
 30
0.0
 11
192161.983674
 21
-6592.750321
 31
0.0
  0
LINE
  5
A447
330
A78D
100
AcDbEntity
  8
A733_ストリートファニチャ
 62
     7
370
     9
100
AcDbLine
 10
192155.989809
 20
-6561.744661
 30
0.0
 11
192135.113318
 21
-6561.745573
 31
0.0
  0
LINE
  5
A448
330
A78D
100
AcDbEntity
  8
A733_ストリートファニチャ
 62
     7
370
     9
100
AcDbLine
 10
192135.112621
 20
-6623.746863
 30
0.0
 11
192155.988062
 21
-6623.750949
 31
0.0
  0
LINE
  5
A449
330
A78D
100
AcDbEntity
  8
A733_ストリートファニチャ
 62
     7
370
     9
100
AcDbLine
 10
192161.983674
 20
-6592.750321
 30
0.0
 11
192161.98512
 21
-6567.74548
 31
0.0
  0
LINE
  5
A44A
330
A78D
100
AcDbEntity
  8
A733_ストリートファニチャ
 62
     7
370
     9
100
AcDbLine
 10
192176.256014
 20
-6457.247575
 30
0.0
 11
192176.264934
 21
-6457.728333
 31
0.0
  0
LINE
  5
A44B
330
A78D
100
AcDbEntity
  8
A733_ストリートファニチャ
 62
     7
370
     9
100
AcDbLine
 10
192176.668941
 20
-6757.814754
 30
0.0
 11
192176.094938
 21
-6757.808694
 31
0.0
  0
LINE
  5
A44C
330
A78D
100
AcDbEntity
  8
A733_ストリートファニチャ
 62
     7
370
     9
100
AcDbLine
 10
192179.393075
 20
-6726.75138
 30
0.0
 11
192146.485055
 21
-6726.751628
 31
0.0
  0
LINE
  5
A44D
330
A78D
100
AcDbEntity
  8
A733_ストリートファニチャ
 62
     7
370
     9
100
AcDbLine
 10
192178.040101
 20
-6400.537722
 30
0.0
 11
192178.02954
 21
-6401.248612
 31
0.0
  0
LINE
  5
A44E
330
A78D
100
AcDbEntity
  8
A733_ストリートファニチャ
 62
     7
370
     9
100
AcDbLine
 10
192146.5595
 20
-6428.742635
 30
0.0
 11
192179.373355
 21
-6428.743483
 31
0.0
  0
LINE
  5
A44F
330
A78D
100
AcDbEntity
  8
A733_ストリートファニチャ
 62
     7
370
     9
100
AcDbLine
 10
192175.826492
 20
-6427.676792
 30
0.0
 11
192174.975629
 21
-6427.682265
 31
0.0
  0
LINE
  5
A450
330
A78D
100
AcDbEntity
  8
A733_ストリートファニチャ
 62
     7
370
     9
100
AcDbLine
 10
192241.552702
 20
-6401.302505
 30
0.0
 11
192237.526317
 21
-6401.302838
 31
0.0
  0
LINE
  5
A451
330
A78D
100
AcDbEntity
  8
A733_ストリートファニチャ
 62
     7
370
     9
100
AcDbLine
 10
192157.263097
 20
-6757.846745
 30
0.0
 11
192157.259412
 21
-6757.244602
 31
0.0
  0
LINE
  5
A452
330
A78D
100
AcDbEntity
  8
A733_ストリートファニチャ
 62
     7
370
     9
100
AcDbLine
 10
192172.558667
 20
-6457.245186
 30
0.0
 11
192172.549727
 21
-6457.714518
 31
0.0
  0
LINE
  5
A453
330
A78D
100
AcDbEntity
  8
A733_ストリートファニチャ
 62
     7
370
     9
100
AcDbLine
 10
192180.035902
 20
-6592.746828
 30
0.0
 11
192180.030655
 21
-6460.749164
 31
0.0
  0
LINE
  5
A454
330
A78D
100
AcDbEntity
  8
A733_ストリートファニチャ
 62
     7
370
     9
100
AcDbLine
 10
192244.531261
 20
-6400.187557
 30
0.0
 11
192244.526817
 21
-6777.408331
 31
0.0
  0
LINE
  5
A455
330
A78D
100
AcDbEntity
  8
A733_ストリートファニチャ
 62
     7
370
     9
100
AcDbLine
 10
192239.471387
 20
-6415.724892
 30
0.0
 11
192242.847572
 21
-6592.595718
 31
0.0
  0
LINE
  5
A456
330
A78D
100
AcDbEntity
  8
A733_ストリートファニチャ
 62
     7
370
     9
100
AcDbLine
 10
192242.847572
 20
-6592.595718
 30
0.0
 11
192239.471357
 21
-6768.862074
 31
0.0
  0
LINE
  5
A457
330
A78D
100
AcDbEntity
  8
A733_ストリートファニチャ
 62
     7
370
     9
100
AcDbLine
 10
192241.687535
 20
-6410.791866
 30
0.0
 11
192243.641832
 21
-6592.582041
 31
0.0
  0
ARC
  5
A458
330
A78D
100
AcDbEntity
  8
A733_ストリートファニチャ
 62
     7
370
     9
100
AcDbCircle
 10
192179.420948
 20
-6456.247903
 30
0.0
 40
1.0
100
AcDbArc
 50
269.946255
 51
0.025143
  0
ARC
  5
A459
330
A78D
100
AcDbEntity
  8
A733_ストリートファニチャ
 62
     7
370
     9
100
AcDbCircle
 10
192157.156001
 20
-6428.250334
 30
0.0
 40
0.5
100
AcDbArc
 50
269.94624
 51
359.94624
  0
ARC
  5
A45A
330
A78D
100
AcDbEntity
  8
A733_ストリートファニチャ
 62
     7
370
     9
100
AcDbCircle
 10
192137.224003
 20
-6429.816903
 30
0.0
 40
2.0
100
AcDbArc
 50
90.746884
 51
179.705212
  0
ARC
  5
A45B
330
A78D
100
AcDbEntity
  8
A733_ストリートファニチャ
 62
     7
370
     9
100
AcDbCircle
 10
192175.814822
 20
-6426.674209
 30
0.0
 40
1.0
100
AcDbArc
 50
270.44624
 51
359.94624
  0
ARC
  5
A45C
330
A78D
100
AcDbEntity
  8
A733_ストリートファニチャ
 62
     7
370
     9
100
AcDbCircle
 10
192137.218622
 20
-6755.651934
 30
0.0
 40
2.0
100
AcDbArc
 50
180.373151
 51
269.302777
  0
ARC
  5
A45D
330
A78D
100
AcDbEntity
  8
A733_ストリートファニチャ
 62
     7
370
     9
100
AcDbCircle
 10
192178.184494
 20
-6764.749668
 30
0.0
 40
0.5
100
AcDbArc
 50
180.229001
 51
269.94624
  0
ARC
  5
A45E
330
A78D
100
AcDbEntity
  8
A733_ストリートファニチャ
 62
     7
370
     9
100
AcDbCircle
 10
192176.658422
 20
-6758.814826
 30
0.0
 40
1.0
100
AcDbArc
 50
0.230176
 51
89.446896
  0
ARC
  5
A45F
330
A78D
100
AcDbEntity
  8
A733_ストリートファニチャ
 62
     7
370
     9
100
AcDbCircle
 10
192178.029657
 20
-6784.857928
 30
0.0
 40
2.0
100
AcDbArc
 50
278.350568
 51
0.039273
  0
ARC
  5
A460
330
A78D
100
AcDbEntity
  8
A733_ストリートファニチャ
 62
     7
370
     9
100
AcDbCircle
 10
192176.036905
 20
-6400.539988
 30
0.0
 40
2.0
100
AcDbArc
 50
0.039273
 51
82.474149
  0
ARC
  5
A461
330
A78D
100
AcDbEntity
  8
A733_ストリートファニチャ
 62
     7
370
     9
100
AcDbCircle
 10
192062.011626
 20
-6718.076121
 30
0.0
 40
73.626739
100
AcDbArc
 50
267.234875
 51
269.202557
  0
ARC
  5
A462
330
A78D
100
AcDbEntity
  8
A733_ストリートファニチャ
 62
     7
370
     9
100
AcDbCircle
 10
191971.920057
 20
-6792.437972
 30
0.0
 40
299.9999830000001
100
AcDbArc
 50
87.385388
 51
121.814755
  0
ARC
  5
A463
330
A78D
100
AcDbEntity
  8
A733_ストリートファニチャ
 62
     7
370
     9
100
AcDbCircle
 10
192177.937331
 20
-6790.918529
 30
0.0
 40
6.582016
100
AcDbArc
 50
72.133481
 51
89.348752
  0
ARC
  5
A464
330
A78D
100
AcDbEntity
  8
A733_ストリートファニチャ
 62
     7
370
     9
100
AcDbCircle
 10
192171.907109
 20
-6874.915205
 30
0.0
 40
90.78790100000002
100
AcDbArc
 50
86.14137
 51
89.106625
  0
ARC
  5
A465
330
A78D
100
AcDbEntity
  8
A733_ストリートファニチャ
 62
     7
370
     9
100
AcDbCircle
 10
192164.29082
 20
-7425.560927
 30
0.0
 40
641.4859169999999
100
AcDbArc
 50
89.19357
 51
90.194287
  0
ARC
  5
A466
330
A78D
100
AcDbEntity
  8
A733_ストリートファニチャ
 62
     7
370
     9
100
AcDbCircle
 10
192170.163564
 20
-6428.242961
 30
0.0
 40
0.5
100
AcDbArc
 50
179.94624
 51
269.94624
  0
ARC
  5
A467
330
A78D
100
AcDbEntity
  8
A733_ストリートファニチャ
 62
     7
370
     9
100
AcDbCircle
 10
192171.555058
 20
-6457.64466
 30
0.0
 40
1.002510999999999
100
AcDbArc
 50
269.813336
 51
355.531964
  0
ARC
  5
A468
330
A78D
100
AcDbEntity
  8
A733_ストリートファニチャ
 62
     7
370
     9
100
AcDbCircle
 10
192178.029656
 20
-6460.749742
 30
0.0
 40
2.000277
100
AcDbArc
 50
0.049405
 51
90.0117
  0
ARC
  5
A469
330
A78D
100
AcDbEntity
  8
A733_ストリートファニチャ
 62
     7
370
     9
100
AcDbCircle
 10
192146.522859
 20
-6456.244711
 30
0.0
 40
1.0
100
AcDbArc
 50
179.947049
 51
269.94624
  0
ARC
  5
A46A
330
A78D
100
AcDbEntity
  8
A733_ストリートファニチャ
 62
     7
370
     9
100
AcDbCircle
 10
192179.376208
 20
-6429.750047
 30
0.0
 40
1.0
100
AcDbArc
 50
0.056866
 51
89.94624
  0
ARC
  5
A46B
330
A78D
100
AcDbEntity
  8
A733_ストリートファニチャ
 62
     7
370
     9
100
AcDbCircle
 10
192146.555667
 20
-6429.745953
 30
0.0
 40
1.0
100
AcDbArc
 50
89.94624
 51
179.762311
  0
ARC
  5
A46C
330
A78D
100
AcDbEntity
  8
A733_ストリートファニチャ
 62
     7
370
     9
100
AcDbCircle
 10
192177.264078
 20
-6457.706731
 30
0.0
 40
0.998576
100
AcDbArc
 50
180.85806
 51
269.970593
  0
ARC
  5
A46D
330
A78D
100
AcDbEntity
  8
A733_ストリートファニチャ
 62
     7
370
     9
100
AcDbCircle
 10
192144.584611
 20
-6618.883387
 30
0.0
 40
5.308787999999999
100
AcDbArc
 50
178.799588
 51
186.757611
  0
ARC
  5
A46E
330
A78D
100
AcDbEntity
  8
A733_ストリートファニチャ
 62
     7
370
     9
100
AcDbCircle
 10
192091.439971
 20
-5248.54174
 30
0.0
 40
1544.995392
100
AcDbArc
 50
272.347913
 51
274.090604
  0
ARC
  5
A46F
330
A78D
100
AcDbEntity
  8
A733_ストリートファニチャ
 62
     7
370
     9
100
AcDbCircle
 10
192139.602965
 20
-6619.438855
 30
0.0
 40
0.3038859999999999
100
AcDbArc
 50
192.513333
 51
254.725903
  0
ARC
  5
A470
330
A78D
100
AcDbEntity
  8
A733_ストリートファニチャ
 62
     7
370
     9
100
AcDbCircle
 10
192139.596472
 20
-6619.452227
 30
0.0
 40
0.3009409999999999
100
AcDbArc
 50
254.83714
 51
270.073331
  0
ARC
  5
A471
330
A78D
100
AcDbEntity
  8
A733_ストリートファニチャ
 62
     7
370
     9
100
AcDbCircle
 10
192075.66952
 20
-6790.024835
 30
0.0
 40
2.5
100
AcDbArc
 50
224.055615
 51
268.843289
  0
ARC
  5
A472
330
A78D
100
AcDbEntity
  8
A733_ストリートファニチャ
 62
     7
370
     9
100
AcDbCircle
 10
192076.182186
 20
-6395.92698
 30
0.0
 40
3.010695
100
AcDbArc
 50
100.961957
 51
133.35809
  0
ARC
  5
A473
330
A78D
100
AcDbEntity
  8
A733_ストリートファニチャ
 62
     7
370
     9
100
AcDbCircle
 10
192234.524777
 20
-6407.67762
 30
0.0
 40
10.0
100
AcDbArc
 50
52.46832
 51
86.092206
  0
ARC
  5
A474
330
A78D
100
AcDbEntity
  8
A733_ストリートファニチャ
 62
     7
370
     9
100
AcDbCircle
 10
192234.52949
 20
-6777.403932
 30
0.0
 40
10.0
100
AcDbArc
 50
273.877072
 51
359.984631
  0
ARC
  5
A475
330
A78D
100
AcDbEntity
  8
A733_ストリートファニチャ
 62
     7
370
     9
100
AcDbCircle
 10
192176.78675
 20
-6725.673188
 30
0.0
 40
0.5
100
AcDbArc
 50
89.909772
 51
179.946255
  0
ARC
  5
A476
330
A78D
100
AcDbEntity
  8
A733_ストリートファニチャ
 62
     7
370
     9
100
AcDbCircle
 10
192146.827842
 20
-6727.168669
 30
0.0
 40
2.0
100
AcDbArc
 50
90.025342
 51
179.24133
  0
ARC
  5
A477
330
A78D
100
AcDbEntity
  8
A733_ストリートファニチャ
 62
     7
370
     9
100
AcDbCircle
 10
192146.813709
 20
-6456.768723
 30
0.0
 40
2.0
100
AcDbArc
 50
180.823376
 51
270.075757
  0
ARC
  5
A478
330
A78D
100
AcDbEntity
  8
A733_ストリートファニチャ
 62
     7
370
     9
100
AcDbCircle
 10
192104.760251
 20
-7936.75037
 30
0.0
 40
1544.304368
100
AcDbArc
 50
86.402798
 51
88.145489
  0
ARC
  5
A479
330
A78D
100
AcDbEntity
  8
A733_ストリートファニチャ
 62
     7
370
     9
100
AcDbCircle
 10
192110.004993
 20
-7601.421868
 30
0.0
 40
1208.936874
100
AcDbArc
 50
88.80296
 51
91.63017
  0
ARC
  5
A47A
330
A78D
100
AcDbEntity
  8
A733_ストリートファニチャ
 62
     7
370
     9
100
AcDbCircle
 10
192081.111081
 20
-7769.98843
 30
0.0
 40
1376.378229
100
AcDbArc
 50
86.709027
 51
88.993359
  0
ARC
  5
A47B
330
A78D
100
AcDbEntity
  8
A733_ストリートファニチャ
 62
     7
370
     9
100
AcDbCircle
 10
192091.555424
 20
-6201.562333
 30
0.0
 40
191.457733
100
AcDbArc
 50
267.246884
 51
269.660565
  0
ARC
  5
A47C
330
A78D
100
AcDbEntity
  8
A733_ストリートファニチャ
 62
     7
370
     9
100
AcDbCircle
 10
192110.00299
 20
-5584.069824
 30
0.0
 40
1208.936874
100
AcDbArc
 50
268.369778
 51
271.196988
  0
ARC
  5
A47D
330
A78D
100
AcDbEntity
  8
A733_ストリートファニチャ
 62
     7
370
     9
100
AcDbCircle
 10
192068.378262
 20
-5415.759594
 30
0.0
 40
1376.914574
100
AcDbArc
 50
271.536221
 51
273.820554
  0
ARC
  5
A47E
330
A78D
100
AcDbEntity
  8
A733_ストリートファニチャ
 62
     7
370
     9
100
AcDbCircle
 10
192091.551374
 20
-6983.928167
 30
0.0
 40
191.457733
100
AcDbArc
 50
90.340115
 51
92.753796
  0
ARC
  5
A47F
330
A78D
100
AcDbEntity
  8
A733_ストリートファニチャ
 62
     7
370
     9
100
AcDbCircle
 10
192206.259579
 20
-6422.751588
 30
0.0
 40
11.562125
100
AcDbArc
 50
327.536038
 51
34.018979
  0
ARC
  5
A480
330
A78D
100
AcDbEntity
  8
A733_ストリートファニチャ
 62
     7
370
     9
100
AcDbCircle
 10
192206.657518
 20
-6423.052204
 30
0.0
 40
11.060776
100
AcDbArc
 50
294.952069
 51
327.730084
  0
ARC
  5
A481
330
A78D
100
AcDbEntity
  8
A733_ストリートファニチャ
 62
     7
370
     9
100
AcDbCircle
 10
192207.247009
 20
-6424.48405
 30
0.0
 40
9.520467999999999
100
AcDbArc
 50
246.061764
 51
295.398419
  0
ARC
  5
A482
330
A78D
100
AcDbEntity
  8
A733_ストリートファニチャ
 62
     7
370
     9
100
AcDbCircle
 10
192208.119791
 20
-6423.506073
 30
0.0
 40
10.768842
100
AcDbArc
 50
199.347943
 51
243.938245
  0
ARC
  5
A483
330
A78D
100
AcDbEntity
  8
A733_ストリートファニチャ
 62
     7
370
     9
100
AcDbCircle
 10
192209.899371
 20
-6422.75908
 30
0.0
 40
12.697377
100
AcDbArc
 50
149.74252
 51
199.854993
  0
ARC
  5
A484
330
A78D
100
AcDbEntity
  8
A733_ストリートファニチャ
 62
     7
370
     9
100
AcDbCircle
 10
192207.298372
 20
-6421.091381
 30
0.0
 40
9.611668000000001
100
AcDbArc
 50
102.469418
 51
150.484769
  0
ARC
  5
A485
330
A78D
100
AcDbEntity
  8
A733_ストリートファニチャ
 62
     7
370
     9
100
AcDbCircle
 10
192207.199581
 20
-6421.456501
 30
0.0
 40
9.942233000000001
100
AcDbArc
 50
54.823834
 51
101.479108
  0
ARC
  5
A486
330
A78D
100
AcDbEntity
  8
A733_ストリートファニチャ
 62
     7
370
     9
100
AcDbCircle
 10
192206.526705
 20
-6422.570095
 30
0.0
 40
11.239076
100
AcDbArc
 50
33.988675
 51
55.26965
  0
ARC
  5
A487
330
A78D
100
AcDbEntity
  8
A733_ストリートファニチャ
 62
     7
370
     9
100
AcDbCircle
 10
192223.478772
 20
-6416.860585
 30
0.0
 40
16.034773
100
AcDbArc
 50
4.042325
 51
69.921277
  0
ARC
  5
A488
330
A78D
100
AcDbEntity
  8
A733_ストリートファニチャ
 62
     7
370
     9
100
AcDbCircle
 10
192221.797177
 20
-6422.40841
 30
0.0
 40
21.830906
100
AcDbArc
 50
70.776135
 51
79.907178
  0
ARC
  5
A489
330
A78D
100
AcDbEntity
  8
A733_ストリートファニチャ
 62
     7
370
     9
100
AcDbCircle
 10
192222.777362
 20
-6768.186633
 30
0.0
 40
16.712961
100
AcDbArc
 50
291.817075
 51
357.696057
  0
ARC
  5
A48A
330
A78D
100
AcDbEntity
  8
A733_ストリートファニチャ
 62
     7
370
     9
100
AcDbCircle
 10
191848.032813
 20
-6592.745658
 30
0.0
 40
64.999999
100
AcDbArc
 50
121.816952
 51
180.00137
  0
ARC
  5
A48B
330
A78D
100
AcDbEntity
  8
A733_ストリートファニチャ
 62
     7
370
     9
100
AcDbCircle
 10
192153.408205
 20
-6466.937979
 30
0.0
 40
39.25555700000001
100
AcDbArc
 50
88.073498
 51
90.862973
  0
ARC
  5
A48C
330
A78D
100
AcDbEntity
  8
A733_ストリートファニチャ
 62
     7
370
     9
100
AcDbCircle
 10
192161.128489
 20
-6837.678579
 30
0.0
 40
79.85631600000001
100
AcDbArc
 50
89.592343
 51
91.319989
  0
ARC
  5
A48D
330
A78D
100
AcDbEntity
  8
A733_ストリートファニチャ
 62
     7
370
     9
100
AcDbCircle
 10
192179.533518
 20
-6765.754412
 30
0.0
 40
0.5
100
AcDbArc
 50
359.94624
 51
89.94624
  0
ARC
  5
A48E
330
A78D
100
AcDbEntity
  8
A733_ストリートファニチャ
 62
     7
370
     9
100
AcDbCircle
 10
192166.040182
 20
-6702.802772
 30
0.0
 40
84.92084400000001
100
AcDbArc
 50
275.222714
 51
278.3103
  0
ARC
  5
A48F
330
A78D
100
AcDbEntity
  8
A733_ストリートファニチャ
 62
     7
370
     9
100
AcDbCircle
 10
192072.619804
 20
-5711.424836
 30
0.0
 40
1080.511828999999
100
AcDbArc
 50
272.601208
 51
273.961362
  0
ARC
  5
A490
330
A78D
100
AcDbEntity
  8
A733_ストリートファニチャ
 62
     7
370
     9
100
AcDbCircle
 10
192077.313197
 20
-5747.786082
 30
0.0
 40
1043.97929
100
AcDbArc
 50
270.00015
 51
272.434964
  0
ARC
  5
A491
330
A78D
100
AcDbEntity
  8
A733_ストリートファニチャ
 62
     7
370
     9
100
AcDbCircle
 10
192221.787308
 20
-6763.087613
 30
0.0
 40
21.830906
100
AcDbArc
 50
280.111447
 51
289.24249
  0
ARC
  5
A492
330
A78D
100
AcDbEntity
  8
A733_ストリートファニチャ
 62
     7
370
     9
100
AcDbCircle
 10
192232.280335
 20
-6788.258371
 30
0.0
 40
0.9900309999999999
100
AcDbArc
 50
239.921368
 51
270.312451
  0
ARC
  5
A493
330
A78D
100
AcDbEntity
  8
A733_ストリートファニチャ
 62
     7
370
     9
100
AcDbCircle
 10
192100.480188
 20
-5895.540473
 30
0.0
 40
897.064123
100
AcDbArc
 50
262.728894
 51
266.353253
  0
ARC
  5
A494
330
A78D
100
AcDbEntity
  8
A733_ストリートファニチャ
 62
     7
370
     9
100
AcDbCircle
 10
192073.030199
 20
-6085.638718
 30
0.0
 40
705.0231310000001
100
AcDbArc
 50
252.790967
 51
262.986508
  0
ARC
  5
A495
330
A78D
100
AcDbEntity
  8
A733_ストリートファニチャ
 62
     7
370
     9
100
AcDbCircle
 10
191955.25368
 20
-6497.250303
 30
0.0
 40
277.150047
100
AcDbArc
 50
237.75639
 51
250.872281
  0
ARC
  5
A496
330
A78D
100
AcDbEntity
  8
A733_ストリートファニチャ
 62
     7
370
     9
100
AcDbCircle
 10
191912.452616
 20
-6555.701802
 30
0.0
 40
204.939574
100
AcDbArc
 50
210.997693
 51
239.161023
  0
ARC
  5
A497
330
A78D
100
AcDbEntity
  8
A733_ストリートファニチャ
 62
     7
370
     9
100
AcDbCircle
 10
192174.833081
 20
-6400.872544
 30
0.0
 40
1.986652
100
AcDbArc
 50
359.48634
 51
86.911298
  0
ARC
  5
A498
330
A78D
100
AcDbEntity
  8
A733_ストリートファニチャ
 62
     7
370
     9
100
AcDbCircle
 10
192177.530954
 20
-6401.248876
 30
0.0
 40
0.5
100
AcDbArc
 50
269.94624
 51
359.94624
  0
ARC
  5
A499
330
A78D
100
AcDbEntity
  8
A733_ストリートファニチャ
 62
     7
370
     9
100
AcDbCircle
 10
192165.681575
 20
-6478.482056
 30
0.0
 40
80.62922299999998
100
AcDbArc
 50
82.433896
 51
84.871854
  0
ARC
  5
A49A
330
A78D
100
AcDbEntity
  8
A733_ストリートファニチャ
 62
     7
370
     9
100
AcDbCircle
 10
192168.008041
 20
-6398.120553
 30
0.0
 40
0.504002
100
AcDbArc
 50
44.188504
 51
87.124264
  0
ARC
  5
A49B
330
A78D
100
AcDbEntity
  8
A733_ストリートファニチャ
 62
     7
370
     9
100
AcDbCircle
 10
192151.223525
 20
-6403.660808
 30
0.0
 40
7.352911
100
AcDbArc
 50
85.949368
 51
87.804608
  0
ARC
  5
A49C
330
A78D
100
AcDbEntity
  8
A733_ストリートファニチャ
 62
     7
370
     9
100
AcDbCircle
 10
192149.133786
 20
-6368.62431
 30
0.0
 40
27.583783
100
AcDbArc
 50
266.119855
 51
268.100476
  0
ARC
  5
A49D
330
A78D
100
AcDbEntity
  8
A733_ストリートファニチャ
 62
     7
370
     9
100
AcDbCircle
 10
192072.69366
 20
-7472.902895
 30
0.0
 40
1079.345697
100
AcDbArc
 50
86.038068
 51
87.399686
  0
ARC
  5
A49E
330
A78D
100
AcDbEntity
  8
A733_ストリートファニチャ
 62
     7
370
     9
100
AcDbCircle
 10
192080.15532
 20
-7364.675552
 30
0.0
 40
970.8951660000002
100
AcDbArc
 50
87.550092
 51
89.587018
  0
ARC
  5
A49F
330
A78D
100
AcDbEntity
  8
A733_ストリートファニチャ
 62
     7
370
     9
100
AcDbCircle
 10
192231.951207
 20
-6788.729214
 30
0.0
 40
0.41672
100
AcDbArc
 50
182.181103
 51
247.691174
  0
ARC
  5
A4A0
330
A78D
100
AcDbEntity
  8
A733_ストリートファニチャ
 62
     7
370
     9
100
AcDbCircle
 10
192233.784604
 20
-6795.746851
 30
0.0
 40
2.0
100
AcDbArc
 50
270.039273
 51
0.073773
  0
ARC
  5
A4A1
330
A78D
100
AcDbEntity
  8
A733_ストリートファニチャ
 62
     7
370
     9
100
AcDbCircle
 10
192203.577141
 20
-6794.450354
 30
0.0
 40
0.2999999999999999
100
AcDbArc
 50
180.076245
 51
270.076245
  0
ARC
  5
A4A2
330
A78D
100
AcDbEntity
  8
A733_ストリートファニチャ
 62
     7
370
     9
100
AcDbCircle
 10
192205.284119
 20
-6795.747315
 30
0.0
 40
2.0
100
AcDbArc
 50
208.111783
 51
270.039288
  0
ARC
  5
A4A3
330
A78D
100
AcDbEntity
  8
A733_ストリートファニチャ
 62
     7
370
     9
100
AcDbCircle
 10
192203.779977
 20
-6796.550933
 30
0.0
 40
0.2999999999999999
100
AcDbArc
 50
92.225934
 51
208.148801
  0
ARC
  5
A4A4
330
A78D
100
AcDbEntity
  8
A733_ストリートファニチャ
 62
     7
370
     9
100
AcDbCircle
 10
192204.089538
 20
-6795.065411
 30
0.0
 40
0.3198190000000001
100
AcDbArc
 50
90.365903
 51
142.04736
  0
ARC
  5
A4A5
330
A78D
100
AcDbEntity
  8
A733_ストリートファニチャ
 62
     7
370
     9
100
AcDbCircle
 10
192204.381575
 20
-6795.215466
 30
0.0
 40
0.6399460000000002
100
AcDbArc
 50
147.493588
 51
183.011334
  0
ARC
  5
A4A6
330
A78D
100
AcDbEntity
  8
A733_ストリートファニチャ
 62
     7
370
     9
100
AcDbCircle
 10
192208.78918
 20
-6795.697652
 30
0.0
 40
5.046058999999999
100
AcDbArc
 50
180.480908
 51
188.823575
  0
ARC
  5
A4A7
330
A78D
100
AcDbEntity
  8
A733_ストリートファニチャ
 62
     7
370
     9
100
AcDbCircle
 10
192155.987661
 20
-6567.747151
 30
0.0
 40
6.0
100
AcDbArc
 50
0.039273
 51
90.039273
  0
ARC
  5
A4A8
330
A78D
100
AcDbEntity
  8
A733_ストリートファニチャ
 62
     7
370
     9
100
AcDbCircle
 10
192155.983525
 20
-6617.745213
 30
0.0
 40
6.0
100
AcDbArc
 50
270.039273
 51
0.039273
  0
ARC
  5
A4A9
330
A78D
100
AcDbEntity
  8
A733_ストリートファニチャ
 62
     7
370
     9
100
AcDbCircle
 10
192176.294689
 20
-6567.654258
 30
0.0
 40
37.038844
100
AcDbArc
 50
178.556042
 51
181.690366
  0
ARC
  5
A4AA
330
A78D
100
AcDbEntity
  8
A733_ストリートファニチャ
 62
     7
370
     9
100
AcDbCircle
 10
192144.577814
 20
-6566.613546
 30
0.0
 40
5.308787999999999
100
AcDbArc
 50
173.224149
 51
181.182172
  0
ARC
  5
A4AB
330
A78D
100
AcDbEntity
  8
A733_ストリートファニチャ
 62
     7
370
     9
100
AcDbCircle
 10
192062.011292
 20
-6467.422933
 30
0.0
 40
73.626739
100
AcDbArc
 50
90.981412
 51
92.76785
  0
ARC
  5
A4AC
330
A78D
100
AcDbEntity
  8
A733_ストリートファニチャ
 62
     7
370
     9
100
AcDbCircle
 10
192073.031444
 20
-7099.856422
 30
0.0
 40
705.0231310000001
100
AcDbArc
 50
97.013715
 51
107.209256
  0
ARC
  5
A4AD
330
A78D
100
AcDbEntity
  8
A733_ストリートファニチャ
 62
     7
370
     9
100
AcDbCircle
 10
191955.255339
 20
-6688.24058
 30
0.0
 40
277.150047
100
AcDbArc
 50
109.127393
 51
121.137112
  0
ARC
  5
A4AE
330
A78D
100
AcDbEntity
  8
A733_ストリートファニチャ
 62
     7
370
     9
100
AcDbCircle
 10
191955.255339
 20
-6688.24058
 30
0.0
 40
277.150047
100
AcDbArc
 50
121.137097
 51
122.243283
  0
ARC
  5
A4AF
330
A78D
100
AcDbEntity
  8
A733_ストリートファニチャ
 62
     7
370
     9
100
AcDbCircle
 10
191912.453045
 20
-6629.793323
 30
0.0
 40
204.939574
100
AcDbArc
 50
120.841519
 51
126.943845
  0
ARC
  5
A4B0
330
A78D
100
AcDbEntity
  8
A733_ストリートファニチャ
 62
     7
370
     9
100
AcDbCircle
 10
192139.60199
 20
-6566.050998
 30
0.0
 40
0.3038859999999999
100
AcDbArc
 50
105.426602
 51
167.639172
  0
ARC
  5
A4B1
330
A78D
100
AcDbEntity
  8
A733_ストリートファニチャ
 62
     7
370
     9
100
AcDbCircle
 10
192139.598582
 20
-6566.043836
 30
0.0
 40
0.3009409999999999
100
AcDbArc
 50
90.079175
 51
105.315366
  0
ARC
  5
A4B2
330
A78D
100
AcDbEntity
  8
A733_ストリートファニチャ
 62
     7
370
     9
100
AcDbCircle
 10
191912.453045
 20
-6629.793323
 30
0.0
 40
204.939574
100
AcDbArc
 50
126.943845
 51
149.004849
  0
ARC
  5
A4B3
330
A78D
100
AcDbEntity
  8
A733_ストリートファニチャ
 62
     7
370
     9
100
AcDbCircle
 10
191849.620542
 20
-6592.745458
 30
0.0
 40
132.000007
100
AcDbArc
 50
179.999219
 51
211.257504
  0
ARC
  5
A4B4
330
A78D
100
AcDbEntity
  8
A733_ストリートファニチャ
 62
     7
370
     9
100
AcDbCircle
 10
191849.620542
 20
-6592.745458
 30
0.0
 40
132.000007
100
AcDbArc
 50
148.740948
 51
179.999219
  0
ARC
  5
A4B5
330
A78D
100
AcDbEntity
  8
A733_ストリートファニチャ
 62
     7
370
     9
100
AcDbCircle
 10
192100.484014
 20
-7289.962098
 30
0.0
 40
897.064123
100
AcDbArc
 50
93.680112
 51
97.271115
  0
ARC
  5
A4B6
330
A78D
100
AcDbEntity
  8
A733_ストリートファニチャ
 62
     7
370
     9
100
AcDbCircle
 10
192165.095166
 20
-5934.660004
 30
0.0
 40
466.811376
100
AcDbArc
 50
269.639615
 51
271.355679
  0
ARC
  5
A4B7
330
A78D
100
AcDbEntity
  8
A733_ストリートファニチャ
 62
     7
370
     9
100
AcDbCircle
 10
191859.622276
 20
-6595.032238
 30
0.0
 40
123.054754
100
AcDbArc
 50
145.6573
 51
178.936703
  0
ARC
  5
A4B8
330
A78D
100
AcDbEntity
  8
A733_ストリートファニチャ
 62
     7
370
     9
100
AcDbCircle
 10
192176.292745
 20
-6617.84065
 30
0.0
 40
37.038844
100
AcDbArc
 50
178.315762
 51
181.450085
  0
ARC
  5
A4B9
330
A78D
100
AcDbEntity
  8
A733_ストリートファニチャ
 62
     7
370
     9
100
AcDbCircle
 10
191912.551131
 20
-6632.223082
 30
0.0
 40
187.743865
100
AcDbArc
 50
129.014874
 51
145.396374
  0
ARC
  5
A4BA
330
A78D
100
AcDbEntity
  8
A733_ストリートファニチャ
 62
     7
370
     9
100
AcDbCircle
 10
191954.975708
 20
-6684.968101
 30
0.0
 40
255.4257150000001
100
AcDbArc
 50
112.396283
 51
128.961316
  0
ARC
  5
A4BB
330
A78D
100
AcDbEntity
  8
A733_ストリートファニチャ
 62
     7
370
     9
100
AcDbCircle
 10
191952.66471
 20
-6681.276631
 30
0.0
 40
251.134355
100
AcDbArc
 50
103.881711
 51
112.229108
  0
ARC
  5
A4BC
330
A78D
100
AcDbEntity
  8
A733_ストリートファニチャ
 62
     7
370
     9
100
AcDbCircle
 10
192061.529185
 20
-7098.303415
 30
0.0
 40
682.1241890000001
100
AcDbArc
 50
97.117078
 51
104.354947
  0
ARC
  5
A4BD
330
A78D
100
AcDbEntity
  8
A733_ストリートファニチャ
 62
     7
370
     9
100
AcDbCircle
 10
191834.880785
 20
-5009.584185
 30
0.0
 40
1418.98808
100
AcDbArc
 50
275.748929
 51
279.032529
  0
ARC
  5
A4BE
330
A78D
100
AcDbEntity
  8
A733_ストリートファニチャ
 62
     7
370
     9
100
AcDbCircle
 10
192174.572658
 20
-7074.356314
 30
0.0
 40
673.6036749999999
100
AcDbArc
 50
94.797498
 51
99.995663
  0
ARC
  5
A4BF
330
A78D
100
AcDbEntity
  8
A733_ストリートファニチャ
 62
     7
370
     9
100
AcDbCircle
 10
192149.766522
 20
-7164.242724
 30
0.0
 40
762.8784020000002
100
AcDbArc
 50
89.068814
 51
90.521527
  0
ARC
  5
A4C0
330
A78D
100
AcDbEntity
  8
A733_ストリートファニチャ
 62
     7
370
     9
100
AcDbCircle
 10
191859.625686
 20
-6590.470657
 30
0.0
 40
123.054754
100
AcDbArc
 50
181.063946
 51
214.34335
  0
ARC
  5
A4C1
330
A78D
100
AcDbEntity
  8
A733_ストリートファニチャ
 62
     7
370
     9
100
AcDbCircle
 10
191912.558364
 20
-6553.269115
 30
0.0
 40
187.743865
100
AcDbArc
 50
214.60278
 51
230.98428
  0
ARC
  5
A4C2
330
A78D
100
AcDbEntity
  8
A733_ストリートファニチャ
 62
     7
370
     9
100
AcDbCircle
 10
191954.979365
 20
-6500.52646
 30
0.0
 40
255.4257150000001
100
AcDbArc
 50
231.040158
 51
247.605191
  0
ARC
  5
A4C3
330
A78D
100
AcDbEntity
  8
A733_ストリートファニチャ
 62
     7
370
     9
100
AcDbCircle
 10
191952.665656
 20
-6504.216918
 30
0.0
 40
251.134355
100
AcDbArc
 50
247.771024
 51
256.11842
  0
ARC
  5
A4C4
330
A78D
100
AcDbEntity
  8
A733_ストリートファニチャ
 62
     7
370
     9
100
AcDbCircle
 10
192061.526355
 20
-6087.185848
 30
0.0
 40
682.1241890000001
100
AcDbArc
 50
255.644757
 51
262.882626
  0
ARC
  5
A4C5
330
A78D
100
AcDbEntity
  8
A733_ストリートファニチャ
 62
     7
370
     9
100
AcDbCircle
 10
191834.878207
 20
-8175.912528
 30
0.0
 40
1418.98808
100
AcDbArc
 50
80.967786
 51
84.251385
  0
ARC
  5
A4C6
330
A78D
100
AcDbEntity
  8
A733_ストリートファニチャ
 62
     7
370
     9
100
AcDbCircle
 10
192174.573933
 20
-6111.13682
 30
0.0
 40
673.6036749999999
100
AcDbArc
 50
260.003674
 51
265.20184
  0
ARC
  5
A4C7
330
A78D
100
AcDbEntity
  8
A733_ストリートファニチャ
 62
     7
370
     9
100
AcDbCircle
 10
192149.768221
 20
-6021.253412
 30
0.0
 40
762.8784020000002
100
AcDbArc
 50
269.478192
 51
270.930905
  0
ARC
  5
A4C8
330
A78D
100
AcDbEntity
  8
A733_ストリートファニチャ
 62
     7
370
     9
100
AcDbCircle
 10
192158.228484
 20
-6584.447088
 30
0.0
 40
173.393096
100
AcDbArc
 50
269.29794
 51
270.350369
  0
ARC
  5
A4C9
330
A78D
100
AcDbEntity
  8
A733_ストリートファニチャ
 62
     7
370
     9
100
AcDbCircle
 10
192181.750957
 20
-6454.528901
 30
0.0
 40
8.932060999999999
100
AcDbArc
 50
202.691739
 51
206.240048
  0
ARC
  5
A4CA
330
A78D
100
AcDbEntity
  8
A733_ストリートファニチャ
 62
     7
370
     9
100
AcDbCircle
 10
192173.330285
 20
-6458.046689
 30
0.0
 40
0.193697
100
AcDbArc
 50
21.896298
 51
43.791623
  0
ARC
  5
A4CB
330
A78D
100
AcDbEntity
  8
A733_ストリートファニチャ
 62
     7
370
     9
100
AcDbCircle
 10
192172.661408
 20
-6457.980795
 30
0.0
 40
0.0879719999999999
100
AcDbArc
 50
103.808484
 51
152.551129
  0
ARC
  5
A4CC
330
A78D
100
AcDbEntity
  8
A733_ストリートファニチャ
 62
     7
370
     9
100
AcDbCircle
 10
192171.559046
 20
-6457.701674
 30
0.0
 40
0.9869950000000001
100
AcDbArc
 50
301.028607
 51
325.482419
  0
ARC
  5
A4CD
330
A78D
100
AcDbEntity
  8
A733_ストリートファニチャ
 62
     7
370
     9
100
AcDbCircle
 10
192171.66277
 20
-6457.760298
 30
0.0
 40
0.8839070000000003
100
AcDbArc
 50
263.262295
 51
298.364819
  0
ARC
  5
A4CE
330
A78D
100
AcDbEntity
  8
A733_ストリートファニチャ
 62
     7
370
     9
100
AcDbCircle
 10
192178.028555
 20
-6723.177972
 30
0.0
 40
2.000277
100
AcDbArc
 50
270.066861
 51
0.029156
  0
ARC
  5
A4CF
330
A78D
100
AcDbEntity
  8
A733_ストリートファニチャ
 62
     7
370
     9
100
AcDbCircle
 10
192217.124868
 20
-6410.988587
 30
0.0
 40
24.485772
100
AcDbArc
 50
0.387158
 51
10.853436
  0
ARC
  5
A4D0
330
A78D
100
AcDbEntity
  8
A733_ストリートファニチャ
 62
     7
370
     9
100
AcDbCircle
 10
192228.930729
 20
-6411.020132
 30
0.0
 40
12.677203
100
AcDbArc
 50
0.930524
 51
24.237714
  0
ARC
  5
A4D1
330
A78D
100
AcDbEntity
  8
A733_ストリートファニチャ
 62
     7
370
     9
100
AcDbCircle
 10
192228.428552
 20
-6411.283028
 30
0.0
 40
13.242601
100
AcDbArc
 50
24.378766
 51
42.930127
  0
ARC
  5
A4D2
330
A78D
100
AcDbEntity
  8
A733_ストリートファニチャ
 62
     7
370
     9
100
AcDbCircle
 10
192248.134906
 20
-6392.235209
 30
0.0
 40
14.16988
100
AcDbArc
 50
219.893063
 51
225.061429
  0
ARC
  5
A4D3
330
A78D
100
AcDbEntity
  8
A733_ストリートファニチャ
 62
     7
370
     9
100
AcDbCircle
 10
192237.520482
 20
-6400.801546
 30
0.0
 40
0.498942
100
AcDbArc
 50
247.151685
 51
269.760327
  0
ARC
  5
A4D4
330
A78D
100
AcDbEntity
  8
A733_ストリートファニチャ
 62
     7
370
     9
100
AcDbCircle
 10
192237.520482
 20
-6400.801546
 30
0.0
 40
0.5010740000000001
100
AcDbArc
 50
237.61076
 51
247.153073
  0
ARC
  5
A4D5
330
A78D
100
AcDbEntity
  8
A733_ストリートファニチャ
 62
     7
370
     9
100
AcDbCircle
 10
192175.067977
 20
-6401.253724
 30
0.0
 40
57.490714
100
AcDbArc
 50
266.489285
 51
272.185651
  0
ARC
  5
A4D6
330
A78D
100
AcDbEntity
  8
A733_ストリートファニチャ
 62
     7
370
     9
100
AcDbCircle
 10
192174.18694
 20
-6458.253327
 30
0.0
 40
0.500978
100
AcDbArc
 50
206.400586
 51
257.513455
  0
ARC
  5
A4D7
330
A78D
100
AcDbEntity
  8
A733_ストリートファニチャ
 62
     7
370
     9
100
AcDbCircle
 10
192247.773868
 20
-6403.100355
 30
0.0
 40
6.478691999999999
100
AcDbArc
 50
163.876675
 51
178.835278
  0
ARC
  5
A4D8
330
A78D
100
AcDbEntity
  8
A733_ストリートファニチャ
 62
     7
370
     9
100
AcDbCircle
 10
192244.034498
 20
-6400.249292
 30
0.0
 40
0.5036359999999999
100
AcDbArc
 50
57.867337
 51
90.324338
  0
ARC
  5
A4D9
330
A78D
100
AcDbEntity
  8
A733_ストリートファニチャ
 62
     7
370
     9
100
AcDbCircle
 10
192312.513126
 20
-6407.302762
 30
0.0
 40
71.35018100000002
100
AcDbArc
 50
176.515042
 51
179.250973
  0
ARC
  5
A4DA
330
A78D
100
AcDbEntity
  8
A733_ストリートファニチャ
 62
     7
370
     9
100
AcDbCircle
 10
192244.024566
 20
-6400.252732
 30
0.0
 40
0.5045609999999999
100
AcDbArc
 50
7.508145
 51
57.841611
  0
ARC
  5
A4DB
330
A78D
100
AcDbEntity
  8
A733_ストリートファニチャ
 62
     7
370
     9
100
AcDbCircle
 10
192146.157795
 20
-6755.748424
 30
0.0
 40
1.0
100
AcDbArc
 50
179.402432
 51
269.94624
  0
ARC
  5
A4DC
330
A78D
100
AcDbEntity
  8
A733_ストリートファニチャ
 62
     7
370
     9
100
AcDbCircle
 10
192239.20438
 20
-6399.259031
 30
0.0
 40
0.494475
100
AcDbArc
 50
240.616009
 51
269.933057
  0
ARC
  5
A4DD
330
A78D
100
AcDbEntity
  8
A733_ストリートファニチャ
 62
     7
370
     9
100
AcDbCircle
 10
192235.156654
 20
-6397.42591
 30
0.0
 40
4.3423
100
AcDbArc
 50
299.025143
 51
318.628613
  0
ARC
  5
A4DE
330
A78D
100
AcDbEntity
  8
A733_ストリートファニチャ
 62
     7
370
     9
100
AcDbCircle
 10
192226.012452
 20
-6389.138871
 30
0.0
 40
16.673537
100
AcDbArc
 50
317.991208
 51
320.722592
  0
ARC
  5
A4DF
330
A78D
100
AcDbEntity
  8
A733_ストリートファニチャ
 62
     7
370
     9
100
AcDbCircle
 10
192237.337439
 20
-6401.257947
 30
0.0
 40
0.1019999999999999
100
AcDbArc
 50
183.328107
 51
223.18121
  0
ARC
  5
A4E0
330
A78D
100
AcDbEntity
  8
A733_ストリートファニチャ
 62
     7
370
     9
100
AcDbCircle
 10
192146.484468
 20
-6727.74826
 30
0.0
 40
1.0
100
AcDbArc
 50
89.94624
 51
179.15347
  0
ARC
  5
A4E1
330
A78D
100
AcDbEntity
  8
A733_ストリートファニチャ
 62
     7
370
     9
100
AcDbCircle
 10
192156.76194
 20
-6757.245407
 30
0.0
 40
0.5
100
AcDbArc
 50
359.94624
 51
89.94624
  0
ARC
  5
A4E2
330
A78D
100
AcDbEntity
  8
A733_ストリートファニチャ
 62
     7
370
     9
100
AcDbCircle
 10
192179.346147
 20
-6755.749345
 30
0.0
 40
1.0
100
AcDbArc
 50
269.94624
 51
359.835492
  0
ARC
  5
A4E3
330
A78D
100
AcDbEntity
  8
A733_ストリートファニチャ
 62
     7
370
     9
100
AcDbCircle
 10
192179.392488
 20
-6727.748013
 30
0.0
 40
1.0
100
AcDbArc
 50
359.868771
 51
89.94624
  0
ARC
  5
A4E4
330
A78D
100
AcDbEntity
  8
A733_ストリートファニチャ
 62
     7
370
     9
100
AcDbCircle
 10
192174.559432
 20
-6757.250419
 30
0.0
 40
0.5
100
AcDbArc
 50
89.94624
 51
179.94624
  0
LINE
  5
A4E5
330
A78D
100
AcDbEntity
  8
A733_ストリートファニチャ
 62
     7
370
     9
100
AcDbLine
 10
192289.532392
 20
-6768.402549
 30
0.0
 11
192243.972648
 21
-6770.378472
 31
0.0
  0
LINE
  5
A4E6
330
A78D
100
AcDbEntity
  8
A733_ストリートファニチャ
 62
     7
370
     9
100
AcDbLine
 10
192289.532392
 20
-6417.091107
 30
0.0
 11
192289.532392
 21
-6768.402549
 31
0.0
  0
ARC
  5
A4E7
330
A78D
100
AcDbEntity
  8
A733_ストリートファニチャ
 62
     7
370
     9
100
AcDbCircle
 10
191848.032813
 20
-5687.201056
 30
0.0
 40
64.999999
100
AcDbArc
 50
180.00137
 51
238.185803
  0
ARC
  5
A4E8
330
A78D
100
AcDbEntity
  8
A733_ストリートファニチャ
 62
     7
370
     9
100
AcDbCircle
 10
191971.916906
 20
-5487.50816
 30
0.0
 40
299.9999830000001
100
AcDbArc
 50
238.183606
 51
272.612973
  0
ARC
  5
A4E9
330
A78D
100
AcDbEntity
  8
A733_ストリートファニチャ
 62
     7
370
     9
100
AcDbCircle
 10
191983.033204
 20
-5687.205177
 30
0.0
 40
100.000001
100
AcDbArc
 50
273.183926
 51
359.999173
  0
ARC
  5
A4EA
330
A78D
100
AcDbEntity
  8
A733_ストリートファニチャ
 62
     7
370
     9
100
AcDbCircle
 10
191983.033204
 20
-5687.205177
 30
0.0
 40
100.000001
100
AcDbArc
 50
359.999173
 51
86.814435
  0
LINE
  5
A4EB
330
A78D
100
AcDbEntity
  8
A733_ストリートファニチャ
 62
     7
370
     9
100
AcDbLine
 10
192180.371184
 20
-5524.206606
 30
0.0
 11
192180.418121
 21
-5550.702774
 31
0.0
  0
LINE
  5
A4EC
330
A78D
100
AcDbEntity
  8
A733_ストリートファニチャ
 62
     7
370
     9
100
AcDbLine
 10
192145.159379
 20
-5850.192731
 30
0.0
 11
192145.483855
 21
-5822.194255
 31
0.0
  0
LINE
  5
A4ED
330
A78D
100
AcDbEntity
  8
A733_ストリートファニチャ
 62
     7
370
     9
100
AcDbLine
 10
192180.39415
 20
-5822.207818
 30
0.0
 11
192180.351056
 21
-5850.202465
 31
0.0
  0
LINE
  5
A4EE
330
A78D
100
AcDbEntity
  8
A733_ストリートファニチャ
 62
     7
370
     9
100
AcDbLine
 10
191988.590699
 20
-5787.045106
 30
0.0
 11
191985.608752
 21
-5787.202802
 31
0.0
  0
LINE
  5
A4EF
330
A78D
100
AcDbEntity
  8
A733_ストリートファニチャ
 62
     7
370
     9
100
AcDbLine
 10
192135.148428
 20
-5773.154732
 30
0.0
 11
192135.161146
 21
-5838.307506
 31
0.0
  0
LINE
  5
A4F0
330
A78D
100
AcDbEntity
  8
A733_ストリートファニチャ
 62
     7
370
     9
100
AcDbLine
 10
192135.112605
 20
-5712.204229
 30
0.0
 11
192135.148428
 21
-5773.154732
 31
0.0
  0
LINE
  5
A4F1
330
A78D
100
AcDbEntity
  8
A733_ストリートファニチャ
 62
     7
370
     9
100
AcDbLine
 10
192135.162398
 20
-5536.104564
 30
0.0
 11
192135.139556
 21
-5601.248334
 31
0.0
  0
LINE
  5
A4F2
330
A78D
100
AcDbEntity
  8
A733_ストリートファニチャ
 62
     7
370
     9
100
AcDbLine
 10
192135.256848
 20
-5487.202348
 30
0.0
 11
192154.733251
 21
-5487.711337
 31
0.0
  0
LINE
  5
A4F3
330
A78D
100
AcDbEntity
  8
A733_ストリートファニチャ
 62
     7
370
     9
100
AcDbLine
 10
192201.646654
 20
-5489.947943
 30
0.0
 11
192235.20973
 21
-5492.157686
 31
0.0
  0
LINE
  5
A4F4
330
A78D
100
AcDbEntity
  8
A733_ストリートファニチャ
 62
     7
370
     9
100
AcDbLine
 10
192160.124208
 20
-5490.337091
 30
0.0
 11
192225.623214
 21
-5495.368286
 31
0.0
  0
LINE
  5
A4F5
330
A78D
100
AcDbEntity
  8
A733_ストリートファニチャ
 62
     7
370
     9
100
AcDbLine
 10
192090.417998
 20
-5487.476646
 30
0.0
 11
192105.290875
 21
-5488.281313
 31
0.0
  0
LINE
  5
A4F6
330
A78D
100
AcDbEntity
  8
A733_ストリートファニチャ
 62
     7
370
     9
100
AcDbLine
 10
192235.209683
 20
-5881.844811
 30
0.0
 11
192201.647157
 21
-5884.060875
 31
0.0
  0
LINE
  5
A4F7
330
A78D
100
AcDbEntity
  8
A733_ストリートファニチャ
 62
     7
370
     9
100
AcDbLine
 10
192154.735102
 20
-5886.699353
 30
0.0
 11
192135.257159
 21
-5887.200303
 31
0.0
  0
LINE
  5
A4F8
330
A78D
100
AcDbEntity
  8
A733_ストリートファニチャ
 62
     7
370
     9
100
AcDbLine
 10
192225.62404
 20
-5879.038532
 30
0.0
 11
192160.127012
 21
-5884.076609
 31
0.0
  0
LINE
  5
A4F9
330
A78D
100
AcDbEntity
  8
A733_ストリートファニチャ
 62
     7
370
     9
100
AcDbLine
 10
192105.287572
 20
-5886.63618
 30
0.0
 11
192090.419726
 21
-5886.930013
 31
0.0
  0
LINE
  5
A4FA
330
A78D
100
AcDbEntity
  8
A733_ストリートファニチャ
 62
     7
370
     9
100
AcDbLine
 10
192135.139556
 20
-5601.248334
 30
0.0
 11
192135.115659
 21
-5662.208396
 31
0.0
  0
LINE
  5
A4FB
330
A78D
100
AcDbEntity
  8
A733_ストリートファニチャ
 62
     7
370
     9
100
AcDbLine
 10
192135.11297
 20
-5687.201617
 30
0.0
 11
192135.115659
 21
-5662.208396
 31
0.0
  0
LINE
  5
A4FC
330
A78D
100
AcDbEntity
  8
A733_ストリートファニチャ
 62
     7
370
     9
100
AcDbLine
 10
191985.603106
 20
-5587.208043
 30
0.0
 11
191988.589745
 21
-5587.35831
 31
0.0
  0
LINE
  5
A4FD
330
A78D
100
AcDbEntity
  8
A733_ストリートファニチャ
 62
     7
370
     9
100
AcDbLine
 10
192145.955999
 20
-5522.180734
 30
0.0
 11
192144.221071
 21
-5522.194835
 31
0.0
  0
LINE
  5
A4FE
330
A78D
100
AcDbEntity
  8
A733_ストリートファニチャ
 62
     7
370
     9
100
AcDbLine
 10
192137.190731
 20
-5522.270575
 30
0.0
 11
192144.221071
 21
-5522.194835
 31
0.0
  0
LINE
  5
A4FF
330
A78D
100
AcDbEntity
  8
A733_ストリートファニチャ
 62
     7
370
     9
100
AcDbLine
 10
192135.162398
 20
-5536.104564
 30
0.0
 11
192135.221728
 21
-5524.258492
 31
0.0
  0
LINE
  5
A500
330
A78D
100
AcDbEntity
  8
A733_ストリートファニチャ
 62
     7
370
     9
100
AcDbLine
 10
192135.112605
 20
-5712.204229
 30
0.0
 11
192135.11297
 21
-5687.201617
 31
0.0
  0
LINE
  5
A501
330
A78D
100
AcDbEntity
  8
A733_ストリートファニチャ
 62
     7
370
     9
100
AcDbLine
 10
192151.81222
 20
-5852.238729
 30
0.0
 11
192150.436061
 21
-5852.23425
 31
0.0
  0
LINE
  5
A502
330
A78D
100
AcDbEntity
  8
A733_ストリートファニチャ
 62
     7
370
     9
100
AcDbLine
 10
192173.024596
 20
-5852.252189
 30
0.0
 11
192169.08716
 21
-5852.279185
 31
0.0
  0
LINE
  5
A503
330
A78D
100
AcDbEntity
  8
A733_ストリートファニチャ
 62
     7
370
     9
100
AcDbLine
 10
192165.440876
 20
-5852.285065
 30
0.0
 11
192161.695873
 21
-5852.281569
 31
0.0
  0
LINE
  5
A504
330
A78D
100
AcDbEntity
  8
A733_ストリートファニチャ
 62
     7
370
     9
100
AcDbLine
 10
192146.840454
 20
-5852.215165
 30
0.0
 11
192137.195421
 21
-5852.111933
 31
0.0
  0
LINE
  5
A505
330
A78D
100
AcDbEntity
  8
A733_ストリートファニチャ
 62
     7
370
     9
100
AcDbLine
 10
192135.216701
 20
-5850.123987
 30
0.0
 11
192135.161146
 21
-5838.307506
 31
0.0
  0
LINE
  5
A506
330
A78D
100
AcDbEntity
  8
A733_ストリートファニチャ
 62
     7
370
     9
100
AcDbLine
 10
192173.024596
 20
-5852.252189
 30
0.0
 11
192174.056053
 21
-5852.246276
 31
0.0
  0
LINE
  5
A507
330
A78D
100
AcDbEntity
  8
A733_ストリートファニチャ
 62
     7
370
     9
100
AcDbLine
 10
192173.779909
 20
-5881.826935
 30
0.0
 11
192160.268485
 21
-5882.999671
 31
0.0
  0
LINE
  5
A508
330
A78D
100
AcDbEntity
  8
A733_ストリートファニチャ
 62
     7
370
     9
100
AcDbLine
 10
192160.268485
 20
-5882.999671
 30
0.0
 11
192155.555405
 21
-5883.211865
 31
0.0
  0
LINE
  5
A509
330
A78D
100
AcDbEntity
  8
A733_ストリートファニチャ
 62
     7
370
     9
100
AcDbLine
 10
192155.555405
 20
-5883.211865
 30
0.0
 11
192147.270239
 21
-5883.807449
 31
0.0
  0
LINE
  5
A50A
330
A78D
100
AcDbEntity
  8
A733_ストリートファニチャ
 62
     7
370
     9
100
AcDbLine
 10
192072.888741
 20
-5886.214455
 30
0.0
 11
192069.451862
 21
-5886.220114
 31
0.0
  0
LINE
  5
A50B
330
A78D
100
AcDbEntity
  8
A733_ストリートファニチャ
 62
     7
370
     9
100
AcDbLine
 10
192069.451862
 20
-5886.220114
 30
0.0
 11
192068.459017
 21
-5886.211727
 31
0.0
  0
LINE
  5
A50C
330
A78D
100
AcDbEntity
  8
A733_ストリートファニチャ
 62
     7
370
     9
100
AcDbLine
 10
192068.459017
 20
-5886.211727
 30
0.0
 11
192060.989442
 21
-5886.151313
 31
0.0
  0
LINE
  5
A50D
330
A78D
100
AcDbEntity
  8
A733_ストリートファニチャ
 62
     7
370
     9
100
AcDbLine
 10
192077.306369
 20
-5886.22508
 30
0.0
 11
192072.888741
 21
-5886.214455
 31
0.0
  0
LINE
  5
A50E
330
A78D
100
AcDbEntity
  8
A733_ストリートファニチャ
 62
     7
370
     9
100
AcDbLine
 10
192168.369658
 20
-5492.23104
 30
0.0
 11
192172.887111
 21
-5492.631619
 31
0.0
  0
LINE
  5
A50F
330
A78D
100
AcDbEntity
  8
A733_ストリートファニチャ
 62
     7
370
     9
100
AcDbLine
 10
192151.749724
 20
-5490.779152
 30
0.0
 11
192168.03649
 21
-5492.069275
 31
0.0
  0
LINE
  5
A510
330
A78D
100
AcDbEntity
  8
A733_ストリートファニチャ
 62
     7
370
     9
100
AcDbLine
 10
192148.217036
 20
-5490.644659
 30
0.0
 11
192151.508005
 21
-5490.763684
 31
0.0
  0
LINE
  5
A511
330
A78D
100
AcDbEntity
  8
A733_ストリートファニチャ
 62
     7
370
     9
100
AcDbLine
 10
192072.887031
 20
-5488.190378
 30
0.0
 11
192087.15422
 21
-5488.265845
 31
0.0
  0
LINE
  5
A512
330
A78D
100
AcDbEntity
  8
A733_ストリートファニチャ
 62
     7
370
     9
100
AcDbLine
 10
192139.276815
 20
-5687.20744
 30
0.0
 11
192139.273314
 21
-5663.205376
 31
0.0
  0
LINE
  5
A513
330
A78D
100
AcDbEntity
  8
A733_ストリートファニチャ
 62
     7
370
     9
100
AcDbLine
 10
192069.455562
 20
-5488.184893
 30
0.0
 11
192072.887031
 21
-5488.190378
 31
0.0
  0
LINE
  5
A514
330
A78D
100
AcDbEntity
  8
A733_ストリートファニチャ
 62
     7
370
     9
100
AcDbLine
 10
192068.456225
 20
-5488.189878
 30
0.0
 11
192069.455562
 21
-5488.184893
 31
0.0
  0
LINE
  5
A515
330
A78D
100
AcDbEntity
  8
A733_ストリートファニチャ
 62
     7
370
     9
100
AcDbLine
 10
192060.752146
 20
-5488.257949
 30
0.0
 11
192068.456225
 21
-5488.189878
 31
0.0
  0
LINE
  5
A516
330
A78D
100
AcDbEntity
  8
A733_ストリートファニチャ
 62
     7
370
     9
100
AcDbLine
 10
192042.900291
 20
-5489.198674
 30
0.0
 11
192058.457296
 21
-5488.333412
 31
0.0
  0
LINE
  5
A517
330
A78D
100
AcDbEntity
  8
A733_ストリートファニチャ
 62
     7
370
     9
100
AcDbLine
 10
192139.274712
 20
-5711.204029
 30
0.0
 11
192139.276815
 21
-5687.20744
 31
0.0
  0
LINE
  5
A518
330
A78D
100
AcDbEntity
  8
A733_ストリートファニチャ
 62
     7
370
     9
100
AcDbLine
 10
192169.08716
 20
-5852.279185
 30
0.0
 11
192165.440876
 21
-5852.285065
 31
0.0
  0
LINE
  5
A519
330
A78D
100
AcDbEntity
  8
A733_ストリートファニチャ
 62
     7
370
     9
100
AcDbLine
 10
192058.462404
 20
-5886.07824
 30
0.0
 11
192043.420705
 21
-5885.238421
 31
0.0
  0
LINE
  5
A51A
330
A78D
100
AcDbEntity
  8
A733_ストリートファニチャ
 62
     7
370
     9
100
AcDbLine
 10
192118.23482
 20
-5497.562297
 30
0.0
 11
192142.816398
 21
-5495.84909
 31
0.0
  0
LINE
  5
A51B
330
A78D
100
AcDbEntity
  8
A733_ストリートファニチャ
 62
     7
370
     9
100
AcDbLine
 10
192142.825965
 20
-5878.556957
 30
0.0
 11
192118.23784
 21
-5876.852131
 31
0.0
  0
LINE
  5
A51C
330
A78D
100
AcDbEntity
  8
A733_ストリートファニチャ
 62
     7
370
     9
100
AcDbLine
 10
192174.056053
 20
-5852.246276
 30
0.0
 11
192174.879317
 21
-5852.249435
 31
0.0
  0
LINE
  5
A51D
330
A78D
100
AcDbEntity
  8
A733_ストリートファニチャ
 62
     7
370
     9
100
AcDbLine
 10
192156.101785
 20
-5852.28907
 30
0.0
 11
192151.81222
 21
-5852.238729
 31
0.0
  0
LINE
  5
A51E
330
A78D
100
AcDbEntity
  8
A733_ストリートファニチャ
 62
     7
370
     9
100
AcDbLine
 10
192154.727579
 20
-5522.157298
 30
0.0
 11
192165.447692
 21
-5522.099547
 31
0.0
  0
LINE
  5
A51F
330
A78D
100
AcDbEntity
  8
A733_ストリートファニチャ
 62
     7
370
     9
100
AcDbLine
 10
192165.447692
 20
-5522.099547
 30
0.0
 11
192174.975629
 21
-5522.137663
 31
0.0
  0
LINE
  5
A520
330
A78D
100
AcDbEntity
  8
A733_ストリートファニチャ
 62
     7
370
     9
100
AcDbLine
 10
192172.642645
 20
-5552.34722
 30
0.0
 11
192173.455976
 21
-5552.353818
 31
0.0
  0
LINE
  5
A521
330
A78D
100
AcDbEntity
  8
A733_ストリートファニチャ
 62
     7
370
     9
100
AcDbLine
 10
192172.582198
 20
-5552.389472
 30
0.0
 11
192172.376597
 21
-5552.716503
 31
0.0
  0
LINE
  5
A522
330
A78D
100
AcDbEntity
  8
A733_ストリートファニチャ
 62
     7
370
     9
100
AcDbLine
 10
192144.806378
 20
-5551.251919
 30
0.0
 11
192144.477211
 21
-5522.211797
 31
0.0
  0
LINE
  5
A523
330
A78D
100
AcDbEntity
  8
A733_ストリートファニチャ
 62
     7
370
     9
100
AcDbLine
 10
192241.552702
 20
-5495.757904
 30
0.0
 11
192243.557837
 21
-5494.20888
 31
0.0
  0
LINE
  5
A524
330
A78D
100
AcDbEntity
  8
A733_ストリートファニチャ
 62
     7
370
     9
100
AcDbLine
 10
192144.476859
 20
-5852.191157
 30
0.0
 11
192144.832059
 21
-5821.596887
 31
0.0
  0
LINE
  5
A525
330
A78D
100
AcDbEntity
  8
A733_ストリートファニチャ
 62
     7
370
     9
100
AcDbLine
 10
192145.51359
 20
-5550.708534
 30
0.0
 11
192145.559576
 21
-5524.199651
 31
0.0
  0
LINE
  5
A526
330
A78D
100
AcDbEntity
  8
A733_ストリートファニチャ
 62
     7
370
     9
100
AcDbLine
 10
192289.532392
 20
-5511.546506
 30
0.0
 11
192243.972648
 21
-5509.570584
 31
0.0
  0
LINE
  5
A527
330
A78D
100
AcDbEntity
  8
A733_ストリートファニチャ
 62
     7
370
     9
100
AcDbLine
 10
192174.879317
 20
-5852.249435
 30
0.0
 11
192176.094938
 21
-5852.264093
 31
0.0
  0
LINE
  5
A528
330
A78D
100
AcDbEntity
  8
A733_ストリートファニチャ
 62
     7
370
     9
100
AcDbLine
 10
192146.512341
 20
-5551.700182
 30
0.0
 11
192179.425932
 21
-5551.702639
 31
0.0
  0
LINE
  5
A529
330
A78D
100
AcDbEntity
  8
A733_ストリートファニチャ
 62
     7
370
     9
100
AcDbLine
 10
192169.664978
 20
-5522.698624
 30
0.0
 11
192169.658046
 21
-5522.103167
 31
0.0
  0
LINE
  5
A52A
330
A78D
100
AcDbEntity
  8
A733_ストリートファニチャ
 62
     7
370
     9
100
AcDbLine
 10
192145.955999
 20
-5522.180734
 30
0.0
 11
192152.812784
 21
-5522.139145
 31
0.0
  0
LINE
  5
A52B
330
A78D
100
AcDbEntity
  8
A733_ストリートファニチャ
 62
     7
370
     9
100
AcDbLine
 10
192178.18689
 20
-5859.696427
 30
0.0
 11
192179.534175
 21
-5859.695148
 31
0.0
  0
LINE
  5
A52C
330
A78D
100
AcDbEntity
  8
A733_ストリートファニチャ
 62
     7
370
     9
100
AcDbLine
 10
192180.026168
 20
-5879.307815
 30
0.0
 11
192180.035351
 21
-5860.202862
 31
0.0
  0
LINE
  5
A52D
330
A78D
100
AcDbEntity
  8
A733_ストリートファニチャ
 62
     7
370
     9
100
AcDbLine
 10
192150.436061
 20
-5852.23425
 30
0.0
 11
192146.840454
 21
-5852.215165
 31
0.0
  0
LINE
  5
A52E
330
A78D
100
AcDbEntity
  8
A733_ストリートファニチャ
 62
     7
370
     9
100
AcDbLine
 10
192174.062739
 20
-5852.249522
 30
0.0
 11
192174.061927
 21
-5851.703853
 31
0.0
  0
LINE
  5
A52F
330
A78D
100
AcDbEntity
  8
A733_ストリートファニチャ
 62
     7
370
     9
100
AcDbLine
 10
192178.034075
 20
-5553.205192
 30
0.0
 11
192146.809257
 21
-5553.221302
 31
0.0
  0
LINE
  5
A530
330
A78D
100
AcDbEntity
  8
A733_ストリートファニチャ
 62
     7
370
     9
100
AcDbLine
 10
192239.20009
 20
-5494.202544
 30
0.0
 11
192244.028663
 21
-5494.203399
 31
0.0
  0
LINE
  5
A531
330
A78D
100
AcDbEntity
  8
A733_ストリートファニチャ
 62
     7
370
     9
100
AcDbLine
 10
192146.83013
 20
-5819.631345
 30
0.0
 11
192178.040721
 21
-5819.630358
 31
0.0
  0
LINE
  5
A532
330
A78D
100
AcDbEntity
  8
A733_ストリートファニチャ
 62
     7
370
     9
100
AcDbLine
 10
192146.163894
 20
-5851.203701
 30
0.0
 11
192179.344446
 21
-5851.200835
 31
0.0
  0
LINE
  5
A533
330
A78D
100
AcDbEntity
  8
A733_ストリートファニチャ
 62
     7
370
     9
100
AcDbLine
 10
192177.536789
 20
-5496.205566
 30
0.0
 11
192176.816508
 21
-5496.197331
 31
0.0
  0
LINE
  5
A534
330
A78D
100
AcDbEntity
  8
A733_ストリートファニチャ
 62
     7
370
     9
100
AcDbLine
 10
192176.818739
 20
-5495.341947
 30
0.0
 11
192176.81868
 21
-5521.132327
 31
0.0
  0
LINE
  5
A535
330
A78D
100
AcDbEntity
  8
A733_ストリートファニチャ
 62
     7
370
     9
100
AcDbLine
 10
192157.660107
 20
-5522.132581
 30
0.0
 11
192157.662323
 21
-5522.703717
 31
0.0
  0
LINE
  5
A536
330
A78D
100
AcDbEntity
  8
A733_ストリートファニチャ
 62
     7
370
     9
100
AcDbLine
 10
192176.286
 20
-5820.133307
 30
0.0
 11
192176.285234
 21
-5821.209716
 31
0.0
  0
LINE
  5
A537
330
A78D
100
AcDbEntity
  8
A733_ストリートファニチャ
 62
     7
370
     9
100
AcDbLine
 10
192180.031751
 20
-5817.631105
 30
0.0
 11
192180.035902
 21
-5687.202227
 31
0.0
  0
LINE
  5
A538
330
A78D
100
AcDbEntity
  8
A733_ストリートファニチャ
 62
     7
370
     9
100
AcDbLine
 10
192177.68699
 20
-5859.203102
 30
0.0
 11
192177.683194
 21
-5853.261066
 31
0.0
  0
LINE
  5
A539
330
A78D
100
AcDbEntity
  8
A733_ストリートファニチャ
 62
     7
370
     9
100
AcDbLine
 10
192235.78344
 20
-5890.206128
 30
0.0
 11
192235.780959
 21
-5881.711852
 31
0.0
  0
LINE
  5
A53A
330
A78D
100
AcDbEntity
  8
A733_ストリートファニチャ
 62
     7
370
     9
100
AcDbLine
 10
192232.292926
 20
-5883.700277
 30
0.0
 11
192235.786439
 21
-5883.705593
 31
0.0
  0
LINE
  5
A53B
330
A78D
100
AcDbEntity
  8
A733_ストリートファニチャ
 62
     7
370
     9
100
AcDbLine
 10
192231.531443
 20
-5883.198363
 30
0.0
 11
192231.531855
 21
-5882.091489
 31
0.0
  0
LINE
  5
A53C
330
A78D
100
AcDbEntity
  8
A733_ストリートファニチャ
 62
     7
370
     9
100
AcDbLine
 10
192203.583869
 20
-5889.198181
 30
0.0
 11
192235.780619
 21
-5889.202334
 31
0.0
  0
LINE
  5
A53D
330
A78D
100
AcDbEntity
  8
A733_ストリートファニチャ
 62
     7
370
     9
100
AcDbLine
 10
192205.286352
 20
-5892.20314
 30
0.0
 11
192233.785756
 21
-5892.204905
 31
0.0
  0
LINE
  5
A53E
330
A78D
100
AcDbEntity
  8
A733_ストリートファニチャ
 62
     7
370
     9
100
AcDbLine
 10
192203.7429
 20
-5890.20071
 30
0.0
 11
192203.74375
 21
-5889.702665
 31
0.0
  0
LINE
  5
A53F
330
A78D
100
AcDbEntity
  8
A733_ストリートファニチャ
 62
     7
370
     9
100
AcDbLine
 10
192203.281252
 20
-5883.951
 30
0.0
 11
192203.283503
 21
-5888.903631
 31
0.0
  0
LINE
  5
A540
330
A78D
100
AcDbEntity
  8
A733_ストリートファニチャ
 62
     7
370
     9
100
AcDbLine
 10
192161.98872
 20
-5712.197189
 30
0.0
 11
192161.983674
 21
-5687.20572
 31
0.0
  0
LINE
  5
A541
330
A78D
100
AcDbEntity
  8
A733_ストリートファニチャ
 62
     7
370
     9
100
AcDbLine
 10
192155.989809
 20
-5656.20006
 30
0.0
 11
192135.113318
 21
-5656.200972
 31
0.0
  0
LINE
  5
A542
330
A78D
100
AcDbEntity
  8
A733_ストリートファニチャ
 62
     7
370
     9
100
AcDbLine
 10
192135.112621
 20
-5718.202262
 30
0.0
 11
192155.988062
 21
-5718.206348
 31
0.0
  0
LINE
  5
A543
330
A78D
100
AcDbEntity
  8
A733_ストリートファニチャ
 62
     7
370
     9
100
AcDbLine
 10
192161.983674
 20
-5687.20572
 30
0.0
 11
192161.98512
 21
-5662.200879
 31
0.0
  0
LINE
  5
A544
330
A78D
100
AcDbEntity
  8
A733_ストリートファニチャ
 62
     7
370
     9
100
AcDbLine
 10
192176.256014
 20
-5551.702974
 30
0.0
 11
192176.264934
 21
-5552.183732
 31
0.0
  0
LINE
  5
A545
330
A78D
100
AcDbEntity
  8
A733_ストリートファニチャ
 62
     7
370
     9
100
AcDbLine
 10
192176.668941
 20
-5852.270153
 30
0.0
 11
192176.094938
 21
-5852.264093
 31
0.0
  0
LINE
  5
A546
330
A78D
100
AcDbEntity
  8
A733_ストリートファニチャ
 62
     7
370
     9
100
AcDbLine
 10
192179.393075
 20
-5821.206779
 30
0.0
 11
192146.485055
 21
-5821.207027
 31
0.0
  0
LINE
  5
A547
330
A78D
100
AcDbEntity
  8
A733_ストリートファニチャ
 62
     7
370
     9
100
AcDbLine
 10
192178.040101
 20
-5494.993121
 30
0.0
 11
192178.02954
 21
-5495.704011
 31
0.0
  0
LINE
  5
A548
330
A78D
100
AcDbEntity
  8
A733_ストリートファニチャ
 62
     7
370
     9
100
AcDbLine
 10
192146.5595
 20
-5523.198034
 30
0.0
 11
192179.373355
 21
-5523.198882
 31
0.0
  0
LINE
  5
A549
330
A78D
100
AcDbEntity
  8
A733_ストリートファニチャ
 62
     7
370
     9
100
AcDbLine
 10
192175.826492
 20
-5522.132191
 30
0.0
 11
192174.975629
 21
-5522.137663
 31
0.0
  0
LINE
  5
A54A
330
A78D
100
AcDbEntity
  8
A733_ストリートファニチャ
 62
     7
370
     9
100
AcDbLine
 10
192241.552702
 20
-5495.757904
 30
0.0
 11
192237.526317
 21
-5495.758237
 31
0.0
  0
LINE
  5
A54B
330
A78D
100
AcDbEntity
  8
A733_ストリートファニチャ
 62
     7
370
     9
100
AcDbLine
 10
192157.263097
 20
-5852.302144
 30
0.0
 11
192157.259412
 21
-5851.700001
 31
0.0
  0
LINE
  5
A54C
330
A78D
100
AcDbEntity
  8
A733_ストリートファニチャ
 62
     7
370
     9
100
AcDbLine
 10
192172.558667
 20
-5551.700585
 30
0.0
 11
192172.549727
 21
-5552.169917
 31
0.0
  0
LINE
  5
A54D
330
A78D
100
AcDbEntity
  8
A733_ストリートファニチャ
 62
     7
370
     9
100
AcDbLine
 10
192180.035902
 20
-5687.202227
 30
0.0
 11
192180.030655
 21
-5555.204563
 31
0.0
  0
LINE
  5
A54E
330
A78D
100
AcDbEntity
  8
A733_ストリートファニチャ
 62
     7
370
     9
100
AcDbLine
 10
192244.531261
 20
-5494.642956
 30
0.0
 11
192244.526817
 21
-5871.86373
 31
0.0
  0
LINE
  5
A54F
330
A78D
100
AcDbEntity
  8
A733_ストリートファニチャ
 62
     7
370
     9
100
AcDbLine
 10
192239.471387
 20
-5510.180291
 30
0.0
 11
192242.847572
 21
-5687.051117
 31
0.0
  0
LINE
  5
A550
330
A78D
100
AcDbEntity
  8
A733_ストリートファニチャ
 62
     7
370
     9
100
AcDbLine
 10
192242.847572
 20
-5687.051117
 30
0.0
 11
192239.471357
 21
-5863.317473
 31
0.0
  0
LINE
  5
A551
330
A78D
100
AcDbEntity
  8
A733_ストリートファニチャ
 62
     7
370
     9
100
AcDbLine
 10
192241.687535
 20
-5505.247265
 30
0.0
 11
192243.641832
 21
-5687.03744
 31
0.0
  0
ARC
  5
A552
330
A78D
100
AcDbEntity
  8
A733_ストリートファニチャ
 62
     7
370
     9
100
AcDbCircle
 10
192179.420948
 20
-5550.703302
 30
0.0
 40
1.0
100
AcDbArc
 50
269.946255
 51
0.025143
  0
ARC
  5
A553
330
A78D
100
AcDbEntity
  8
A733_ストリートファニチャ
 62
     7
370
     9
100
AcDbCircle
 10
192157.156001
 20
-5522.705733
 30
0.0
 40
0.5
100
AcDbArc
 50
269.94624
 51
359.94624
  0
ARC
  5
A554
330
A78D
100
AcDbEntity
  8
A733_ストリートファニチャ
 62
     7
370
     9
100
AcDbCircle
 10
192137.224003
 20
-5524.272302
 30
0.0
 40
2.0
100
AcDbArc
 50
90.746884
 51
179.705212
  0
ARC
  5
A555
330
A78D
100
AcDbEntity
  8
A733_ストリートファニチャ
 62
     7
370
     9
100
AcDbCircle
 10
192175.814822
 20
-5521.129608
 30
0.0
 40
1.0
100
AcDbArc
 50
270.44624
 51
359.94624
  0
ARC
  5
A556
330
A78D
100
AcDbEntity
  8
A733_ストリートファニチャ
 62
     7
370
     9
100
AcDbCircle
 10
192137.218622
 20
-5850.107333
 30
0.0
 40
2.0
100
AcDbArc
 50
180.373151
 51
269.302777
  0
ARC
  5
A557
330
A78D
100
AcDbEntity
  8
A733_ストリートファニチャ
 62
     7
370
     9
100
AcDbCircle
 10
192178.184494
 20
-5859.205067
 30
0.0
 40
0.5
100
AcDbArc
 50
180.229001
 51
269.94624
  0
ARC
  5
A558
330
A78D
100
AcDbEntity
  8
A733_ストリートファニチャ
 62
     7
370
     9
100
AcDbCircle
 10
192176.658422
 20
-5853.270225
 30
0.0
 40
1.0
100
AcDbArc
 50
0.230176
 51
89.446896
  0
ARC
  5
A559
330
A78D
100
AcDbEntity
  8
A733_ストリートファニチャ
 62
     7
370
     9
100
AcDbCircle
 10
192178.029657
 20
-5879.313327
 30
0.0
 40
2.0
100
AcDbArc
 50
278.350568
 51
0.039273
  0
ARC
  5
A55A
330
A78D
100
AcDbEntity
  8
A733_ストリートファニチャ
 62
     7
370
     9
100
AcDbCircle
 10
192176.036905
 20
-5494.995387
 30
0.0
 40
2.0
100
AcDbArc
 50
0.039273
 51
82.474149
  0
ARC
  5
A55B
330
A78D
100
AcDbEntity
  8
A733_ストリートファニチャ
 62
     7
370
     9
100
AcDbCircle
 10
192062.011626
 20
-5812.53152
 30
0.0
 40
73.626739
100
AcDbArc
 50
267.234875
 51
269.202557
  0
ARC
  5
A55C
330
A78D
100
AcDbEntity
  8
A733_ストリートファニチャ
 62
     7
370
     9
100
AcDbCircle
 10
191971.920057
 20
-5886.893371
 30
0.0
 40
299.9999830000001
100
AcDbArc
 50
87.385388
 51
121.814755
  0
ARC
  5
A55D
330
A78D
100
AcDbEntity
  8
A733_ストリートファニチャ
 62
     7
370
     9
100
AcDbCircle
 10
192177.937331
 20
-5885.373927
 30
0.0
 40
6.582016
100
AcDbArc
 50
72.133481
 51
89.348752
  0
ARC
  5
A55E
330
A78D
100
AcDbEntity
  8
A733_ストリートファニチャ
 62
     7
370
     9
100
AcDbCircle
 10
192171.907109
 20
-5969.370604
 30
0.0
 40
90.78790100000002
100
AcDbArc
 50
86.14137
 51
89.106625
  0
ARC
  5
A55F
330
A78D
100
AcDbEntity
  8
A733_ストリートファニチャ
 62
     7
370
     9
100
AcDbCircle
 10
192164.29082
 20
-6520.016326
 30
0.0
 40
641.4859169999999
100
AcDbArc
 50
89.19357
 51
90.194287
  0
ARC
  5
A560
330
A78D
100
AcDbEntity
  8
A733_ストリートファニチャ
 62
     7
370
     9
100
AcDbCircle
 10
192170.163564
 20
-5522.69836
 30
0.0
 40
0.5
100
AcDbArc
 50
179.94624
 51
269.94624
  0
ARC
  5
A561
330
A78D
100
AcDbEntity
  8
A733_ストリートファニチャ
 62
     7
370
     9
100
AcDbCircle
 10
192171.555058
 20
-5552.100059
 30
0.0
 40
1.002510999999999
100
AcDbArc
 50
269.813336
 51
355.531964
  0
ARC
  5
A562
330
A78D
100
AcDbEntity
  8
A733_ストリートファニチャ
 62
     7
370
     9
100
AcDbCircle
 10
192178.029656
 20
-5555.205141
 30
0.0
 40
2.000277
100
AcDbArc
 50
0.049405
 51
90.0117
  0
ARC
  5
A563
330
A78D
100
AcDbEntity
  8
A733_ストリートファニチャ
 62
     7
370
     9
100
AcDbCircle
 10
192146.522859
 20
-5550.70011
 30
0.0
 40
1.0
100
AcDbArc
 50
179.947049
 51
269.94624
  0
ARC
  5
A564
330
A78D
100
AcDbEntity
  8
A733_ストリートファニチャ
 62
     7
370
     9
100
AcDbCircle
 10
192179.376208
 20
-5524.205446
 30
0.0
 40
1.0
100
AcDbArc
 50
0.056866
 51
89.94624
  0
ARC
  5
A565
330
A78D
100
AcDbEntity
  8
A733_ストリートファニチャ
 62
     7
370
     9
100
AcDbCircle
 10
192146.555667
 20
-5524.201352
 30
0.0
 40
1.0
100
AcDbArc
 50
89.94624
 51
179.762311
  0
ARC
  5
A566
330
A78D
100
AcDbEntity
  8
A733_ストリートファニチャ
 62
     7
370
     9
100
AcDbCircle
 10
192177.264078
 20
-5552.16213
 30
0.0
 40
0.998576
100
AcDbArc
 50
180.85806
 51
269.970593
  0
ARC
  5
A567
330
A78D
100
AcDbEntity
  8
A733_ストリートファニチャ
 62
     7
370
     9
100
AcDbCircle
 10
192144.584611
 20
-5713.338786
 30
0.0
 40
5.308787999999999
100
AcDbArc
 50
178.799588
 51
186.757611
  0
ARC
  5
A568
330
A78D
100
AcDbEntity
  8
A733_ストリートファニチャ
 62
     7
370
     9
100
AcDbCircle
 10
192091.439971
 20
-4342.997139
 30
0.0
 40
1544.995392
100
AcDbArc
 50
272.347913
 51
274.090604
  0
ARC
  5
A569
330
A78D
100
AcDbEntity
  8
A733_ストリートファニチャ
 62
     7
370
     9
100
AcDbCircle
 10
192139.602965
 20
-5713.894254
 30
0.0
 40
0.3038859999999999
100
AcDbArc
 50
192.513333
 51
254.725903
  0
ARC
  5
A56A
330
A78D
100
AcDbEntity
  8
A733_ストリートファニチャ
 62
     7
370
     9
100
AcDbCircle
 10
192139.596472
 20
-5713.907626
 30
0.0
 40
0.3009409999999999
100
AcDbArc
 50
254.83714
 51
270.073331
  0
ARC
  5
A56B
330
A78D
100
AcDbEntity
  8
A733_ストリートファニチャ
 62
     7
370
     9
100
AcDbCircle
 10
192075.66952
 20
-5884.480234
 30
0.0
 40
2.5
100
AcDbArc
 50
224.055615
 51
268.843289
  0
ARC
  5
A56C
330
A78D
100
AcDbEntity
  8
A733_ストリートファニチャ
 62
     7
370
     9
100
AcDbCircle
 10
192076.182186
 20
-5490.382379
 30
0.0
 40
3.010695
100
AcDbArc
 50
100.961957
 51
133.35809
  0
ARC
  5
A56D
330
A78D
100
AcDbEntity
  8
A733_ストリートファニチャ
 62
     7
370
     9
100
AcDbCircle
 10
192234.524777
 20
-5502.133019
 30
0.0
 40
10.0
100
AcDbArc
 50
52.46832
 51
86.092206
  0
ARC
  5
A56E
330
A78D
100
AcDbEntity
  8
A733_ストリートファニチャ
 62
     7
370
     9
100
AcDbCircle
 10
192234.52949
 20
-5871.859331
 30
0.0
 40
10.0
100
AcDbArc
 50
273.877072
 51
359.984631
  0
ARC
  5
A56F
330
A78D
100
AcDbEntity
  8
A733_ストリートファニチャ
 62
     7
370
     9
100
AcDbCircle
 10
192176.78675
 20
-5820.128586
 30
0.0
 40
0.5
100
AcDbArc
 50
89.909772
 51
179.946255
  0
ARC
  5
A570
330
A78D
100
AcDbEntity
  8
A733_ストリートファニチャ
 62
     7
370
     9
100
AcDbCircle
 10
192146.827842
 20
-5821.624068
 30
0.0
 40
2.0
100
AcDbArc
 50
90.025342
 51
179.24133
  0
ARC
  5
A571
330
A78D
100
AcDbEntity
  8
A733_ストリートファニチャ
 62
     7
370
     9
100
AcDbCircle
 10
192146.813709
 20
-5551.224122
 30
0.0
 40
2.0
100
AcDbArc
 50
180.823376
 51
270.075757
  0
ARC
  5
A572
330
A78D
100
AcDbEntity
  8
A733_ストリートファニチャ
 62
     7
370
     9
100
AcDbCircle
 10
192104.760251
 20
-7031.205768
 30
0.0
 40
1544.304368
100
AcDbArc
 50
86.402798
 51
88.145489
  0
ARC
  5
A573
330
A78D
100
AcDbEntity
  8
A733_ストリートファニチャ
 62
     7
370
     9
100
AcDbCircle
 10
192110.004993
 20
-6695.877267
 30
0.0
 40
1208.936874
100
AcDbArc
 50
88.80296
 51
91.63017
  0
ARC
  5
A574
330
A78D
100
AcDbEntity
  8
A733_ストリートファニチャ
 62
     7
370
     9
100
AcDbCircle
 10
192081.111081
 20
-6864.443829
 30
0.0
 40
1376.378229
100
AcDbArc
 50
86.709027
 51
88.993359
  0
ARC
  5
A575
330
A78D
100
AcDbEntity
  8
A733_ストリートファニチャ
 62
     7
370
     9
100
AcDbCircle
 10
192091.555424
 20
-5296.017732
 30
0.0
 40
191.457733
100
AcDbArc
 50
267.246884
 51
269.660565
  0
ARC
  5
A576
330
A78D
100
AcDbEntity
  8
A733_ストリートファニチャ
 62
     7
370
     9
100
AcDbCircle
 10
192110.00299
 20
-4678.525222
 30
0.0
 40
1208.936874
100
AcDbArc
 50
268.369778
 51
271.196988
  0
ARC
  5
A577
330
A78D
100
AcDbEntity
  8
A733_ストリートファニチャ
 62
     7
370
     9
100
AcDbCircle
 10
192068.378262
 20
-4510.214992
 30
0.0
 40
1376.914574
100
AcDbArc
 50
271.536221
 51
273.820554
  0
ARC
  5
A578
330
A78D
100
AcDbEntity
  8
A733_ストリートファニチャ
 62
     7
370
     9
100
AcDbCircle
 10
192091.551374
 20
-6078.383566
 30
0.0
 40
191.457733
100
AcDbArc
 50
90.340115
 51
92.753796
  0
ARC
  5
A579
330
A78D
100
AcDbEntity
  8
A733_ストリートファニチャ
 62
     7
370
     9
100
AcDbCircle
 10
192206.259579
 20
-5517.206987
 30
0.0
 40
11.562125
100
AcDbArc
 50
327.536038
 51
34.018979
  0
ARC
  5
A57A
330
A78D
100
AcDbEntity
  8
A733_ストリートファニチャ
 62
     7
370
     9
100
AcDbCircle
 10
192206.657518
 20
-5517.507603
 30
0.0
 40
11.060776
100
AcDbArc
 50
294.952069
 51
327.730084
  0
ARC
  5
A57B
330
A78D
100
AcDbEntity
  8
A733_ストリートファニチャ
 62
     7
370
     9
100
AcDbCircle
 10
192207.247009
 20
-5518.939449
 30
0.0
 40
9.520467999999999
100
AcDbArc
 50
246.061764
 51
295.398419
  0
ARC
  5
A57C
330
A78D
100
AcDbEntity
  8
A733_ストリートファニチャ
 62
     7
370
     9
100
AcDbCircle
 10
192208.119791
 20
-5517.961472
 30
0.0
 40
10.768842
100
AcDbArc
 50
199.347943
 51
243.938245
  0
ARC
  5
A57D
330
A78D
100
AcDbEntity
  8
A733_ストリートファニチャ
 62
     7
370
     9
100
AcDbCircle
 10
192209.899371
 20
-5517.214478
 30
0.0
 40
12.697377
100
AcDbArc
 50
149.74252
 51
199.854993
  0
ARC
  5
A57E
330
A78D
100
AcDbEntity
  8
A733_ストリートファニチャ
 62
     7
370
     9
100
AcDbCircle
 10
192207.298372
 20
-5515.54678
 30
0.0
 40
9.611668000000001
100
AcDbArc
 50
102.469418
 51
150.484769
  0
ARC
  5
A57F
330
A78D
100
AcDbEntity
  8
A733_ストリートファニチャ
 62
     7
370
     9
100
AcDbCircle
 10
192207.199581
 20
-5515.9119
 30
0.0
 40
9.942233000000001
100
AcDbArc
 50
54.823834
 51
101.479108
  0
ARC
  5
A580
330
A78D
100
AcDbEntity
  8
A733_ストリートファニチャ
 62
     7
370
     9
100
AcDbCircle
 10
192206.526705
 20
-5517.025493
 30
0.0
 40
11.239076
100
AcDbArc
 50
33.988675
 51
55.26965
  0
ARC
  5
A581
330
A78D
100
AcDbEntity
  8
A733_ストリートファニチャ
 62
     7
370
     9
100
AcDbCircle
 10
192223.478772
 20
-5511.315984
 30
0.0
 40
16.034773
100
AcDbArc
 50
4.042325
 51
69.921277
  0
ARC
  5
A582
330
A78D
100
AcDbEntity
  8
A733_ストリートファニチャ
 62
     7
370
     9
100
AcDbCircle
 10
192221.797177
 20
-5516.863809
 30
0.0
 40
21.830906
100
AcDbArc
 50
70.776135
 51
79.907178
  0
ARC
  5
A583
330
A78D
100
AcDbEntity
  8
A733_ストリートファニチャ
 62
     7
370
     9
100
AcDbCircle
 10
192222.777362
 20
-5862.642032
 30
0.0
 40
16.712961
100
AcDbArc
 50
291.817075
 51
357.696057
  0
ARC
  5
A584
330
A78D
100
AcDbEntity
  8
A733_ストリートファニチャ
 62
     7
370
     9
100
AcDbCircle
 10
191848.032813
 20
-5687.201056
 30
0.0
 40
64.999999
100
AcDbArc
 50
121.816952
 51
180.00137
  0
ARC
  5
A585
330
A78D
100
AcDbEntity
  8
A733_ストリートファニチャ
 62
     7
370
     9
100
AcDbCircle
 10
192153.408205
 20
-5561.393378
 30
0.0
 40
39.25555700000001
100
AcDbArc
 50
88.073498
 51
90.862973
  0
ARC
  5
A586
330
A78D
100
AcDbEntity
  8
A733_ストリートファニチャ
 62
     7
370
     9
100
AcDbCircle
 10
192161.128489
 20
-5932.133978
 30
0.0
 40
79.85631600000001
100
AcDbArc
 50
89.592343
 51
91.319989
  0
ARC
  5
A587
330
A78D
100
AcDbEntity
  8
A733_ストリートファニチャ
 62
     7
370
     9
100
AcDbCircle
 10
192179.533518
 20
-5860.209811
 30
0.0
 40
0.5
100
AcDbArc
 50
359.94624
 51
89.94624
  0
ARC
  5
A588
330
A78D
100
AcDbEntity
  8
A733_ストリートファニチャ
 62
     7
370
     9
100
AcDbCircle
 10
192166.040182
 20
-5797.25817
 30
0.0
 40
84.92084400000001
100
AcDbArc
 50
275.222714
 51
278.3103
  0
ARC
  5
A589
330
A78D
100
AcDbEntity
  8
A733_ストリートファニチャ
 62
     7
370
     9
100
AcDbCircle
 10
192072.619804
 20
-4805.880235
 30
0.0
 40
1080.511828999999
100
AcDbArc
 50
272.601208
 51
273.961362
  0
ARC
  5
A58A
330
A78D
100
AcDbEntity
  8
A733_ストリートファニチャ
 62
     7
370
     9
100
AcDbCircle
 10
192077.313197
 20
-4842.241481
 30
0.0
 40
1043.97929
100
AcDbArc
 50
270.00015
 51
272.434964
  0
ARC
  5
A58B
330
A78D
100
AcDbEntity
  8
A733_ストリートファニチャ
 62
     7
370
     9
100
AcDbCircle
 10
192221.787308
 20
-5857.543012
 30
0.0
 40
21.830906
100
AcDbArc
 50
280.111447
 51
289.24249
  0
ARC
  5
A58C
330
A78D
100
AcDbEntity
  8
A733_ストリートファニチャ
 62
     7
370
     9
100
AcDbCircle
 10
192232.280335
 20
-5882.71377
 30
0.0
 40
0.9900309999999999
100
AcDbArc
 50
239.921368
 51
270.312451
  0
ARC
  5
A58D
330
A78D
100
AcDbEntity
  8
A733_ストリートファニチャ
 62
     7
370
     9
100
AcDbCircle
 10
192100.480188
 20
-4989.995872
 30
0.0
 40
897.064123
100
AcDbArc
 50
262.728894
 51
266.353253
  0
ARC
  5
A58E
330
A78D
100
AcDbEntity
  8
A733_ストリートファニチャ
 62
     7
370
     9
100
AcDbCircle
 10
192073.030199
 20
-5180.094116
 30
0.0
 40
705.0231310000001
100
AcDbArc
 50
252.790967
 51
262.986508
  0
ARC
  5
A58F
330
A78D
100
AcDbEntity
  8
A733_ストリートファニチャ
 62
     7
370
     9
100
AcDbCircle
 10
191955.25368
 20
-5591.705702
 30
0.0
 40
277.150047
100
AcDbArc
 50
237.75639
 51
250.872281
  0
ARC
  5
A590
330
A78D
100
AcDbEntity
  8
A733_ストリートファニチャ
 62
     7
370
     9
100
AcDbCircle
 10
191912.452616
 20
-5650.1572
 30
0.0
 40
204.939574
100
AcDbArc
 50
210.997693
 51
239.161023
  0
ARC
  5
A591
330
A78D
100
AcDbEntity
  8
A733_ストリートファニチャ
 62
     7
370
     9
100
AcDbCircle
 10
192174.833081
 20
-5495.327943
 30
0.0
 40
1.986652
100
AcDbArc
 50
359.48634
 51
86.911298
  0
ARC
  5
A592
330
A78D
100
AcDbEntity
  8
A733_ストリートファニチャ
 62
     7
370
     9
100
AcDbCircle
 10
192177.530954
 20
-5495.704275
 30
0.0
 40
0.5
100
AcDbArc
 50
269.94624
 51
359.94624
  0
ARC
  5
A593
330
A78D
100
AcDbEntity
  8
A733_ストリートファニチャ
 62
     7
370
     9
100
AcDbCircle
 10
192165.681575
 20
-5572.937455
 30
0.0
 40
80.62922299999998
100
AcDbArc
 50
82.433896
 51
84.871854
  0
ARC
  5
A594
330
A78D
100
AcDbEntity
  8
A733_ストリートファニチャ
 62
     7
370
     9
100
AcDbCircle
 10
192168.008041
 20
-5492.575952
 30
0.0
 40
0.504002
100
AcDbArc
 50
44.188504
 51
87.124264
  0
ARC
  5
A595
330
A78D
100
AcDbEntity
  8
A733_ストリートファニチャ
 62
     7
370
     9
100
AcDbCircle
 10
192151.223525
 20
-5498.116207
 30
0.0
 40
7.352911
100
AcDbArc
 50
85.949368
 51
87.804608
  0
ARC
  5
A596
330
A78D
100
AcDbEntity
  8
A733_ストリートファニチャ
 62
     7
370
     9
100
AcDbCircle
 10
192149.133786
 20
-5463.079709
 30
0.0
 40
27.583783
100
AcDbArc
 50
266.119855
 51
268.100476
  0
ARC
  5
A597
330
A78D
100
AcDbEntity
  8
A733_ストリートファニチャ
 62
     7
370
     9
100
AcDbCircle
 10
192072.69366
 20
-6567.358294
 30
0.0
 40
1079.345697
100
AcDbArc
 50
86.038068
 51
87.399686
  0
ARC
  5
A598
330
A78D
100
AcDbEntity
  8
A733_ストリートファニチャ
 62
     7
370
     9
100
AcDbCircle
 10
192080.15532
 20
-6459.130951
 30
0.0
 40
970.8951660000002
100
AcDbArc
 50
87.550092
 51
89.587018
  0
ARC
  5
A599
330
A78D
100
AcDbEntity
  8
A733_ストリートファニチャ
 62
     7
370
     9
100
AcDbCircle
 10
192231.951207
 20
-5883.184613
 30
0.0
 40
0.41672
100
AcDbArc
 50
182.181103
 51
247.691174
  0
ARC
  5
A59A
330
A78D
100
AcDbEntity
  8
A733_ストリートファニチャ
 62
     7
370
     9
100
AcDbCircle
 10
192233.784604
 20
-5890.20225
 30
0.0
 40
2.0
100
AcDbArc
 50
270.039273
 51
0.073773
  0
ARC
  5
A59B
330
A78D
100
AcDbEntity
  8
A733_ストリートファニチャ
 62
     7
370
     9
100
AcDbCircle
 10
192203.577141
 20
-5888.905753
 30
0.0
 40
0.2999999999999999
100
AcDbArc
 50
180.076245
 51
270.076245
  0
ARC
  5
A59C
330
A78D
100
AcDbEntity
  8
A733_ストリートファニチャ
 62
     7
370
     9
100
AcDbCircle
 10
192205.284119
 20
-5890.202714
 30
0.0
 40
2.0
100
AcDbArc
 50
208.111783
 51
270.039288
  0
ARC
  5
A59D
330
A78D
100
AcDbEntity
  8
A733_ストリートファニチャ
 62
     7
370
     9
100
AcDbCircle
 10
192203.779977
 20
-5891.006332
 30
0.0
 40
0.2999999999999999
100
AcDbArc
 50
92.225934
 51
208.148801
  0
ARC
  5
A59E
330
A78D
100
AcDbEntity
  8
A733_ストリートファニチャ
 62
     7
370
     9
100
AcDbCircle
 10
192204.089538
 20
-5889.52081
 30
0.0
 40
0.3198190000000001
100
AcDbArc
 50
90.365903
 51
142.04736
  0
ARC
  5
A59F
330
A78D
100
AcDbEntity
  8
A733_ストリートファニチャ
 62
     7
370
     9
100
AcDbCircle
 10
192204.381575
 20
-5889.670865
 30
0.0
 40
0.6399460000000002
100
AcDbArc
 50
147.493588
 51
183.011334
  0
ARC
  5
A5A0
330
A78D
100
AcDbEntity
  8
A733_ストリートファニチャ
 62
     7
370
     9
100
AcDbCircle
 10
192208.78918
 20
-5890.153051
 30
0.0
 40
5.046058999999999
100
AcDbArc
 50
180.480908
 51
188.823575
  0
ARC
  5
A5A1
330
A78D
100
AcDbEntity
  8
A733_ストリートファニチャ
 62
     7
370
     9
100
AcDbCircle
 10
192155.987661
 20
-5662.20255
 30
0.0
 40
6.0
100
AcDbArc
 50
0.039273
 51
90.039273
  0
ARC
  5
A5A2
330
A78D
100
AcDbEntity
  8
A733_ストリートファニチャ
 62
     7
370
     9
100
AcDbCircle
 10
192155.983525
 20
-5712.200612
 30
0.0
 40
6.0
100
AcDbArc
 50
270.039273
 51
0.039273
  0
ARC
  5
A5A3
330
A78D
100
AcDbEntity
  8
A733_ストリートファニチャ
 62
     7
370
     9
100
AcDbCircle
 10
192176.294689
 20
-5662.109656
 30
0.0
 40
37.038844
100
AcDbArc
 50
178.556042
 51
181.690366
  0
ARC
  5
A5A4
330
A78D
100
AcDbEntity
  8
A733_ストリートファニチャ
 62
     7
370
     9
100
AcDbCircle
 10
192144.577814
 20
-5661.068944
 30
0.0
 40
5.308787999999999
100
AcDbArc
 50
173.224149
 51
181.182172
  0
ARC
  5
A5A5
330
A78D
100
AcDbEntity
  8
A733_ストリートファニチャ
 62
     7
370
     9
100
AcDbCircle
 10
192062.011292
 20
-5561.878332
 30
0.0
 40
73.626739
100
AcDbArc
 50
90.981412
 51
92.76785
  0
ARC
  5
A5A6
330
A78D
100
AcDbEntity
  8
A733_ストリートファニチャ
 62
     7
370
     9
100
AcDbCircle
 10
192073.031444
 20
-6194.311821
 30
0.0
 40
705.0231310000001
100
AcDbArc
 50
97.013715
 51
107.209256
  0
ARC
  5
A5A7
330
A78D
100
AcDbEntity
  8
A733_ストリートファニチャ
 62
     7
370
     9
100
AcDbCircle
 10
191955.255339
 20
-5782.695979
 30
0.0
 40
277.150047
100
AcDbArc
 50
109.127393
 51
121.137112
  0
ARC
  5
A5A8
330
A78D
100
AcDbEntity
  8
A733_ストリートファニチャ
 62
     7
370
     9
100
AcDbCircle
 10
191955.255339
 20
-5782.695979
 30
0.0
 40
277.150047
100
AcDbArc
 50
121.137097
 51
122.243283
  0
ARC
  5
A5A9
330
A78D
100
AcDbEntity
  8
A733_ストリートファニチャ
 62
     7
370
     9
100
AcDbCircle
 10
191912.453045
 20
-5724.248722
 30
0.0
 40
204.939574
100
AcDbArc
 50
120.841519
 51
126.943845
  0
ARC
  5
A5AA
330
A78D
100
AcDbEntity
  8
A733_ストリートファニチャ
 62
     7
370
     9
100
AcDbCircle
 10
192139.60199
 20
-5660.506397
 30
0.0
 40
0.3038859999999999
100
AcDbArc
 50
105.426602
 51
167.639172
  0
ARC
  5
A5AB
330
A78D
100
AcDbEntity
  8
A733_ストリートファニチャ
 62
     7
370
     9
100
AcDbCircle
 10
192139.598582
 20
-5660.499234
 30
0.0
 40
0.3009409999999999
100
AcDbArc
 50
90.079175
 51
105.315366
  0
ARC
  5
A5AC
330
A78D
100
AcDbEntity
  8
A733_ストリートファニチャ
 62
     7
370
     9
100
AcDbCircle
 10
191912.453045
 20
-5724.248722
 30
0.0
 40
204.939574
100
AcDbArc
 50
126.943845
 51
149.004849
  0
ARC
  5
A5AD
330
A78D
100
AcDbEntity
  8
A733_ストリートファニチャ
 62
     7
370
     9
100
AcDbCircle
 10
191849.620542
 20
-5687.200857
 30
0.0
 40
132.000007
100
AcDbArc
 50
179.999219
 51
211.257504
  0
ARC
  5
A5AE
330
A78D
100
AcDbEntity
  8
A733_ストリートファニチャ
 62
     7
370
     9
100
AcDbCircle
 10
191849.620542
 20
-5687.200857
 30
0.0
 40
132.000007
100
AcDbArc
 50
148.740948
 51
179.999219
  0
ARC
  5
A5AF
330
A78D
100
AcDbEntity
  8
A733_ストリートファニチャ
 62
     7
370
     9
100
AcDbCircle
 10
192100.484014
 20
-6384.417497
 30
0.0
 40
897.064123
100
AcDbArc
 50
93.680112
 51
97.271115
  0
ARC
  5
A5B0
330
A78D
100
AcDbEntity
  8
A733_ストリートファニチャ
 62
     7
370
     9
100
AcDbCircle
 10
192165.095166
 20
-5029.115403
 30
0.0
 40
466.811376
100
AcDbArc
 50
269.639615
 51
271.355679
  0
ARC
  5
A5B1
330
A78D
100
AcDbEntity
  8
A733_ストリートファニチャ
 62
     7
370
     9
100
AcDbCircle
 10
191859.622276
 20
-5689.487637
 30
0.0
 40
123.054754
100
AcDbArc
 50
145.6573
 51
178.936703
  0
ARC
  5
A5B2
330
A78D
100
AcDbEntity
  8
A733_ストリートファニチャ
 62
     7
370
     9
100
AcDbCircle
 10
192176.292745
 20
-5712.296049
 30
0.0
 40
37.038844
100
AcDbArc
 50
178.315762
 51
181.450085
  0
ARC
  5
A5B3
330
A78D
100
AcDbEntity
  8
A733_ストリートファニチャ
 62
     7
370
     9
100
AcDbCircle
 10
191912.551131
 20
-5726.678481
 30
0.0
 40
187.743865
100
AcDbArc
 50
129.014874
 51
145.396374
  0
ARC
  5
A5B4
330
A78D
100
AcDbEntity
  8
A733_ストリートファニチャ
 62
     7
370
     9
100
AcDbCircle
 10
191954.975708
 20
-5779.4235
 30
0.0
 40
255.4257150000001
100
AcDbArc
 50
112.396283
 51
128.961316
  0
ARC
  5
A5B5
330
A78D
100
AcDbEntity
  8
A733_ストリートファニチャ
 62
     7
370
     9
100
AcDbCircle
 10
191952.66471
 20
-5775.732029
 30
0.0
 40
251.134355
100
AcDbArc
 50
103.881711
 51
112.229108
  0
ARC
  5
A5B6
330
A78D
100
AcDbEntity
  8
A733_ストリートファニチャ
 62
     7
370
     9
100
AcDbCircle
 10
192061.529185
 20
-6192.758814
 30
0.0
 40
682.1241890000001
100
AcDbArc
 50
97.117078
 51
104.354947
  0
ARC
  5
A5B7
330
A78D
100
AcDbEntity
  8
A733_ストリートファニチャ
 62
     7
370
     9
100
AcDbCircle
 10
191834.880785
 20
-4104.039583
 30
0.0
 40
1418.98808
100
AcDbArc
 50
275.748929
 51
279.032529
  0
ARC
  5
A5B8
330
A78D
100
AcDbEntity
  8
A733_ストリートファニチャ
 62
     7
370
     9
100
AcDbCircle
 10
192174.572658
 20
-6168.811712
 30
0.0
 40
673.6036749999999
100
AcDbArc
 50
94.797498
 51
99.995663
  0
ARC
  5
A5B9
330
A78D
100
AcDbEntity
  8
A733_ストリートファニチャ
 62
     7
370
     9
100
AcDbCircle
 10
192149.766522
 20
-6258.698123
 30
0.0
 40
762.8784020000002
100
AcDbArc
 50
89.068814
 51
90.521527
  0
ARC
  5
A5BA
330
A78D
100
AcDbEntity
  8
A733_ストリートファニチャ
 62
     7
370
     9
100
AcDbCircle
 10
191859.625686
 20
-5684.926056
 30
0.0
 40
123.054754
100
AcDbArc
 50
181.063946
 51
214.34335
  0
ARC
  5
A5BB
330
A78D
100
AcDbEntity
  8
A733_ストリートファニチャ
 62
     7
370
     9
100
AcDbCircle
 10
191912.558364
 20
-5647.724514
 30
0.0
 40
187.743865
100
AcDbArc
 50
214.60278
 51
230.98428
  0
ARC
  5
A5BC
330
A78D
100
AcDbEntity
  8
A733_ストリートファニチャ
 62
     7
370
     9
100
AcDbCircle
 10
191954.979365
 20
-5594.981859
 30
0.0
 40
255.4257150000001
100
AcDbArc
 50
231.040158
 51
247.605191
  0
ARC
  5
A5BD
330
A78D
100
AcDbEntity
  8
A733_ストリートファニチャ
 62
     7
370
     9
100
AcDbCircle
 10
191952.665656
 20
-5598.672317
 30
0.0
 40
251.134355
100
AcDbArc
 50
247.771024
 51
256.11842
  0
ARC
  5
A5BE
330
A78D
100
AcDbEntity
  8
A733_ストリートファニチャ
 62
     7
370
     9
100
AcDbCircle
 10
192061.526355
 20
-5181.641247
 30
0.0
 40
682.1241890000001
100
AcDbArc
 50
255.644757
 51
262.882626
  0
ARC
  5
A5BF
330
A78D
100
AcDbEntity
  8
A733_ストリートファニチャ
 62
     7
370
     9
100
AcDbCircle
 10
191834.878207
 20
-7270.367927
 30
0.0
 40
1418.98808
100
AcDbArc
 50
80.967786
 51
84.251385
  0
ARC
  5
A5C0
330
A78D
100
AcDbEntity
  8
A733_ストリートファニチャ
 62
     7
370
     9
100
AcDbCircle
 10
192174.573933
 20
-5205.592218
 30
0.0
 40
673.6036749999999
100
AcDbArc
 50
260.003674
 51
265.20184
  0
ARC
  5
A5C1
330
A78D
100
AcDbEntity
  8
A733_ストリートファニチャ
 62
     7
370
     9
100
AcDbCircle
 10
192149.768221
 20
-5115.708811
 30
0.0
 40
762.8784020000002
100
AcDbArc
 50
269.478192
 51
270.930905
  0
ARC
  5
A5C2
330
A78D
100
AcDbEntity
  8
A733_ストリートファニチャ
 62
     7
370
     9
100
AcDbCircle
 10
192158.228484
 20
-5678.902486
 30
0.0
 40
173.393096
100
AcDbArc
 50
269.29794
 51
270.350369
  0
ARC
  5
A5C3
330
A78D
100
AcDbEntity
  8
A733_ストリートファニチャ
 62
     7
370
     9
100
AcDbCircle
 10
192181.750957
 20
-5548.984299
 30
0.0
 40
8.932060999999999
100
AcDbArc
 50
202.691739
 51
206.240048
  0
ARC
  5
A5C4
330
A78D
100
AcDbEntity
  8
A733_ストリートファニチャ
 62
     7
370
     9
100
AcDbCircle
 10
192173.330285
 20
-5552.502088
 30
0.0
 40
0.193697
100
AcDbArc
 50
21.896298
 51
43.791623
  0
ARC
  5
A5C5
330
A78D
100
AcDbEntity
  8
A733_ストリートファニチャ
 62
     7
370
     9
100
AcDbCircle
 10
192172.661408
 20
-5552.436193
 30
0.0
 40
0.0879719999999999
100
AcDbArc
 50
103.808484
 51
152.551129
  0
ARC
  5
A5C6
330
A78D
100
AcDbEntity
  8
A733_ストリートファニチャ
 62
     7
370
     9
100
AcDbCircle
 10
192171.559046
 20
-5552.157073
 30
0.0
 40
0.9869950000000001
100
AcDbArc
 50
301.028607
 51
325.482419
  0
ARC
  5
A5C7
330
A78D
100
AcDbEntity
  8
A733_ストリートファニチャ
 62
     7
370
     9
100
AcDbCircle
 10
192171.66277
 20
-5552.215697
 30
0.0
 40
0.8839070000000003
100
AcDbArc
 50
263.262295
 51
298.364819
  0
ARC
  5
A5C8
330
A78D
100
AcDbEntity
  8
A733_ストリートファニチャ
 62
     7
370
     9
100
AcDbCircle
 10
192178.028555
 20
-5817.633371
 30
0.0
 40
2.000277
100
AcDbArc
 50
270.066861
 51
0.029156
  0
ARC
  5
A5C9
330
A78D
100
AcDbEntity
  8
A733_ストリートファニチャ
 62
     7
370
     9
100
AcDbCircle
 10
192217.124868
 20
-5505.443986
 30
0.0
 40
24.485772
100
AcDbArc
 50
0.387158
 51
10.853436
  0
ARC
  5
A5CA
330
A78D
100
AcDbEntity
  8
A733_ストリートファニチャ
 62
     7
370
     9
100
AcDbCircle
 10
192228.930729
 20
-5505.47553
 30
0.0
 40
12.677203
100
AcDbArc
 50
0.930524
 51
24.237714
  0
ARC
  5
A5CB
330
A78D
100
AcDbEntity
  8
A733_ストリートファニチャ
 62
     7
370
     9
100
AcDbCircle
 10
192228.428552
 20
-5505.738427
 30
0.0
 40
13.242601
100
AcDbArc
 50
24.378766
 51
42.930127
  0
ARC
  5
A5CC
330
A78D
100
AcDbEntity
  8
A733_ストリートファニチャ
 62
     7
370
     9
100
AcDbCircle
 10
192248.134906
 20
-5486.690608
 30
0.0
 40
14.16988
100
AcDbArc
 50
219.893063
 51
225.061429
  0
ARC
  5
A5CD
330
A78D
100
AcDbEntity
  8
A733_ストリートファニチャ
 62
     7
370
     9
100
AcDbCircle
 10
192237.520482
 20
-5495.256945
 30
0.0
 40
0.498942
100
AcDbArc
 50
247.151685
 51
269.760327
  0
ARC
  5
A5CE
330
A78D
100
AcDbEntity
  8
A733_ストリートファニチャ
 62
     7
370
     9
100
AcDbCircle
 10
192237.520482
 20
-5495.256945
 30
0.0
 40
0.5010740000000001
100
AcDbArc
 50
237.61076
 51
247.153073
  0
ARC
  5
A5CF
330
A78D
100
AcDbEntity
  8
A733_ストリートファニチャ
 62
     7
370
     9
100
AcDbCircle
 10
192175.067977
 20
-5495.709122
 30
0.0
 40
57.490714
100
AcDbArc
 50
266.489285
 51
272.185651
  0
ARC
  5
A5D0
330
A78D
100
AcDbEntity
  8
A733_ストリートファニチャ
 62
     7
370
     9
100
AcDbCircle
 10
192174.18694
 20
-5552.708726
 30
0.0
 40
0.500978
100
AcDbArc
 50
206.400586
 51
257.513455
  0
ARC
  5
A5D1
330
A78D
100
AcDbEntity
  8
A733_ストリートファニチャ
 62
     7
370
     9
100
AcDbCircle
 10
192247.773868
 20
-5497.555754
 30
0.0
 40
6.478691999999999
100
AcDbArc
 50
163.876675
 51
178.835278
  0
ARC
  5
A5D2
330
A78D
100
AcDbEntity
  8
A733_ストリートファニチャ
 62
     7
370
     9
100
AcDbCircle
 10
192244.034498
 20
-5494.704691
 30
0.0
 40
0.5036359999999999
100
AcDbArc
 50
57.867337
 51
90.324338
  0
ARC
  5
A5D3
330
A78D
100
AcDbEntity
  8
A733_ストリートファニチャ
 62
     7
370
     9
100
AcDbCircle
 10
192312.513126
 20
-5501.758161
 30
0.0
 40
71.35018100000002
100
AcDbArc
 50
176.515042
 51
179.250973
  0
ARC
  5
A5D4
330
A78D
100
AcDbEntity
  8
A733_ストリートファニチャ
 62
     7
370
     9
100
AcDbCircle
 10
192244.024566
 20
-5494.708131
 30
0.0
 40
0.5045609999999999
100
AcDbArc
 50
7.508145
 51
57.841611
  0
ARC
  5
A5D5
330
A78D
100
AcDbEntity
  8
A733_ストリートファニチャ
 62
     7
370
     9
100
AcDbCircle
 10
192146.157795
 20
-5850.203823
 30
0.0
 40
1.0
100
AcDbArc
 50
179.402432
 51
269.94624
  0
ARC
  5
A5D6
330
A78D
100
AcDbEntity
  8
A733_ストリートファニチャ
 62
     7
370
     9
100
AcDbCircle
 10
192239.20438
 20
-5493.71443
 30
0.0
 40
0.494475
100
AcDbArc
 50
240.616009
 51
269.933057
  0
ARC
  5
A5D7
330
A78D
100
AcDbEntity
  8
A733_ストリートファニチャ
 62
     7
370
     9
100
AcDbCircle
 10
192235.156654
 20
-5491.881309
 30
0.0
 40
4.3423
100
AcDbArc
 50
299.025143
 51
318.628613
  0
ARC
  5
A5D8
330
A78D
100
AcDbEntity
  8
A733_ストリートファニチャ
 62
     7
370
     9
100
AcDbCircle
 10
192226.012452
 20
-5483.59427
 30
0.0
 40
16.673537
100
AcDbArc
 50
317.991208
 51
320.722592
  0
ARC
  5
A5D9
330
A78D
100
AcDbEntity
  8
A733_ストリートファニチャ
 62
     7
370
     9
100
AcDbCircle
 10
192237.337439
 20
-5495.713346
 30
0.0
 40
0.1019999999999999
100
AcDbArc
 50
183.328107
 51
223.18121
  0
ARC
  5
A5DA
330
A78D
100
AcDbEntity
  8
A733_ストリートファニチャ
 62
     7
370
     9
100
AcDbCircle
 10
192146.484468
 20
-5822.203659
 30
0.0
 40
1.0
100
AcDbArc
 50
89.94624
 51
179.15347
  0
ARC
  5
A5DB
330
A78D
100
AcDbEntity
  8
A733_ストリートファニチャ
 62
     7
370
     9
100
AcDbCircle
 10
192156.76194
 20
-5851.700806
 30
0.0
 40
0.5
100
AcDbArc
 50
359.94624
 51
89.94624
  0
ARC
  5
A5DC
330
A78D
100
AcDbEntity
  8
A733_ストリートファニチャ
 62
     7
370
     9
100
AcDbCircle
 10
192179.346147
 20
-5850.204744
 30
0.0
 40
1.0
100
AcDbArc
 50
269.94624
 51
359.835492
  0
ARC
  5
A5DD
330
A78D
100
AcDbEntity
  8
A733_ストリートファニチャ
 62
     7
370
     9
100
AcDbCircle
 10
192179.392488
 20
-5822.203411
 30
0.0
 40
1.0
100
AcDbArc
 50
359.868771
 51
89.94624
  0
ARC
  5
A5DE
330
A78D
100
AcDbEntity
  8
A733_ストリートファニチャ
 62
     7
370
     9
100
AcDbCircle
 10
192174.559432
 20
-5851.705818
 30
0.0
 40
0.5
100
AcDbArc
 50
89.94624
 51
179.94624
  0
LINE
  5
A5DF
330
A78D
100
AcDbEntity
  8
A733_ストリートファニチャ
 62
     7
370
     9
100
AcDbLine
 10
192289.532392
 20
-5862.857948
 30
0.0
 11
192243.972648
 21
-5864.833871
 31
0.0
  0
LINE
  5
A5E0
330
A78D
100
AcDbEntity
  8
A733_ストリートファニチャ
 62
     7
370
     9
100
AcDbLine
 10
192289.532392
 20
-5511.546506
 30
0.0
 11
192289.532392
 21
-5862.857948
 31
0.0
  0
LINE
  5
A5E1
330
A78D
100
AcDbEntity
  8
A733_ストリートファニチャ
 62
     7
370
     9
100
AcDbLine
 10
187709.532362
 20
-1096.298876
 30
0.0
 11
188059.532392
 21
-1096.298876
 31
0.0
  0
LINE
  5
A5E2
330
A78D
100
AcDbEntity
  8
A733_ストリートファニチャ
 62
     7
370
     9
100
AcDbLine
 10
187709.532362
 20
-1596.299104
 30
0.0
 11
188059.532392
 21
-1596.299104
 31
0.0
  0
LINE
  5
A5E3
330
A78D
100
AcDbEntity
  8
A733_ストリートファニチャ
 62
     7
370
     9
100
AcDbLine
 10
187659.532301
 20
-1546.299043
 30
0.0
 11
187659.532301
 21
-1146.298937
 31
0.0
  0
LINE
  5
A5E4
330
A78D
100
AcDbEntity
  8
A733_ストリートファニチャ
 62
     7
370
     9
100
AcDbLine
 10
188059.532392
 20
-979.974528
 30
0.0
 11
188059.532392
 21
-1712.623452
 31
0.0
  0
CIRCLE
  5
A5E5
330
A78D
100
AcDbEntity
  8
A733_ストリートファニチャ
 62
     7
370
     9
100
AcDbCircle
 10
187919.532469
 20
-1346.298769
 30
0.0
 40
30.0
  0
ARC
  5
A5E6
330
A78D
100
AcDbEntity
  8
A733_ストリートファニチャ
 62
     7
370
     9
100
AcDbCircle
 10
187709.532362
 20
-1146.298937
 30
0.0
 40
50.000004
100
AcDbArc
 50
89.999847
 51
180.000046
  0
ARC
  5
A5E7
330
A78D
100
AcDbEntity
  8
A733_ストリートファニチャ
 62
     7
370
     9
100
AcDbCircle
 10
187709.532362
 20
-1546.299043
 30
0.0
 40
50.000004
100
AcDbArc
 50
180.000046
 51
270.0
  0
LINE
  5
A5E8
330
A78D
100
AcDbEntity
  8
A733_ストリートファニチャ
 62
     7
370
     9
100
AcDbLine
 10
188059.532392
 20
-1712.623452
 30
0.0
 11
188209.532392
 21
-1712.623452
 31
0.0
  0
LINE
  5
A5E9
330
A78D
100
AcDbEntity
  8
A733_ストリートファニチャ
 62
     7
370
     9
100
AcDbLine
 10
188209.532392
 20
-1712.623452
 30
0.0
 11
188209.532392
 21
-979.974528
 31
0.0
  0
LINE
  5
A5EA
330
A78D
100
AcDbEntity
  8
A733_ストリートファニチャ
 62
     7
370
     9
100
AcDbLine
 10
188209.532392
 20
-979.974528
 30
0.0
 11
188059.532392
 21
-979.974528
 31
0.0
  0
LINE
  5
A5EB
330
A78D
100
AcDbEntity
  8
A733_ストリートファニチャ
 62
     7
370
     9
100
AcDbLine
 10
188909.532423
 20
-1096.298876
 30
0.0
 11
188559.532392
 21
-1096.298876
 31
0.0
  0
LINE
  5
A5EC
330
A78D
100
AcDbEntity
  8
A733_ストリートファニチャ
 62
     7
370
     9
100
AcDbLine
 10
188909.532423
 20
-1596.299104
 30
0.0
 11
188559.532392
 21
-1596.299104
 31
0.0
  0
LINE
  5
A5ED
330
A78D
100
AcDbEntity
  8
A733_ストリートファニチャ
 62
     7
370
     9
100
AcDbLine
 10
188959.532484
 20
-1546.299043
 30
0.0
 11
188959.532484
 21
-1146.298937
 31
0.0
  0
LINE
  5
A5EE
330
A78D
100
AcDbEntity
  8
A733_ストリートファニチャ
 62
     7
370
     9
100
AcDbLine
 10
188559.532392
 20
-979.974528
 30
0.0
 11
188559.532392
 21
-1712.623452
 31
0.0
  0
CIRCLE
  5
A5EF
330
A78D
100
AcDbEntity
  8
A733_ストリートファニチャ
 62
     7
370
     9
100
AcDbCircle
 10
188699.532316
 20
-1346.298769
 30
0.0
 40
30.0
  0
ARC
  5
A5F0
330
A78D
100
AcDbEntity
  8
A733_ストリートファニチャ
 62
     7
370
     9
100
AcDbCircle
 10
188909.532423
 20
-1146.298937
 30
0.0
 40
50.000004
100
AcDbArc
 50
359.999954
 51
90.000153
  0
ARC
  5
A5F1
330
A78D
100
AcDbEntity
  8
A733_ストリートファニチャ
 62
     7
370
     9
100
AcDbCircle
 10
188909.532423
 20
-1546.299043
 30
0.0
 40
50.000004
100
AcDbArc
 50
270.0
 51
359.999954
  0
LINE
  5
A5F2
330
A78D
100
AcDbEntity
  8
A733_ストリートファニチャ
 62
     7
370
     9
100
AcDbLine
 10
188559.532392
 20
-1712.623452
 30
0.0
 11
188409.532392
 21
-1712.623452
 31
0.0
  0
LINE
  5
A5F3
330
A78D
100
AcDbEntity
  8
A733_ストリートファニチャ
 62
     7
370
     9
100
AcDbLine
 10
188409.532392
 20
-1712.623452
 30
0.0
 11
188409.532392
 21
-979.974528
 31
0.0
  0
LINE
  5
A5F4
330
A78D
100
AcDbEntity
  8
A733_ストリートファニチャ
 62
     7
370
     9
100
AcDbLine
 10
188409.532392
 20
-979.974528
 30
0.0
 11
188559.532392
 21
-979.974528
 31
0.0
  0
LINE
  5
A5F5
330
A78D
100
AcDbEntity
  8
A733_ストリートファニチャ
 62
     7
370
     9
100
AcDbLine
 10
182809.719434
 20
-6209.974528
 30
0.0
 11
185509.719434
 21
-6209.974528
 31
0.0
  0
LINE
  5
A5F6
330
A78D
100
AcDbEntity
  8
A733_ストリートファニチャ
 62
     7
370
     9
100
AcDbLine
 10
185509.719434
 20
-6109.974528
 30
0.0
 11
185509.719434
 21
-6209.974528
 31
0.0
  0
LINE
  5
A5F7
330
A78D
100
AcDbEntity
  8
A733_ストリートファニチャ
 62
     7
370
     9
100
AcDbLine
 10
182509.532392
 20
-979.974528
 30
0.0
 11
182509.532392
 21
-5039.974528
 31
0.0
  0
LINE
  5
A5F8
330
A78D
100
AcDbEntity
  8
A733_ストリートファニチャ
 62
     7
370
     9
100
AcDbLine
 10
181909.532392
 20
-2809.974528
 30
0.0
 11
181959.532392
 21
-2809.974528
 31
0.0
  0
LINE
  5
A5F9
330
A78D
100
AcDbEntity
  8
A733_ストリートファニチャ
 62
     7
370
     9
100
AcDbLine
 10
181959.532392
 20
-2809.974528
 30
0.0
 11
181959.532392
 21
-2209.974528
 31
0.0
  0
LINE
  5
A5FA
330
A78D
100
AcDbEntity
  8
A733_ストリートファニチャ
 62
     7
370
     9
100
AcDbLine
 10
181959.532392
 20
-2209.974528
 30
0.0
 11
181909.532392
 21
-2209.974528
 31
0.0
  0
LINE
  5
A5FB
330
A78D
100
AcDbEntity
  8
A733_ストリートファニチャ
 62
     7
370
     9
100
AcDbLine
 10
181909.532392
 20
-2209.974528
 30
0.0
 11
181909.532392
 21
-2809.974528
 31
0.0
  0
LINE
  5
A5FC
330
A78D
100
AcDbEntity
  8
A733_ストリートファニチャ
 62
     7
370
     9
100
AcDbLine
 10
181909.532392
 20
-1809.974528
 30
0.0
 11
181959.532392
 21
-1809.974528
 31
0.0
  0
LINE
  5
A5FD
330
A78D
100
AcDbEntity
  8
A733_ストリートファニチャ
 62
     7
370
     9
100
AcDbLine
 10
181959.532392
 20
-1809.974528
 30
0.0
 11
181959.532392
 21
-1209.974528
 31
0.0
  0
LINE
  5
A5FE
330
A78D
100
AcDbEntity
  8
A733_ストリートファニチャ
 62
     7
370
     9
100
AcDbLine
 10
181959.532392
 20
-1209.974528
 30
0.0
 11
181909.532392
 21
-1209.974528
 31
0.0
  0
LINE
  5
A5FF
330
A78D
100
AcDbEntity
  8
A733_ストリートファニチャ
 62
     7
370
     9
100
AcDbLine
 10
181909.532392
 20
-1209.974528
 30
0.0
 11
181909.532392
 21
-1809.974528
 31
0.0
  0
LINE
  5
A600
330
A78D
100
AcDbEntity
  8
A733_ストリートファニチャ
 62
     7
370
     9
100
AcDbLine
 10
181909.532392
 20
-3809.974528
 30
0.0
 11
181959.532392
 21
-3809.974528
 31
0.0
  0
LINE
  5
A601
330
A78D
100
AcDbEntity
  8
A733_ストリートファニチャ
 62
     7
370
     9
100
AcDbLine
 10
181959.532392
 20
-3809.974528
 30
0.0
 11
181959.532392
 21
-3209.974528
 31
0.0
  0
LINE
  5
A602
330
A78D
100
AcDbEntity
  8
A733_ストリートファニチャ
 62
     7
370
     9
100
AcDbLine
 10
181959.532392
 20
-3209.974528
 30
0.0
 11
181909.532392
 21
-3209.974528
 31
0.0
  0
LINE
  5
A603
330
A78D
100
AcDbEntity
  8
A733_ストリートファニチャ
 62
     7
370
     9
100
AcDbLine
 10
181909.532392
 20
-3209.974528
 30
0.0
 11
181909.532392
 21
-3809.974528
 31
0.0
  0
LINE
  5
A604
330
A78D
100
AcDbEntity
  8
A733_ストリートファニチャ
 62
     7
370
     9
100
AcDbLine
 10
181909.532392
 20
-4809.974528
 30
0.0
 11
181959.532392
 21
-4809.974528
 31
0.0
  0
LINE
  5
A605
330
A78D
100
AcDbEntity
  8
A733_ストリートファニチャ
 62
     7
370
     9
100
AcDbLine
 10
181959.532392
 20
-4809.974528
 30
0.0
 11
181959.532392
 21
-4209.974528
 31
0.0
  0
LINE
  5
A606
330
A78D
100
AcDbEntity
  8
A733_ストリートファニチャ
 62
     7
370
     9
100
AcDbLine
 10
181959.532392
 20
-4209.974528
 30
0.0
 11
181909.532392
 21
-4209.974528
 31
0.0
  0
LINE
  5
A607
330
A78D
100
AcDbEntity
  8
A733_ストリートファニチャ
 62
     7
370
     9
100
AcDbLine
 10
191809.532392
 20
-979.974528
 30
0.0
 11
191809.532392
 21
-5039.974528
 31
0.0
  0
LINE
  5
A608
330
A78D
100
AcDbEntity
  8
A733_ストリートファニチャ
 62
     7
370
     9
100
AcDbLine
 10
192409.532392
 20
-2809.974528
 30
0.0
 11
192359.532392
 21
-2809.974528
 31
0.0
  0
LINE
  5
A609
330
A78D
100
AcDbEntity
  8
A733_ストリートファニチャ
 62
     7
370
     9
100
AcDbLine
 10
192359.532392
 20
-2809.974528
 30
0.0
 11
192359.532392
 21
-2209.974528
 31
0.0
  0
LINE
  5
A60A
330
A78D
100
AcDbEntity
  8
A733_ストリートファニチャ
 62
     7
370
     9
100
AcDbLine
 10
192359.532392
 20
-2209.974528
 30
0.0
 11
192409.532392
 21
-2209.974528
 31
0.0
  0
LINE
  5
A60B
330
A78D
100
AcDbEntity
  8
A733_ストリートファニチャ
 62
     7
370
     9
100
AcDbLine
 10
192409.532392
 20
-2209.974528
 30
0.0
 11
192409.532392
 21
-2809.974528
 31
0.0
  0
LINE
  5
A60C
330
A78D
100
AcDbEntity
  8
A733_ストリートファニチャ
 62
     7
370
     9
100
AcDbLine
 10
192409.532392
 20
-1809.974528
 30
0.0
 11
192359.532392
 21
-1809.974528
 31
0.0
  0
LINE
  5
A60D
330
A78D
100
AcDbEntity
  8
A733_ストリートファニチャ
 62
     7
370
     9
100
AcDbLine
 10
192359.532392
 20
-1809.974528
 30
0.0
 11
192359.532392
 21
-1209.974528
 31
0.0
  0
LINE
  5
A60E
330
A78D
100
AcDbEntity
  8
A733_ストリートファニチャ
 62
     7
370
     9
100
AcDbLine
 10
192359.532392
 20
-1209.974528
 30
0.0
 11
192409.532392
 21
-1209.974528
 31
0.0
  0
LINE
  5
A60F
330
A78D
100
AcDbEntity
  8
A733_ストリートファニチャ
 62
     7
370
     9
100
AcDbLine
 10
192409.532392
 20
-1209.974528
 30
0.0
 11
192409.532392
 21
-1809.974528
 31
0.0
  0
LINE
  5
A610
330
A78D
100
AcDbEntity
  8
A733_ストリートファニチャ
 62
     7
370
     9
100
AcDbLine
 10
192409.532392
 20
-3809.974528
 30
0.0
 11
192359.532392
 21
-3809.974528
 31
0.0
  0
LINE
  5
A611
330
A78D
100
AcDbEntity
  8
A733_ストリートファニチャ
 62
     7
370
     9
100
AcDbLine
 10
192359.532392
 20
-3809.974528
 30
0.0
 11
192359.532392
 21
-3209.974528
 31
0.0
  0
LINE
  5
A612
330
A78D
100
AcDbEntity
  8
A733_ストリートファニチャ
 62
     7
370
     9
100
AcDbLine
 10
192359.532392
 20
-3209.974528
 30
0.0
 11
192409.532392
 21
-3209.974528
 31
0.0
  0
LINE
  5
A613
330
A78D
100
AcDbEntity
  8
A733_ストリートファニチャ
 62
     7
370
     9
100
AcDbLine
 10
192409.532392
 20
-3209.974528
 30
0.0
 11
192409.532392
 21
-3809.974528
 31
0.0
  0
LINE
  5
A614
330
A78D
100
AcDbEntity
  8
A733_ストリートファニチャ
 62
     7
370
     9
100
AcDbLine
 10
192409.532392
 20
-4809.974528
 30
0.0
 11
192359.532392
 21
-4809.974528
 31
0.0
  0
LINE
  5
A615
330
A78D
100
AcDbEntity
  8
A733_ストリートファニチャ
 62
     7
370
     9
100
AcDbLine
 10
192359.532392
 20
-4809.974528
 30
0.0
 11
192359.532392
 21
-4209.974528
 31
0.0
  0
LINE
  5
A616
330
A78D
100
AcDbEntity
  8
A733_ストリートファニチャ
 62
     7
370
     9
100
AcDbLine
 10
192359.532392
 20
-4209.974528
 30
0.0
 11
192409.532392
 21
-4209.974528
 31
0.0
  0
LINE
  5
A617
330
A78D
100
AcDbEntity
  8
A733_ストリートファニチャ
 62
     7
370
     9
100
AcDbLine
 10
192409.532392
 20
-4209.974528
 30
0.0
 11
192409.532392
 21
-4809.974528
 31
0.0
  0
HATCH
  5
A618
330
A78D
100
AcDbEntity
  8
A733_ストリートファニチャ
 62
     7
370
     9
100
AcDbHatch
 10
0.0
 20
0.0
 30
0.0
210
0.0
220
0.0
230
1.0
  2
SOLID
 70
     1
 71
     0
 91
        1
 92
        3
 72
     1
 73
     1
 93
        8
 10
182709.5323917606
 20
-779.9745276637841
 42
0.0
 10
181809.5323917606
 20
-779.9745276637841
 42
0.4142135623730951
 10
181709.5323917606
 20
-879.9745276637841
 42
0.0
 10
181709.5323917606
 20
-3137.974527663784
 42
0.0
 10
181909.5323917606
 20
-3137.974527663784
 42
0.0
 10
181909.5323917606
 20
-1029.974527663784
 42
-0.4142135623730951
 10
181959.5323917606
 20
-979.9745276637841
 42
0.0
 10
182709.5323917606
 20
-979.9745276637841
 42
0.0
 97
        0
 75
     0
 76
     1
 98
        1
 10
0.0
 20
0.0
450
        0
451
        0
460
0.0
461
0.0
452
        0
462
0.0
453
        0
470

  0
LINE
  5
A621
330
A78D
100
AcDbEntity
  8
A733_ストリートファニチャ
 62
     7
370
    13
100
AcDbLine
 10
186759.345351
 20
-5039.974528
 30
0.0
 11
186759.345351
 21
-4339.974528
 31
0.0
  0
HATCH
  5
A622
330
A78D
100
AcDbEntity
  8
A733_ストリートファニチャ
 62
     7
370
     9
100
AcDbHatch
 10
0.0
 20
0.0
 30
0.0
210
0.0
220
0.0
230
1.0
  2
SOLID
 70
     1
 71
     0
 91
        1
 92
        3
 72
     0
 73
     1
 93
       16
 10
181680.2233327606
 20
-7279.974527663783
 10
181680.2233327606
 20
-6937.974527663785
 10
181709.5323917606
 20
-6937.974527663785
 10
181709.5323917606
 20
-4537.974527663783
 10
181909.5323917606
 20
-4537.974527663783
 10
181909.5323917606
 20
-5039.974527663784
 10
186759.3453507606
 20
-5039.974527663784
 10
186759.3453507606
 20
-5239.974527663784
 10
186609.5323917606
 20
-5239.974527663784
 10
186609.5323917606
 20
-6331.974527663784
 10
186409.5323917606
 20
-6331.974527663784
 10
186409.5323917606
 20
-5239.974527663784
 10
181909.5323917606
 20
-5239.974527663784
 10
181909.5323917606
 20
-7079.974527663783
 10
186609.5323917606
 20
-7079.974527663783
 10
186609.5323917606
 20
-7279.974527663783
 97
        0
 75
     0
 76
     1
 98
        1
 10
0.0
 20
0.0
450
        0
451
        0
460
0.0
461
0.0
452
        0
462
0.0
453
        0
470

  0
HATCH
  5
A633
330
A78D
100
AcDbEntity
  8
A733_ストリートファニチャ
 62
     7
370
     9
100
AcDbHatch
 10
0.0
 20
0.0
 30
0.0
210
0.0
220
0.0
230
1.0
  2
SOLID
 70
     1
 71
     0
 91
        1
 92
        3
 72
     0
 73
     1
 93
        8
 10
188209.5323917606
 20
-1846.974527663772
 10
188209.5323917606
 20
-979.9745276637841
 10
185579.5323917606
 20
-979.9745276637841
 10
185579.5323917606
 20
-779.9745276637841
 10
188739.5323917606
 20
-779.9745276637841
 10
188739.5323917606
 20
-979.9745276637841
 10
188409.5323917606
 20
-979.9745276637841
 10
188409.5323917606
 20
-1846.974527663772
 97
        0
 75
     0
 76
     1
 98
        1
 10
0.0
 20
0.0
450
        0
451
        0
460
0.0
461
0.0
452
        0
462
0.0
453
        0
470

  0
LINE
  5
A63C
330
A78D
100
AcDbEntity
  8
A733_ストリートファニチャ
 62
     7
370
     9
100
AcDbLine
 10
188309.532392
 20
-3320.189762
 30
0.0
 11
188409.532392
 21
-3320.189762
 31
0.0
  0
SOLID
  5
A63D
330
A78D
100
AcDbEntity
  8
A733_ストリートファニチャ
 62
     7
370
     9
100
AcDbTrace
 10
188409.532392
 20
-1846.974528
 30
0.0
 11
188309.532392
 21
-1846.974528
 31
0.0
 12
188409.532392
 22
-3320.189762
 32
0.0
 13
188309.532392
 23
-3320.189762
 33
0.0
  0
SOLID
  5
A63E
330
A78D
100
AcDbEntity
  8
A733_ストリートファニチャ
 62
     7
370
     9
100
AcDbTrace
 10
-188409.532392
 20
-3320.189762
 30
0.0
 11
-188059.532392
 21
-3320.189762
 31
0.0
 12
-188409.532392
 22
-3420.189762
 32
0.0
 13
-188059.532392
 23
-3420.189762
 33
0.0
210
0.0
220
0.0
230
-1.0
  0
SOLID
  5
A63F
330
A78D
100
AcDbEntity
  8
A733_ストリートファニチャ
 62
     7
370
     9
100
AcDbTrace
 10
-188409.532392
 20
-3776.29363
 30
0.0
 11
-188309.532392
 21
-3776.29363
 31
0.0
 12
-188409.532392
 22
-3420.189762
 32
0.0
 13
-188309.532392
 23
-3420.189762
 33
0.0
210
0.0
220
0.0
230
-1.0
  0
SOLID
  5
A640
330
A78D
100
AcDbEntity
  8
A733_ストリートファニチャ
 62
     7
370
     9
100
AcDbTrace
 10
-186459.532392
 20
-3320.189762
 30
0.0
 11
-186859.532392
 21
-3320.189762
 31
0.0
 12
-186459.532392
 22
-3420.189762
 32
0.0
 13
-186859.532392
 23
-3420.189762
 33
0.0
210
0.0
220
0.0
230
-1.0
  0
SOLID
  5
A641
330
A78D
100
AcDbEntity
  8
A733_ストリートファニチャ
 62
     7
370
     9
100
AcDbTrace
 10
186559.532392
 20
-3420.189762
 30
0.0
 11
186459.532392
 21
-3420.189762
 31
0.0
 12
186559.532392
 22
-5039.974528
 32
0.0
 13
186459.532392
 23
-5039.974528
 33
0.0
  0
SOLID
  5
A642
330
A78D
100
AcDbEntity
  8
A733_ストリートファニチャ
 62
     7
370
     9
100
AcDbTrace
 10
-187959.345351
 20
-5039.974528
 30
0.0
 11
-192409.532392
 21
-5039.974528
 31
0.0
 12
-187959.345351
 22
-5239.974528
 32
0.0
 13
-192409.532392
 23
-5239.974528
 33
0.0
210
0.0
220
0.0
230
-1.0
  0
HATCH
  5
A643
330
A78D
100
AcDbEntity
  8
A733_ストリートファニチャ
 62
     7
370
     9
100
AcDbHatch
 10
0.0
 20
0.0
 30
0.0
210
0.0
220
0.0
230
1.0
  2
SOLID
 70
     1
 71
     0
 91
        1
 92
        3
 72
     1
 73
     1
 93
        8
 10
192509.5323917606
 20
-779.9745276637841
 42
-0.4142135623730951
 10
192609.5323917606
 20
-879.9745276637841
 42
0.0
 10
192609.5323917606
 20
-2070.589394663787
 42
0.0
 10
192409.5323917606
 20
-2070.589394663787
 42
0.0
 10
192409.5323917606
 20
-1029.974527663784
 42
0.4142135623730951
 10
192359.5323917606
 20
-979.9745276637841
 42
0.0
 10
191609.5323917606
 20
-979.9745276637841
 42
0.0
 10
191609.5323917606
 20
-779.9745276637841
 42
0.0
 97
        0
 75
     0
 76
     1
 98
        1
 10
0.0
 20
0.0
450
        0
451
        0
460
0.0
461
0.0
452
        0
462
0.0
453
        0
470

  0
SOLID
  5
A64C
330
A78D
100
AcDbEntity
  8
A733_ストリートファニチャ
 62
     7
370
     9
100
AcDbTrace
 10
-188309.532392
 20
-4976.29363
 30
0.0
 11
-188409.532392
 21
-4976.29363
 31
0.0
 12
-188309.532392
 22
-5039.974528
 32
0.0
 13
-188409.532392
 23
-5039.974528
 33
0.0
210
0.0
220
0.0
230
-1.0
  0
SOLID
  5
A64D
330
A78D
100
AcDbEntity
  8
A733_ストリートファニチャ
 62
     7
370
     9
100
AcDbTrace
 10
192609.532392
 20
-3870.589395
 30
0.0
 11
192409.532392
 21
-3870.589395
 31
0.0
 12
192609.532392
 22
-5239.974528
 32
0.0
 13
192409.532392
 23
-5239.974528
 33
0.0
  0
POINT
  5
A650
330
A78D
100
AcDbEntity
  8
A733_ストリートファニチャ
 62
     7
370
     9
100
AcDbPoint
 10
192791.032392
 20
-4556.974528
 30
0.0
 50
-90.0
  0
SOLID
  5
A651
330
A78D
100
AcDbEntity
  8
A733_ストリートファニチャ
 62
     7
370
     9
100
AcDbTrace
 10
-188209.532392
 20
-6139.974528
 30
0.0
 11
-188409.532392
 21
-6139.974528
 31
0.0
 12
-188209.532392
 22
-5239.974528
 32
0.0
 13
-188409.532392
 23
-5239.974528
 33
0.0
210
0.0
220
0.0
230
-1.0
  0
SOLID
  5
A652
330
A78D
100
AcDbEntity
  8
A733_ストリートファニチャ
 62
     7
370
     9
100
AcDbTrace
 10
190184.532392
 20
-5239.974528
 30
0.0
 11
190334.532392
 21
-5239.974528
 31
0.0
 12
190184.532392
 22
-6339.974528
 32
0.0
 13
190334.532392
 23
-6339.974528
 33
0.0
  0
SOLID
  5
A653
330
A78D
100
AcDbEntity
  8
A733_ストリートファニチャ
 62
     7
370
     9
100
AcDbTrace
 10
-190334.532392
 20
-6939.974528
 30
0.0
 11
-190184.532392
 21
-6939.974528
 31
0.0
 12
-190334.532392
 22
-7079.974528
 32
0.0
 13
-190184.532392
 23
-7079.974528
 33
0.0
210
0.0
220
0.0
230
-1.0
  0
SOLID
  5
A654
330
A78D
100
AcDbEntity
  8
A733_ストリートファニチャ
 62
     7
370
     9
100
AcDbTrace
 10
-189834.532392
 20
-5839.974528
 30
0.0
 11
-190184.532392
 21
-5839.974528
 31
0.0
 12
-189834.532392
 22
-5989.974528
 32
0.0
 13
-190184.532392
 23
-5989.974528
 33
0.0
210
0.0
220
0.0
230
-1.0
  0
SOLID
  5
A655
330
A78D
100
AcDbEntity
  8
A733_ストリートファニチャ
 62
     7
370
     9
100
AcDbTrace
 10
189834.532392
 20
-5239.974528
 30
0.0
 11
189759.532392
 21
-5239.974528
 31
0.0
 12
189834.532392
 22
-5989.974528
 32
0.0
 13
189759.532392
 23
-5989.974528
 33
0.0
  0
LWPOLYLINE
  5
A656
330
A78D
100
AcDbEntity
  8
枠
  6
Continuous
 62
     7
370
     9
100
AcDbPolyline
 90
        5
 70
   129
 43
0.0
 10
171873.137725
 20
-15630.845135
 10
171873.137725
 20
5369.154865
 10
201573.137725
 20
5369.154865
 10
201573.137725
 20
-15630.845135
 10
171873.137725
 20
-15630.845135
  0
LWPOLYLINE
  5
A657
330
A78D
100
AcDbEntity
  8
2階座席
  6
Continuous
 62
     7
370
    30
100
AcDbPolyline
 90
        5
 70
   129
 43
0.0
 10
172423.137725
 20
-15080.845135
 10
172423.137725
 20
4819.154865
 10
201023.137725
 20
4819.154865
 10
201023.137725
 20
-15080.845135
 10
172423.137725
 20
-15080.845135
  0
LINE
  5
A658
330
A78D
100
AcDbEntity
  8
2階座席
  6
Continuous
 62
     7
370
    30
100
AcDbLine
 10
201023.137725
 20
-14080.845135
 30
0.0
 11
172423.137725
 21
-14080.845135
 31
0.0
  0
LINE
  5
A659
330
A78D
100
AcDbEntity
  8
2階座席
  6
Continuous
 62
     7
370
    30
100
AcDbLine
 10
195023.137725
 20
-14080.845135
 30
0.0
 11
195023.137725
 21
-15080.845135
 31
0.0
  0
MTEXT
  5
A65C
330
A78D
100
AcDbEntity
  8
1階座席
  6
Continuous
 62
     7
370
     9
100
AcDbMText
 10
173238.843251
 20
-14347.5652
 30
0.0
 40
375.0
 41
0.0
 71
     1
 72
     1
  1
\H1x;\W0.866667;\T1.325;名古屋市公会堂
  7
Style-HG明朝B
 73
     2
 44
0.6
  0
LINE
  5
A65D
330
A78D
100
AcDbEntity
  8
2階座席
  6
Continuous
 62
     7
370
    30
100
AcDbLine
 10
195023.137725
 20
-14080.845135
 30
0.0
 11
195023.137725
 21
-15080.845135
 31
0.0
  0
LINE
  5
A65E
330
A78D
100
AcDbEntity
  8
2階座席
  6
Continuous
 62
     7
370
    30
100
AcDbLine
 10
192023.137725
 20
-14080.845135
 30
0.0
 11
192023.137725
 21
-15080.845135
 31
0.0
  0
LINE
  5
A65F
330
A78D
100
AcDbEntity
  8
2階座席
  6
Continuous
 62
     7
370
    13
100
AcDbLine
 10
192023.137725
 20
-14492.278615
 30
0.0
 11
195023.137725
 21
-14492.278615
 31
0.0
  0
LINE
  5
A660
330
A78D
100
AcDbEntity
  8
2階座席
  6
Continuous
 62
     7
370
    13
100
AcDbLine
 10
193523.137725
 20
-14492.278615
 30
0.0
 11
193523.137725
 21
-15080.845135
 31
0.0
  0
LINE
  5
A661
330
A78D
100
AcDbEntity
  8
2階座席
  6
DGN Style 2
 62
     7
370
     9
100
AcDbLine
 10
192023.137725
 20
-14734.959107
 30
0.0
 11
193523.137725
 21
-14734.959107
 31
0.0
  0
TEXT
  5
A662
330
A78D
100
AcDbEntity
  8
1階座席
  6
Continuous
 62
     7
370
     9
100
AcDbText
 10
192154.817948
 20
-14691.933173
 30
0.0
 40
175.0
  1
室　面　積 
 41
1.142857
  7
Style-HGSｺﾞｼｯｸM
 11
192154.817948
 21
-14516.933173
 31
0.0
100
AcDbText
 73
     3
  0
TEXT
  5
A663
330
A78D
100
AcDbEntity
  8
1階座席
  6
Continuous
 62
     7
370
     9
100
AcDbText
 10
193200.437723
 20
-15024.556036
 30
0.0
 40
200.0
  1
㎡
  7
Style-HGSｺﾞｼｯｸM
 11
193200.437723
 21
-14824.556036
 31
0.0
100
AcDbText
 73
     3
  0
LINE
  5
A664
330
A78D
100
AcDbEntity
  8
2階座席
  6
Continuous
 62
     7
370
    30
100
AcDbLine
 10
191023.137725
 20
-14080.845135
 30
0.0
 11
191023.137725
 21
-15080.845135
 31
0.0
  0
LINE
  5
A665
330
A78D
100
AcDbEntity
  8
2階座席
  6
DGN Style 2
 62
     7
370
     9
100
AcDbLine
 10
192023.137725
 20
-14492.278615
 30
0.0
 11
191023.137725
 21
-14492.278615
 31
0.0
  0
TEXT
  5
A666
330
A78D
100
AcDbEntity
  8
1階座席
  6
Continuous
 62
     7
370
     9
100
AcDbText
 10
191663.248383
 20
-14871.711928
 30
0.0
 40
175.0
  1
階
 41
1.142857
  7
Style-HGSｺﾞｼｯｸM
 11
191663.248383
 21
-14696.711928
 31
0.0
100
AcDbText
 73
     3
  0
LINE
  5
A667
330
A78D
100
AcDbEntity
  8
2階座席
  6
Continuous
 62
     7
370
    30
100
AcDbLine
 10
198523.137725
 20
-13135.797855
 30
0.0
 11
198523.137725
 21
-13385.797855
 31
0.0
  0
LINE
  5
A668
330
A78D
100
AcDbEntity
  8
2階座席
  6
Continuous
 62
     7
370
    30
100
AcDbLine
 10
188523.137725
 20
-13135.797855
 30
0.0
 11
188523.137725
 21
-13385.797855
 31
0.0
  0
LINE
  5
A669
330
A78D
100
AcDbEntity
  8
2階座席
  6
Continuous
 62
     7
370
    13
100
AcDbLine
 10
189523.137725
 20
-13135.797855
 30
0.0
 11
189523.137725
 21
-13385.797855
 31
0.0
  0
LINE
  5
A66A
330
A78D
100
AcDbEntity
  8
2階座席
  6
Continuous
 62
     7
370
    13
100
AcDbLine
 10
190523.137725
 20
-13135.797855
 30
0.0
 11
190523.137725
 21
-13385.797855
 31
0.0
  0
LINE
  5
A66B
330
A78D
100
AcDbEntity
  8
2階座席
  6
Continuous
 62
     7
370
    13
100
AcDbLine
 10
191523.137725
 20
-13135.797855
 30
0.0
 11
191523.137725
 21
-13385.797855
 31
0.0
  0
LINE
  5
A66C
330
A78D
100
AcDbEntity
  8
2階座席
  6
Continuous
 62
     7
370
    13
100
AcDbLine
 10
192523.137725
 20
-13135.797855
 30
0.0
 11
192523.137725
 21
-13385.797855
 31
0.0
  0
LINE
  5
A66D
330
A78D
100
AcDbEntity
  8
2階座席
  6
Continuous
 62
     7
370
    30
100
AcDbLine
 10
193523.137725
 20
-13135.797855
 30
0.0
 11
193523.137725
 21
-13385.797855
 31
0.0
  0
LINE
  5
A66E
330
A78D
100
AcDbEntity
  8
2階座席
  6
Continuous
 62
     7
370
    13
100
AcDbLine
 10
188523.137725
 20
-13385.797855
 30
0.0
 11
198523.137725
 21
-13385.797855
 31
0.0
  0
LINE
  5
A66F
330
A78D
100
AcDbEntity
  8
2階座席
  6
Continuous
 62
     7
370
    30
100
AcDbLine
 10
199523.137725
 20
-12580.845135
 30
0.0
 11
199523.137725
 21
-14030.845135
 31
0.0
  0
LINE
  5
A670
330
A78D
100
AcDbEntity
  8
2階座席
  6
Continuous
 62
     7
370
    30
100
AcDbLine
 10
199523.137725
 20
-12580.845135
 30
0.0
 11
200973.137725
 21
-12580.845135
 31
0.0
  0
CIRCLE
  5
A671
330
A78D
100
AcDbEntity
  8
2階座席
  6
Continuous
 62
     7
370
    30
100
AcDbCircle
 10
200273.137725
 20
-13427.21017
 30
0.0
 40
443.7228623379668
  0
LWPOLYLINE
  5
A672
330
A78D
100
AcDbEntity
  8
2階座席
  6
Continuous
 62
     7
370
    30
100
AcDbPolyline
 90
        3
 70
   128
 43
0.0
 10
200047.512725
 20
-13809.287829
 10
200273.137725
 20
-12983.487308
 10
200498.762725
 20
-13809.287829
  0
LWPOLYLINE
  5
A673
330
A78D
100
AcDbEntity
  8
2階座席
  6
Continuous
 62
     7
370
    30
100
AcDbPolyline
 90
        3
 70
   128
 43
0.0
 10
200047.512725
 20
-13809.287829
 10
200273.137725
 20
-13764.162829
 10
200498.762725
 20
-13809.287829
  0
TEXT
  5
A674
330
A78D
100
AcDbEntity
  8
1階座席
  6
Continuous
 62
     7
370
     9
100
AcDbText
 10
200167.135325
 20
-12929.913905
 30
0.0
 40
250.0
  1
N
  7
Style-HGSｺﾞｼｯｸM
 11
200167.135325
 21
-12679.913905
 31
0.0
100
AcDbText
 73
     3
  0
LINE
  5
A675
330
A78D
100
AcDbEntity
  8
2階座席
  6
Continuous
 62
     7
370
    30
100
AcDbLine
 10
200973.137725
 20
-12580.845135
 30
0.0
 11
200973.137725
 21
-14030.845135
 31
0.0
  0
LINE
  5
A676
330
A78D
100
AcDbEntity
  8
2階座席
  6
Continuous
 62
     7
370
    30
100
AcDbLine
 10
199523.137725
 20
-14030.845135
 30
0.0
 11
200973.137725
 21
-14030.845135
 31
0.0
  0
TEXT
  5
A677
330
A78D
100
AcDbEntity
  8
1階座席
  6
Continuous
 62
     7
370
     9
100
AcDbText
 10
191129.576794
 20
-14394.958595
 30
0.0
 40
175.0
  1
施設階
 41
1.142857
  7
Style-HGSｺﾞｼｯｸM
 11
191129.576794
 21
-14219.958595
 31
0.0
100
AcDbText
 73
     3
  0
TEXT
  5
A678
330
A78D
100
AcDbEntity
  8
1階座席
  6
Continuous
 62
     7
370
    30
100
AcDbText
 10
188452.071791
 20
-13075.395817
 30
0.0
 40
175.0
  1
0
 41
1.142857
  7
Style-HGSｺﾞｼｯｸM
 11
188452.071791
 21
-12900.395817
 31
0.0
100
AcDbText
 73
     3
  0
TEXT
  5
A679
330
A78D
100
AcDbEntity
  8
1階座席
  6
Continuous
 62
     7
370
    30
100
AcDbText
 10
189444.352879
 20
-13075.395817
 30
0.0
 40
175.0
  1
1
 41
1.142857
  7
Style-HGSｺﾞｼｯｸM
 11
189444.352879
 21
-12900.395817
 31
0.0
100
AcDbText
 73
     3
  0
TEXT
  5
A67A
330
A78D
100
AcDbEntity
  8
1階座席
  6
Continuous
 62
     7
370
    30
100
AcDbText
 10
190458.013361
 20
-13075.395817
 30
0.0
 40
175.0
  1
2
 41
1.142857
  7
Style-HGSｺﾞｼｯｸM
 11
190458.013361
 21
-12900.395817
 31
0.0
100
AcDbText
 73
     3
  0
TEXT
  5
A67B
330
A78D
100
AcDbEntity
  8
1階座席
  6
Continuous
 62
     7
370
    30
100
AcDbText
 10
191453.944589
 20
-13075.395817
 30
0.0
 40
175.0
  1
3
 41
1.142857
  7
Style-HGSｺﾞｼｯｸM
 11
191453.944589
 21
-12900.395817
 31
0.0
100
AcDbText
 73
     3
  0
TEXT
  5
A67C
330
A78D
100
AcDbEntity
  8
1階座席
  6
Continuous
 62
     7
370
    30
100
AcDbText
 10
192449.875816
 20
-13075.395817
 30
0.0
 40
175.0
  1
4
 41
1.142857
  7
Style-HGSｺﾞｼｯｸM
 11
192449.875816
 21
-12900.395817
 31
0.0
100
AcDbText
 73
     3
  0
TEXT
  5
A67D
330
A78D
100
AcDbEntity
  8
1階座席
  6
Continuous
 62
     7
370
    30
100
AcDbText
 10
193445.807044
 20
-13075.395817
 30
0.0
 40
175.0
  1
5
 41
1.142857
  7
Style-HGSｺﾞｼｯｸM
 11
193445.807044
 21
-12900.395817
 31
0.0
100
AcDbText
 73
     3
  0
TEXT
  5
A67E
330
A78D
100
AcDbEntity
  8
1階座席
  6
Continuous
 62
     7
370
    30
100
AcDbText
 10
198357.160544
 20
-13075.395817
 30
0.0
 40
175.0
  1
10m
 41
1.142857
  7
Style-HGSｺﾞｼｯｸM
 11
198357.160544
 21
-12900.395817
 31
0.0
100
AcDbText
 73
     3
  0
LINE
  5
A67F
330
A78D
100
AcDbEntity
  8
2階座席
  6
Continuous
 62
     7
370
     9
100
AcDbLine
 10
189023.137725
 20
-13260.797855
 30
0.0
 11
189023.137725
 21
-13385.797855
 31
0.0
  0
LINE
  5
A680
330
A78D
100
AcDbEntity
  8
2階座席
  6
Continuous
 62
     7
370
     9
100
AcDbLine
 10
190023.137725
 20
-13260.797855
 30
0.0
 11
190023.137725
 21
-13385.797855
 31
0.0
  0
LINE
  5
A681
330
A78D
100
AcDbEntity
  8
2階座席
  6
Continuous
 62
     7
370
     9
100
AcDbLine
 10
191023.137725
 20
-13260.797855
 30
0.0
 11
191023.137725
 21
-13385.797855
 31
0.0
  0
LINE
  5
A682
330
A78D
100
AcDbEntity
  8
2階座席
  6
Continuous
 62
     7
370
     9
100
AcDbLine
 10
192023.137725
 20
-13260.797855
 30
0.0
 11
192023.137725
 21
-13385.797855
 31
0.0
  0
LINE
  5
A683
330
A78D
100
AcDbEntity
  8
2階座席
  6
Continuous
 62
     7
370
     9
100
AcDbLine
 10
193023.137725
 20
-13260.797855
 30
0.0
 11
193023.137725
 21
-13385.797855
 31
0.0
  0
HATCH
  5
A684
330
A78D
100
AcDbEntity
  8
A733_ストリートファニチャ
 62
     7
370
     9
100
AcDbHatch
 10
0.0
 20
0.0
 30
0.0
210
0.0
220
0.0
230
1.0
  2
SOLID
 70
     1
 71
     0
 91
        1
 92
        3
 72
     0
 73
     1
 93
        5
 10
192409.5323917606
 20
-7079.974527663773
 10
192409.5323917606
 20
-5239.974527663784
 10
192609.5323917605
 20
-5239.974527663784
 10
192609.5323917605
 20
-6870.077124081181
 10
192609.5323917605
 20
-7079.974527663773
 97
        0
 75
     0
 76
     1
 98
        1
 10
0.0
 20
0.0
450
        0
451
        0
460
0.0
461
0.0
452
        0
462
0.0
453
        0
470

  0
SOLID
  5
A688
330
A78D
100
AcDbEntity
  8
A733_ストリートファニチャ
 62
     7
370
     9
100
AcDbTrace
 10
-192609.532392
 20
-7079.974528
 30
0.0
 11
-188209.532392
 21
-7079.974528
 31
0.0
 12
-192609.532392
 22
-7279.974528
 32
0.0
 13
-188209.532392
 23
-7279.974528
 33
0.0
210
0.0
220
0.0
230
-1.0
  0
TEXT
  5
A68B
330
A78D
100
AcDbEntity
  8
1階座席
  6
Continuous
 62
     7
370
     9
100
AcDbText
 10
186856.565688
 20
-8268.608058
 30
0.0
 40
225.0
  1
楽屋通路
  7
Style-HGSｺﾞｼｯｸM
 11
186856.565688
 21
-8043.608058
 31
0.0
100
AcDbText
 73
     3
  0
LINE
  5
A68C
330
A78D
100
AcDbEntity
  8
A231_壁：種別
 48
50.0
370
    13
100
AcDbLine
 10
185789.749006
 20
-3719.891357
 30
0.0
 11
185789.749006
 21
-2999.891357
 31
0.0
  0
LINE
  5
A68D
330
A78D
100
AcDbEntity
  8
A231_壁：種別
 48
50.0
370
    13
100
AcDbLine
 10
185229.749006
 20
-3614.891357
 30
0.0
 11
185789.749006
 21
-3614.891357
 31
0.0
  0
LINE
  5
A68E
330
A78D
100
AcDbEntity
  8
A231_壁：種別
 48
50.0
370
    13
100
AcDbLine
 10
185679.749006
 20
-3614.891357
 30
0.0
 11
185679.749006
 21
-2999.891357
 31
0.0
  0
LINE
  5
A68F
330
A78D
100
AcDbEntity
  8
A231_壁：種別
 48
50.0
370
    13
100
AcDbLine
 10
185179.749006
 20
-3719.891357
 30
0.0
 11
185179.749006
 21
-3064.891357
 31
0.0
  0
LINE
  5
A690
330
A78D
100
AcDbEntity
  8
A231_壁：種別
 48
50.0
370
    13
100
AcDbLine
 10
185179.749006
 20
-3064.891357
 30
0.0
 11
185179.749006
 21
-2999.891357
 31
0.0
  0
ARC
  5
A691
330
A78D
100
AcDbEntity
  8
A231_壁：種別
 48
50.0
370
    13
100
AcDbCircle
 10
185229.749006
 20
-3664.891357
 30
0.0
 40
50.0
100
AcDbArc
 50
90.0
 51
180.0
  0
LINE
  5
A692
330
A78D
100
AcDbEntity
  8
A231_壁：種別
 48
50.0
370
    13
100
AcDbLine
 10
185179.749006
 20
-2999.891357
 30
0.0
 11
185179.749006
 21
-2934.891357
 31
0.0
  0
LINE
  5
A693
330
A78D
100
AcDbEntity
  8
A231_壁：種別
 48
50.0
370
    13
100
AcDbLine
 10
185179.749006
 20
-2999.891357
 30
0.0
 11
185679.749006
 21
-2999.891357
 31
0.0
  0
LINE
  5
A694
330
A78D
100
AcDbEntity
  8
A231_壁：種別
 48
50.0
370
    13
100
AcDbLine
 10
185789.749006
 20
-2999.891357
 30
0.0
 11
185789.749006
 21
-2279.891357
 31
0.0
  0
LINE
  5
A695
330
A78D
100
AcDbEntity
  8
A231_壁：種別
 48
50.0
370
    13
100
AcDbLine
 10
185229.749006
 20
-2384.891357
 30
0.0
 11
185789.749006
 21
-2384.891357
 31
0.0
  0
LINE
  5
A696
330
A78D
100
AcDbEntity
  8
A231_壁：種別
 48
50.0
370
    13
100
AcDbLine
 10
185679.749006
 20
-2999.891357
 30
0.0
 11
185679.749006
 21
-2384.891357
 31
0.0
  0
LINE
  5
A697
330
A78D
100
AcDbEntity
  8
A231_壁：種別
 48
50.0
370
    13
100
AcDbLine
 10
185179.749006
 20
-2934.891357
 30
0.0
 11
185179.749006
 21
-2279.891357
 31
0.0
  0
ARC
  5
A698
330
A78D
100
AcDbEntity
  8
A231_壁：種別
 48
50.0
370
    13
100
AcDbCircle
 10
-185229.749006
 20
-2334.891357
 30
0.0
 40
50.0
210
0.0
220
0.0
230
-1.0
100
AcDbArc
 50
270.0
 51
0.0
  0
LINE
  5
A699
330
A78D
100
AcDbEntity
  8
A231_壁：種別
 48
50.0
370
    13
100
AcDbLine
 10
185179.749006
 20
-2279.891357
 30
0.0
 11
185789.749006
 21
-2279.891357
 31
0.0
  0
LINE
  5
A69A
330
A78D
100
AcDbEntity
  8
A231_壁：種別
 48
50.0
370
    13
100
AcDbLine
 10
185179.749006
 20
-3719.891357
 30
0.0
 11
185789.749006
 21
-3719.891357
 31
0.0
  0
LINE
  5
A69B
330
A78D
100
AcDbEntity
  8
A822_別途：家具
  6
Continuous
 62
     7
370
    13
100
AcDbLine
 10
184909.749006
 20
-3609.974528
 30
0.0
 11
184309.749006
 21
-3609.974528
 31
0.0
  0
LINE
  5
A69C
330
A78D
100
AcDbEntity
  8
A822_別途：家具
  6
Continuous
 62
     7
370
    13
100
AcDbLine
 10
184309.749006
 20
-3609.974528
 30
0.0
 11
184309.749006
 21
-2409.974528
 31
0.0
  0
LINE
  5
A69D
330
A78D
100
AcDbEntity
  8
A822_別途：家具
  6
Continuous
 62
     7
370
    13
100
AcDbLine
 10
184309.749006
 20
-2409.974528
 30
0.0
 11
184909.749006
 21
-2409.974528
 31
0.0
  0
LINE
  5
A69E
330
A78D
100
AcDbEntity
  8
A822_別途：家具
  6
Continuous
 62
     7
370
    13
100
AcDbLine
 10
184909.749006
 20
-2409.974528
 30
0.0
 11
184909.749006
 21
-3609.974528
 31
0.0
  0
LINE
  5
A69F
330
A78D
100
AcDbEntity
  8
A231_壁：種別
 48
50.0
370
    13
100
AcDbLine
 10
189376.17797
 20
-2423.928462
 30
0.0
 11
189441.17797
 21
-2423.928462
 31
0.0
  0
LINE
  5
A6A0
330
A78D
100
AcDbEntity
  8
A231_壁：種別
 48
50.0
370
    13
100
AcDbLine
 10
189376.17797
 20
-2423.928462
 30
0.0
 11
189376.17797
 21
-1813.928462
 31
0.0
  0
LINE
  5
A6A1
330
A78D
100
AcDbEntity
  8
A231_壁：種別
 48
50.0
370
    13
100
AcDbLine
 10
189376.17797
 20
-1813.928462
 30
0.0
 11
190106.17797
 21
-1813.928462
 31
0.0
  0
LINE
  5
A6A2
330
A78D
100
AcDbEntity
  8
A231_壁：種別
 48
50.0
370
    13
100
AcDbLine
 10
190106.17797
 20
-2423.928462
 30
0.0
 11
190106.17797
 21
-1813.928462
 31
0.0
  0
LINE
  5
A6A3
330
A78D
100
AcDbEntity
  8
A231_壁：種別
 48
50.0
370
    13
100
AcDbLine
 10
189991.17797
 20
-2373.928462
 30
0.0
 11
189991.17797
 21
-1923.928462
 31
0.0
  0
LINE
  5
A6A4
330
A78D
100
AcDbEntity
  8
A231_壁：種別
 48
50.0
370
    13
100
AcDbLine
 10
189491.17797
 20
-2373.928462
 30
0.0
 11
189491.17797
 21
-1923.928462
 31
0.0
  0
LINE
  5
A6A5
330
A78D
100
AcDbEntity
  8
A231_壁：種別
 48
50.0
370
    13
100
AcDbLine
 10
189491.17797
 20
-1923.928462
 30
0.0
 11
189991.17797
 21
-1923.928462
 31
0.0
  0
LINE
  5
A6A6
330
A78D
100
AcDbEntity
  8
A231_壁：種別
 48
50.0
370
    13
100
AcDbLine
 10
189491.17797
 20
-1923.928462
 30
0.0
 11
189376.17797
 21
-1813.928462
 31
0.0
  0
LINE
  5
A6A7
330
A78D
100
AcDbEntity
  8
A231_壁：種別
 48
50.0
370
    13
100
AcDbLine
 10
189991.17797
 20
-1923.928462
 30
0.0
 11
190106.17797
 21
-1813.928462
 31
0.0
  0
LINE
  5
A6A8
330
A78D
100
AcDbEntity
  8
A231_壁：種別
 48
50.0
370
    13
100
AcDbLine
 10
189441.17797
 20
-2423.928462
 30
0.0
 11
190041.17797
 21
-2423.928462
 31
0.0
  0
LINE
  5
A6A9
330
A78D
100
AcDbEntity
  8
A231_壁：種別
 48
50.0
370
    13
100
AcDbLine
 10
190041.17797
 20
-2423.928462
 30
0.0
 11
190106.17797
 21
-2423.928462
 31
0.0
  0
ARC
  5
A6AA
330
A78D
100
AcDbEntity
  8
A231_壁：種別
 48
50.0
370
    13
100
AcDbCircle
 10
-189441.17797
 20
-2373.928462
 30
0.0
 40
50.0
210
0.0
220
0.0
230
-1.0
100
AcDbArc
 50
180.0
 51
270.0
  0
ARC
  5
A6AB
330
A78D
100
AcDbEntity
  8
A231_壁：種別
 48
50.0
370
    13
100
AcDbCircle
 10
190041.17797
 20
-2373.928462
 30
0.0
 40
50.0
100
AcDbArc
 50
180.0
 51
270.0
  0
LINE
  5
A6AC
330
A78D
100
AcDbEntity
  8
A231_壁：種別
 48
50.0
370
    13
100
AcDbLine
 10
190106.17797
 20
-2423.928462
 30
0.0
 11
190171.17797
 21
-2423.928462
 31
0.0
  0
LINE
  5
A6AD
330
A78D
100
AcDbEntity
  8
A231_壁：種別
 48
50.0
370
    13
100
AcDbLine
 10
190106.17797
 20
-2423.928462
 30
0.0
 11
190106.17797
 21
-1813.928462
 31
0.0
  0
LINE
  5
A6AE
330
A78D
100
AcDbEntity
  8
A231_壁：種別
 48
50.0
370
    13
100
AcDbLine
 10
190106.17797
 20
-1813.928462
 30
0.0
 11
190836.17797
 21
-1813.928462
 31
0.0
  0
LINE
  5
A6AF
330
A78D
100
AcDbEntity
  8
A231_壁：種別
 48
50.0
370
    13
100
AcDbLine
 10
190836.17797
 20
-2423.928462
 30
0.0
 11
190836.17797
 21
-1813.928462
 31
0.0
  0
LINE
  5
A6B0
330
A78D
100
AcDbEntity
  8
A231_壁：種別
 48
50.0
370
    13
100
AcDbLine
 10
190721.17797
 20
-2373.928462
 30
0.0
 11
190721.17797
 21
-1923.928462
 31
0.0
  0
LINE
  5
A6B1
330
A78D
100
AcDbEntity
  8
A231_壁：種別
 48
50.0
370
    13
100
AcDbLine
 10
190221.17797
 20
-2373.928462
 30
0.0
 11
190221.17797
 21
-1923.928462
 31
0.0
  0
LINE
  5
A6B2
330
A78D
100
AcDbEntity
  8
A231_壁：種別
 48
50.0
370
    13
100
AcDbLine
 10
190221.17797
 20
-1923.928462
 30
0.0
 11
190721.17797
 21
-1923.928462
 31
0.0
  0
LINE
  5
A6B3
330
A78D
100
AcDbEntity
  8
A231_壁：種別
 48
50.0
370
    13
100
AcDbLine
 10
190221.17797
 20
-1923.928462
 30
0.0
 11
190106.17797
 21
-1813.928462
 31
0.0
  0
LINE
  5
A6B4
330
A78D
100
AcDbEntity
  8
A231_壁：種別
 48
50.0
370
    13
100
AcDbLine
 10
190721.17797
 20
-1923.928462
 30
0.0
 11
190836.17797
 21
-1813.928462
 31
0.0
  0
LINE
  5
A6B5
330
A78D
100
AcDbEntity
  8
A231_壁：種別
 48
50.0
370
    13
100
AcDbLine
 10
190171.17797
 20
-2423.928462
 30
0.0
 11
190771.17797
 21
-2423.928462
 31
0.0
  0
LINE
  5
A6B6
330
A78D
100
AcDbEntity
  8
A231_壁：種別
 48
50.0
370
    13
100
AcDbLine
 10
190771.17797
 20
-2423.928462
 30
0.0
 11
190836.17797
 21
-2423.928462
 31
0.0
  0
ARC
  5
A6B7
330
A78D
100
AcDbEntity
  8
A231_壁：種別
 48
50.0
370
    13
100
AcDbCircle
 10
-190171.17797
 20
-2373.928462
 30
0.0
 40
50.0
210
0.0
220
0.0
230
-1.0
100
AcDbArc
 50
180.0
 51
270.0
  0
ARC
  5
A6B8
330
A78D
100
AcDbEntity
  8
A231_壁：種別
 48
50.0
370
    13
100
AcDbCircle
 10
190771.17797
 20
-2373.928462
 30
0.0
 40
50.0
100
AcDbArc
 50
180.0
 51
270.0
  0
TEXT
  5
A6B9
330
A78D
100
AcDbEntity
  8
A822_別途：家具
  6
Continuous
 62
     7
370
    30
100
AcDbText
 10
189526.653086
 20
-3090.436536
 30
0.0
 40
225.0
  1
応接セット
 41
0.8
  7
Style-HGSｺﾞｼｯｸM
 11
189526.653086
 21
-2865.436536
 31
0.0
100
AcDbText
 73
     3
  0
LINE
  5
A6BA
330
A78D
100
AcDbEntity
  8
A231_壁：種別
 48
50.0
370
    13
100
AcDbLine
 10
189386.17797
 20
-4173.928462
 30
0.0
 11
190106.17797
 21
-4173.928462
 31
0.0
  0
LINE
  5
A6BB
330
A78D
100
AcDbEntity
  8
A231_壁：種別
 48
50.0
370
    13
100
AcDbLine
 10
189491.17797
 20
-3613.928462
 30
0.0
 11
189491.17797
 21
-4173.928462
 31
0.0
  0
LINE
  5
A6BC
330
A78D
100
AcDbEntity
  8
A231_壁：種別
 48
50.0
370
    13
100
AcDbLine
 10
189491.17797
 20
-4063.928462
 30
0.0
 11
190106.17797
 21
-4063.928462
 31
0.0
  0
LINE
  5
A6BD
330
A78D
100
AcDbEntity
  8
A231_壁：種別
 48
50.0
370
    13
100
AcDbLine
 10
189386.17797
 20
-3563.928462
 30
0.0
 11
190041.17797
 21
-3563.928462
 31
0.0
  0
LINE
  5
A6BE
330
A78D
100
AcDbEntity
  8
A231_壁：種別
 48
50.0
370
    13
100
AcDbLine
 10
190041.17797
 20
-3563.928462
 30
0.0
 11
190106.17797
 21
-3563.928462
 31
0.0
  0
ARC
  5
A6BF
330
A78D
100
AcDbEntity
  8
A231_壁：種別
 48
50.0
370
    13
100
AcDbCircle
 10
189441.17797
 20
-3613.928462
 30
0.0
 40
50.0
100
AcDbArc
 50
0.0
 51
90.0
  0
LINE
  5
A6C0
330
A78D
100
AcDbEntity
  8
A231_壁：種別
 48
50.0
370
    13
100
AcDbLine
 10
190106.17797
 20
-3563.928462
 30
0.0
 11
190171.17797
 21
-3563.928462
 31
0.0
  0
LINE
  5
A6C1
330
A78D
100
AcDbEntity
  8
A231_壁：種別
 48
50.0
370
    13
100
AcDbLine
 10
190106.17797
 20
-3563.928462
 30
0.0
 11
190106.17797
 21
-4063.928462
 31
0.0
  0
LINE
  5
A6C2
330
A78D
100
AcDbEntity
  8
A231_壁：種別
 48
50.0
370
    13
100
AcDbLine
 10
190106.17797
 20
-4173.928462
 30
0.0
 11
190826.17797
 21
-4173.928462
 31
0.0
  0
LINE
  5
A6C3
330
A78D
100
AcDbEntity
  8
A231_壁：種別
 48
50.0
370
    13
100
AcDbLine
 10
190721.17797
 20
-3613.928462
 30
0.0
 11
190721.17797
 21
-4173.928462
 31
0.0
  0
LINE
  5
A6C4
330
A78D
100
AcDbEntity
  8
A231_壁：種別
 48
50.0
370
    13
100
AcDbLine
 10
190106.17797
 20
-4063.928462
 30
0.0
 11
190721.17797
 21
-4063.928462
 31
0.0
  0
LINE
  5
A6C5
330
A78D
100
AcDbEntity
  8
A231_壁：種別
 48
50.0
370
    13
100
AcDbLine
 10
190171.17797
 20
-3563.928462
 30
0.0
 11
190826.17797
 21
-3563.928462
 31
0.0
  0
ARC
  5
A6C6
330
A78D
100
AcDbEntity
  8
A231_壁：種別
 48
50.0
370
    13
100
AcDbCircle
 10
-190771.17797
 20
-3613.928462
 30
0.0
 40
50.0
210
0.0
220
0.0
230
-1.0
100
AcDbArc
 50
0.0
 51
90.0
  0
LINE
  5
A6C7
330
A78D
100
AcDbEntity
  8
A231_壁：種別
 48
50.0
370
    13
100
AcDbLine
 10
190826.17797
 20
-3563.928462
 30
0.0
 11
190826.17797
 21
-4173.928462
 31
0.0
  0
LINE
  5
A6C8
330
A78D
100
AcDbEntity
  8
A231_壁：種別
 48
50.0
370
    13
100
AcDbLine
 10
189386.17797
 20
-3563.928462
 30
0.0
 11
189386.17797
 21
-4173.928462
 31
0.0
  0
LINE
  5
A6C9
330
A78D
100
AcDbEntity
  8
A822_別途：家具
  6
Continuous
 62
     7
370
    13
100
AcDbLine
 10
189496.0948
 20
-3293.928462
 30
0.0
 11
189496.0948
 21
-2693.928462
 31
0.0
  0
LINE
  5
A6CA
330
A78D
100
AcDbEntity
  8
A822_別途：家具
  6
Continuous
 62
     7
370
    13
100
AcDbLine
 10
189496.0948
 20
-2693.928462
 30
0.0
 11
190696.0948
 21
-2693.928462
 31
0.0
  0
LINE
  5
A6CB
330
A78D
100
AcDbEntity
  8
A822_別途：家具
  6
Continuous
 62
     7
370
    13
100
AcDbLine
 10
190696.0948
 20
-2693.928462
 30
0.0
 11
190696.0948
 21
-3293.928462
 31
0.0
  0
LINE
  5
A6CC
330
A78D
100
AcDbEntity
  8
A822_別途：家具
  6
Continuous
 62
     7
370
    13
100
AcDbLine
 10
190696.0948
 20
-3293.928462
 30
0.0
 11
189496.0948
 21
-3293.928462
 31
0.0
  0
LINE
  5
A6CD
330
A78D
100
AcDbEntity
  8
A231_壁：種別
 48
50.0
370
    13
100
AcDbLine
 10
184974.749006
 20
-4009.974528
 30
0.0
 11
184974.749006
 21
-4619.974528
 31
0.0
  0
LINE
  5
A6CE
330
A78D
100
AcDbEntity
  8
A231_壁：種別
 48
50.0
370
    13
100
AcDbLine
 10
184974.749006
 20
-4009.974528
 30
0.0
 11
184909.749006
 21
-4009.974528
 31
0.0
  0
LINE
  5
A6CF
330
A78D
100
AcDbEntity
  8
A231_壁：種別
 48
50.0
370
    13
100
AcDbLine
 10
184974.749006
 20
-4009.974528
 30
0.0
 11
184974.749006
 21
-4619.974528
 31
0.0
  0
LINE
  5
A6D0
330
A78D
100
AcDbEntity
  8
A231_壁：種別
 48
50.0
370
    13
100
AcDbLine
 10
184974.749006
 20
-4619.974528
 30
0.0
 11
184244.749006
 21
-4619.974528
 31
0.0
  0
LINE
  5
A6D1
330
A78D
100
AcDbEntity
  8
A231_壁：種別
 48
50.0
370
    13
100
AcDbLine
 10
184244.749006
 20
-4009.974528
 30
0.0
 11
184244.749006
 21
-4619.974528
 31
0.0
  0
LINE
  5
A6D2
330
A78D
100
AcDbEntity
  8
A231_壁：種別
 48
50.0
370
    13
100
AcDbLine
 10
184359.749006
 20
-4059.974528
 30
0.0
 11
184359.749006
 21
-4509.974528
 31
0.0
  0
LINE
  5
A6D3
330
A78D
100
AcDbEntity
  8
A231_壁：種別
 48
50.0
370
    13
100
AcDbLine
 10
184859.749006
 20
-4059.974528
 30
0.0
 11
184859.749006
 21
-4509.974528
 31
0.0
  0
LINE
  5
A6D4
330
A78D
100
AcDbEntity
  8
A231_壁：種別
 48
50.0
370
    13
100
AcDbLine
 10
184859.749006
 20
-4509.974528
 30
0.0
 11
184359.749006
 21
-4509.974528
 31
0.0
  0
LINE
  5
A6D5
330
A78D
100
AcDbEntity
  8
A231_壁：種別
 48
50.0
370
    13
100
AcDbLine
 10
184859.749006
 20
-4509.974528
 30
0.0
 11
184974.749006
 21
-4619.974528
 31
0.0
  0
LINE
  5
A6D6
330
A78D
100
AcDbEntity
  8
A231_壁：種別
 48
50.0
370
    13
100
AcDbLine
 10
184359.749006
 20
-4509.974528
 30
0.0
 11
184244.749006
 21
-4619.974528
 31
0.0
  0
LINE
  5
A6D7
330
A78D
100
AcDbEntity
  8
A231_壁：種別
 48
50.0
370
    13
100
AcDbLine
 10
184909.749006
 20
-4009.974528
 30
0.0
 11
184309.749006
 21
-4009.974528
 31
0.0
  0
LINE
  5
A6D8
330
A78D
100
AcDbEntity
  8
A231_壁：種別
 48
50.0
370
    13
100
AcDbLine
 10
184309.749006
 20
-4009.974528
 30
0.0
 11
184244.749006
 21
-4009.974528
 31
0.0
  0
ARC
  5
A6D9
330
A78D
100
AcDbEntity
  8
A231_壁：種別
 48
50.0
370
    13
100
AcDbCircle
 10
-184909.749006
 20
-4059.974528
 30
0.0
 40
50.0
210
0.0
220
0.0
230
-1.0
100
AcDbArc
 50
0.0
 51
90.0
  0
ARC
  5
A6DA
330
A78D
100
AcDbEntity
  8
A231_壁：種別
 48
50.0
370
    13
100
AcDbCircle
 10
184309.749006
 20
-4059.974528
 30
0.0
 40
50.0
100
AcDbArc
 50
0.0
 51
90.0
  0
LINE
  5
A6DB
330
A78D
100
AcDbEntity
  8
A231_壁：種別
 48
50.0
370
    13
100
AcDbLine
 10
184974.749006
 20
-2009.974528
 30
0.0
 11
184974.749006
 21
-1399.974528
 31
0.0
  0
LINE
  5
A6DC
330
A78D
100
AcDbEntity
  8
A231_壁：種別
 48
50.0
370
    13
100
AcDbLine
 10
184974.749006
 20
-2009.974528
 30
0.0
 11
184909.749006
 21
-2009.974528
 31
0.0
  0
LINE
  5
A6DD
330
A78D
100
AcDbEntity
  8
A231_壁：種別
 48
50.0
370
    13
100
AcDbLine
 10
184974.749006
 20
-2009.974528
 30
0.0
 11
184974.749006
 21
-1399.974528
 31
0.0
  0
LINE
  5
A6DE
330
A78D
100
AcDbEntity
  8
A231_壁：種別
 48
50.0
370
    13
100
AcDbLine
 10
184974.749006
 20
-1399.974528
 30
0.0
 11
184244.749006
 21
-1399.974528
 31
0.0
  0
LINE
  5
A6DF
330
A78D
100
AcDbEntity
  8
A231_壁：種別
 48
50.0
370
    13
100
AcDbLine
 10
184244.749006
 20
-2009.974528
 30
0.0
 11
184244.749006
 21
-1399.974528
 31
0.0
  0
LINE
  5
A6E0
330
A78D
100
AcDbEntity
  8
A231_壁：種別
 48
50.0
370
    13
100
AcDbLine
 10
184359.749006
 20
-1959.974528
 30
0.0
 11
184359.749006
 21
-1509.974528
 31
0.0
  0
LINE
  5
A6E1
330
A78D
100
AcDbEntity
  8
A231_壁：種別
 48
50.0
370
    13
100
AcDbLine
 10
184859.749006
 20
-1959.974528
 30
0.0
 11
184859.749006
 21
-1509.974528
 31
0.0
  0
LINE
  5
A6E2
330
A78D
100
AcDbEntity
  8
A231_壁：種別
 48
50.0
370
    13
100
AcDbLine
 10
184859.749006
 20
-1509.974528
 30
0.0
 11
184359.749006
 21
-1509.974528
 31
0.0
  0
LINE
  5
A6E3
330
A78D
100
AcDbEntity
  8
A231_壁：種別
 48
50.0
370
    13
100
AcDbLine
 10
184859.749006
 20
-1509.974528
 30
0.0
 11
184974.749006
 21
-1399.974528
 31
0.0
  0
LINE
  5
A6E4
330
A78D
100
AcDbEntity
  8
A231_壁：種別
 48
50.0
370
    13
100
AcDbLine
 10
184359.749006
 20
-1509.974528
 30
0.0
 11
184244.749006
 21
-1399.974528
 31
0.0
  0
LINE
  5
A6E5
330
A78D
100
AcDbEntity
  8
A231_壁：種別
 48
50.0
370
    13
100
AcDbLine
 10
184909.749006
 20
-2009.974528
 30
0.0
 11
184309.749006
 21
-2009.974528
 31
0.0
  0
LINE
  5
A6E6
330
A78D
100
AcDbEntity
  8
A231_壁：種別
 48
50.0
370
    13
100
AcDbLine
 10
184309.749006
 20
-2009.974528
 30
0.0
 11
184244.749006
 21
-2009.974528
 31
0.0
  0
ARC
  5
A6E7
330
A78D
100
AcDbEntity
  8
A231_壁：種別
 48
50.0
370
    13
100
AcDbCircle
 10
184909.749006
 20
-1959.974528
 30
0.0
 40
50.0
100
AcDbArc
 50
180.0
 51
270.0
  0
ARC
  5
A6E8
330
A78D
100
AcDbEntity
  8
A231_壁：種別
 48
50.0
370
    13
100
AcDbCircle
 10
-184309.749006
 20
-1959.974528
 30
0.0
 40
50.0
210
0.0
220
0.0
230
-1.0
100
AcDbArc
 50
180.0
 51
270.0
  0
TEXT
  5
A6E9
330
A78D
100
AcDbEntity
  8
A822_別途：家具
  6
Continuous
 62
     7
370
    30
100
AcDbText
 10
184069.59952
 20
-3090.436536
 30
0.0
 40
225.0
  1
応接セット
 41
0.8
  7
Style-HGSｺﾞｼｯｸM
 11
184069.59952
 21
-2865.436536
 31
0.0
100
AcDbText
 73
     3
  0
LINE
  5
A6EA
330
A78D
100
AcDbEntity
  8
A231_壁：種別
 48
50.0
370
    13
100
AcDbLine
 10
183429.749006
 20
-3719.891357
 30
0.0
 11
183429.749006
 21
-2999.891357
 31
0.0
  0
LINE
  5
A6EB
330
A78D
100
AcDbEntity
  8
A231_壁：種別
 48
50.0
370
    13
100
AcDbLine
 10
183989.749006
 20
-3614.891357
 30
0.0
 11
183429.749006
 21
-3614.891357
 31
0.0
  0
LINE
  5
A6EC
330
A78D
100
AcDbEntity
  8
A231_壁：種別
 48
50.0
370
    13
100
AcDbLine
 10
183539.749006
 20
-3614.891357
 30
0.0
 11
183539.749006
 21
-2999.891357
 31
0.0
  0
LINE
  5
A6ED
330
A78D
100
AcDbEntity
  8
A231_壁：種別
 48
50.0
370
    13
100
AcDbLine
 10
184039.749006
 20
-3719.891357
 30
0.0
 11
184039.749006
 21
-3064.891357
 31
0.0
  0
LINE
  5
A6EE
330
A78D
100
AcDbEntity
  8
A231_壁：種別
 48
50.0
370
    13
100
AcDbLine
 10
184039.749006
 20
-3064.891357
 30
0.0
 11
184039.749006
 21
-2999.891357
 31
0.0
  0
ARC
  5
A6EF
330
A78D
100
AcDbEntity
  8
A231_壁：種別
 48
50.0
370
    13
100
AcDbCircle
 10
-183989.749006
 20
-3664.891357
 30
0.0
 40
50.0
210
0.0
220
0.0
230
-1.0
100
AcDbArc
 50
90.0
 51
180.0
  0
LINE
  5
A6F0
330
A78D
100
AcDbEntity
  8
A231_壁：種別
 48
50.0
370
    13
100
AcDbLine
 10
184039.749006
 20
-2999.891357
 30
0.0
 11
184039.749006
 21
-2934.891357
 31
0.0
  0
LINE
  5
A6F1
330
A78D
100
AcDbEntity
  8
A231_壁：種別
 48
50.0
370
    13
100
AcDbLine
 10
184039.749006
 20
-2999.891357
 30
0.0
 11
183539.749006
 21
-2999.891357
 31
0.0
  0
LINE
  5
A6F2
330
A78D
100
AcDbEntity
  8
A231_壁：種別
 48
50.0
370
    13
100
AcDbLine
 10
183429.749006
 20
-2999.891357
 30
0.0
 11
183429.749006
 21
-2279.891357
 31
0.0
  0
LINE
  5
A6F3
330
A78D
100
AcDbEntity
  8
A231_壁：種別
 48
50.0
370
    13
100
AcDbLine
 10
183989.749006
 20
-2384.891357
 30
0.0
 11
183429.749006
 21
-2384.891357
 31
0.0
  0
LINE
  5
A6F4
330
A78D
100
AcDbEntity
  8
A231_壁：種別
 48
50.0
370
    13
100
AcDbLine
 10
183539.749006
 20
-2999.891357
 30
0.0
 11
183539.749006
 21
-2384.891357
 31
0.0
  0
LINE
  5
A6F5
330
A78D
100
AcDbEntity
  8
A231_壁：種別
 48
50.0
370
    13
100
AcDbLine
 10
184039.749006
 20
-2934.891357
 30
0.0
 11
184039.749006
 21
-2279.891357
 31
0.0
  0
ARC
  5
A6F6
330
A78D
100
AcDbEntity
  8
A231_壁：種別
 48
50.0
370
    13
100
AcDbCircle
 10
183989.749006
 20
-2334.891357
 30
0.0
 40
50.0
100
AcDbArc
 50
270.0
 51
0.0
  0
LINE
  5
A6F7
330
A78D
100
AcDbEntity
  8
A231_壁：種別
 48
50.0
370
    13
100
AcDbLine
 10
184039.749006
 20
-2279.891357
 30
0.0
 11
183429.749006
 21
-2279.891357
 31
0.0
  0
LINE
  5
A6F8
330
A78D
100
AcDbEntity
  8
A231_壁：種別
 48
50.0
370
    13
100
AcDbLine
 10
184039.749006
 20
-3719.891357
 30
0.0
 11
183429.749006
 21
-3719.891357
 31
0.0
  0
ENDSEC
  0
SECTION
  2
OBJECTS
  0
DICTIONARY
  5
A792
330
0
100
AcDbDictionary
281
     1
  3
ACAD_COLOR
350
A7CE
  3
ACAD_GROUP
350
A7BB
  3
ACAD_LAYOUT
350
A79F
  3
ACAD_MATERIAL
350
A794
  3
ACAD_MLEADERSTYLE
350
A7D1
  3
ACAD_MLINESTYLE
350
A7BC
  3
ACAD_PLOTSETTINGS
350
A7BD
  3
ACAD_PLOTSTYLENAME
350
A791
  3
ACAD_SCALELIST
350
A7CF
  3
ACAD_TABLESTYLE
350
A7D0
  3
ACAD_VISUALSTYLE
350
A7B5
  3
ACDB_RECOMPOSE_DATA
350
A7FA
  3
AcDbVariableDictionary
350
A7F3
  3
MicroStation
350
A7E9
  0
DICTIONARY
  5
A7A8
330
A7A7
100
AcDbDictionary
280
     1
281
     1
  3
ACAD_LAYERSTATES
360
A7A9
  0
DICTIONARY
  5
A7CE
102
{ACAD_REACTORS
330
A792
102
}
330
A792
100
AcDbDictionary
281
     1
  0
DICTIONARY
  5
A7BB
102
{ACAD_REACTORS
330
A792
102
}
330
A792
100
AcDbDictionary
281
     1
  0
DICTIONARY
  5
A79F
102
{ACAD_REACTORS
330
A792
102
}
330
A792
100
AcDbDictionary
281
     1
  3
Layout1
350
A7A4
  3
Model
350
A79E
  0
DICTIONARY
  5
A794
102
{ACAD_REACTORS
330
A792
102
}
330
A792
100
AcDbDictionary
281
     1
  3
ByBlock
350
A7C6
  3
ByLayer
350
A7BE
  3
Global
350
A793
  0
DICTIONARY
  5
A7D1
102
{ACAD_REACTORS
330
A792
102
}
330
A792
100
AcDbDictionary
281
     1
  0
DICTIONARY
  5
A7BC
102
{ACAD_REACTORS
330
A792
102
}
330
A792
100
AcDbDictionary
281
     1
  3
Standard
350
A7D2
  0
DICTIONARY
  5
A7BD
102
{ACAD_REACTORS
330
A792
102
}
330
A792
100
AcDbDictionary
281
     1
  0
ACDBDICTIONARYWDFLT
  5
A791
102
{ACAD_REACTORS
330
A792
102
}
330
A792
100
AcDbDictionary
281
     1
  3
Normal
350
A790
100
AcDbDictionaryWithDefault
340
A790
  0
DICTIONARY
  5
A7CF
102
{ACAD_REACTORS
330
A792
102
}
330
A792
100
AcDbDictionary
281
     1
  3
A0
350
A7D6
  3
A1
350
A7D7
  3
A2
350
A7D8
  3
A3
350
A7D9
  3
A4
350
A7DA
  3
A5
350
A7DB
  3
A6
350
A7DC
  3
A7
350
A7DD
  3
A8
350
A7DE
  3
A9
350
A7DF
  3
B0
350
A7E0
  3
B1
350
A7E1
  3
B2
350
A7E2
  3
B3
350
A7E3
  3
B4
350
A7E4
  3
B5
350
A7E5
  3
B6
350
A7E6
  0
DICTIONARY
  5
A7D0
102
{ACAD_REACTORS
330
A792
102
}
330
A792
100
AcDbDictionary
281
     1
  3
Standard
350
A7D3
  0
DICTIONARY
  5
A7B5
102
{ACAD_REACTORS
330
A792
102
}
330
A792
100
AcDbDictionary
281
     1
  3
2dWireframe
350
A7B4
  3
3dWireframe
350
A7D5
  3
Realistic
350
A7D4
  0
XRECORD
  5
A7FA
102
{ACAD_REACTORS
330
A792
102
}
330
A792
100
AcDbXrecord
280
     1
 90
        1
330
A7D3
  0
DICTIONARY
  5
A7F3
102
{ACAD_REACTORS
330
A792
102
}
330
A792
100
AcDbDictionary
281
     1
  3
CANNOSCALE
350
A7F6
  3
CMLEADERSTYLE
350
A7F5
  3
CTABLESTYLE
350
A7F4
  0
DICTIONARY
  5
A7E9
102
{ACAD_REACTORS
330
A792
102
}
330
A792
100
AcDbDictionary
281
     1
  3
Header
350
5B
  0
DICTIONARY
  5
A7A9
102
{ACAD_REACTORS
330
A7A8
102
}
330
A7A8
100
AcDbDictionary
281
     1
  0
LAYOUT
  5
A7A4
102
{ACAD_XDICTIONARY
360
A7A5
102
}
102
{ACAD_REACTORS
330
A79F
102
}
330
A79F
100
AcDbPlotSettings
  1

  2
none_device
  4
ISO_A4_(210.00_x_297.00_MM)
  6

 40
7.5
 41
20.0
 42
7.5
 43
20.0
 44
210.0
 45
297.0
 46
0.0
 47
0.0
 48
0.0
 49
0.0
140
0.0
141
0.0
142
1.0
143
1.0
 70
   688
 72
     1
 73
     1
 74
     5
  7

 75
    16
147
1.0
 76
     0
 77
     2
 78
   300
148
0.0
149
0.0
100
AcDbLayout
  1
Layout1
 70
     1
 71
     1
 10
-20.0
 20
-7.5
 11
277.0
 21
202.5
 12
0.0
 22
0.0
 32
0.0
 14
25.7
 24
19.5
 34
0.0
 15
231.3
 25
175.5
 35
0.0
146
0.0
 13
0.0
 23
0.0
 33
0.0
 16
1.0
 26
0.0
 36
0.0
 17
0.0
 27
1.0
 37
0.0
 76
     0
330
A7A1
1001
ACAD_PSEXT
1000
None
1000
None
1000
Not applicable
1000
The layout will not be plotted unless a new plotter configuration name is selected.
1070
     0
  0
LAYOUT
  5
A79E
102
{ACAD_REACTORS
330
A79F
102
}
330
A79F
100
AcDbPlotSettings
  1

  2
none_device
  4
ISO_A4_(210.00_x_297.00_MM)
  6

 40
7.5
 41
20.0
 42
7.5
 43
20.0
 44
210.0
 45
297.0
 46
11.549999
 47
-13.65
 48
0.0
 49
0.0
140
0.0
141
0.0
142
1.0
143
8.704085
 70
 11952
 72
     1
 73
     0
 74
     0
  7

 75
     0
147
0.114889
 76
     0
 77
     2
 78
   300
148
0.0
149
0.0
100
AcDbLayout
  1
Model
 70
     1
 71
     0
 10
0.0
 20
0.0
 11
12.0
 21
9.0
 12
0.0
 22
0.0
 32
0.0
 14
0.0
 24
0.0
 34
0.0
 15
0.0
 25
0.0
 35
0.0
146
0.0
 13
0.0
 23
0.0
 33
0.0
 16
1.0
 26
0.0
 36
0.0
 17
0.0
 27
1.0
 37
0.0
 76
     0
330
A78D
1001
ACAD_PSEXT
1000
None
1000
None
1000
Not applicable
1000
The layout will not be plotted unless a new plotter configuration name is selected.
1070
     0
  0
MATERIAL
  5
A7C6
102
{ACAD_XDICTIONARY
360
A7C7
102
}
102
{ACAD_REACTORS
330
A794
102
}
330
A794
100
AcDbMaterial
  1
ByBlock
 72
     0
 43
0.00082
 43
0.0
 43
0.0
 43
0.0
 43
0.0
 43
0.00082
 43
0.0
 43
0.0
 43
0.0
 43
0.0
 43
1.0
 43
0.0
 43
0.0
 43
0.0
 43
0.0
 43
1.0
 77
     0
 47
0.00082
 47
0.0
 47
0.0
 47
0.0
 47
0.0
 47
0.00082
 47
0.0
 47
0.0
 47
0.0
 47
0.0
 47
1.0
 47
0.0
 47
0.0
 47
0.0
 47
0.0
 47
1.0
171
     0
 49
0.00082
 49
0.0
 49
0.0
 49
0.0
 49
0.0
 49
0.00082
 49
0.0
 49
0.0
 49
0.0
 49
0.0
 49
1.0
 49
0.0
 49
0.0
 49
0.0
 49
0.0
 49
1.0
175
     0
142
0.00082
142
0.0
142
0.0
142
0.0
142
0.0
142
0.00082
142
0.0
142
0.0
142
0.0
142
0.0
142
1.0
142
0.0
142
0.0
142
0.0
142
0.0
142
1.0
179
     0
144
0.00082
144
0.0
144
0.0
144
0.0
144
0.0
144
0.00082
144
0.0
144
0.0
144
0.0
144
0.0
144
1.0
144
0.0
144
0.0
144
0.0
144
0.0
144
1.0
147
0.00082
147
0.0
147
0.0
147
0.0
147
0.0
147
0.00082
147
0.0
147
0.0
147
0.0
147
0.0
147
1.0
147
0.0
147
0.0
147
0.0
147
0.0
147
1.0
  0
MATERIAL
  5
A7BE
102
{ACAD_XDICTIONARY
360
A7BF
102
}
102
{ACAD_REACTORS
330
A794
102
}
330
A794
100
AcDbMaterial
  1
ByLayer
 72
     0
 43
0.00082
 43
0.0
 43
0.0
 43
0.0
 43
0.0
 43
0.00082
 43
0.0
 43
0.0
 43
0.0
 43
0.0
 43
1.0
 43
0.0
 43
0.0
 43
0.0
 43
0.0
 43
1.0
 77
     0
 47
0.00082
 47
0.0
 47
0.0
 47
0.0
 47
0.0
 47
0.00082
 47
0.0
 47
0.0
 47
0.0
 47
0.0
 47
1.0
 47
0.0
 47
0.0
 47
0.0
 47
0.0
 47
1.0
171
     0
 49
0.00082
 49
0.0
 49
0.0
 49
0.0
 49
0.0
 49
0.00082
 49
0.0
 49
0.0
 49
0.0
 49
0.0
 49
1.0
 49
0.0
 49
0.0
 49
0.0
 49
0.0
 49
1.0
175
     0
142
0.00082
142
0.0
142
0.0
142
0.0
142
0.0
142
0.00082
142
0.0
142
0.0
142
0.0
142
0.0
142
1.0
142
0.0
142
0.0
142
0.0
142
0.0
142
1.0
179
     0
144
0.00082
144
0.0
144
0.0
144
0.0
144
0.0
144
0.00082
144
0.0
144
0.0
144
0.0
144
0.0
144
1.0
144
0.0
144
0.0
144
0.0
144
0.0
144
1.0
147
0.00082
147
0.0
147
0.0
147
0.0
147
0.0
147
0.00082
147
0.0
147
0.0
147
0.0
147
0.0
147
1.0
147
0.0
147
0.0
147
0.0
147
0.0
147
1.0
  0
MATERIAL
  5
A793
102
{ACAD_XDICTIONARY
360
A795
102
}
102
{ACAD_REACTORS
330
A794
102
}
330
A794
100
AcDbMaterial
  1
Global
 72
     0
 43
0.00082
 43
0.0
 43
0.0
 43
0.0
 43
0.0
 43
0.00082
 43
0.0
 43
0.0
 43
0.0
 43
0.0
 43
1.0
 43
0.0
 43
0.0
 43
0.0
 43
0.0
 43
1.0
 77
     0
 47
0.00082
 47
0.0
 47
0.0
 47
0.0
 47
0.0
 47
0.00082
 47
0.0
 47
0.0
 47
0.0
 47
0.0
 47
1.0
 47
0.0
 47
0.0
 47
0.0
 47
0.0
 47
1.0
171
     0
 49
0.00082
 49
0.0
 49
0.0
 49
0.0
 49
0.0
 49
0.00082
 49
0.0
 49
0.0
 49
0.0
 49
0.0
 49
1.0
 49
0.0
 49
0.0
 49
0.0
 49
0.0
 49
1.0
175
     0
142
0.00082
142
0.0
142
0.0
142
0.0
142
0.0
142
0.00082
142
0.0
142
0.0
142
0.0
142
0.0
142
1.0
142
0.0
142
0.0
142
0.0
142
0.0
142
1.0
179
     0
144
0.00082
144
0.0
144
0.0
144
0.0
144
0.0
144
0.00082
144
0.0
144
0.0
144
0.0
144
0.0
144
1.0
144
0.0
144
0.0
144
0.0
144
0.0
144
1.0
147
0.00082
147
0.0
147
0.0
147
0.0
147
0.0
147
0.00082
147
0.0
147
0.0
147
0.0
147
0.0
147
1.0
147
0.0
147
0.0
147
0.0
147
0.0
147
1.0
  0
MLINESTYLE
  5
A7D2
102
{ACAD_REACTORS
330
A7BC
102
}
330
A7BC
100
AcDbMlineStyle
  2
STANDARD
 70
     0
  3

 62
   256
 51
90.0
 52
90.0
 71
     2
 49
0.5
 62
   256
  6
BYLAYER
 49
-0.5
 62
   256
  6
BYLAYER
  0
ACDBPLACEHOLDER
  5
A790
102
{ACAD_REACTORS
330
A791
102
}
330
A791
  0
SCALE
  5
A7D6
102
{ACAD_REACTORS
330
A7CF
102
}
330
A7CF
100
AcDbScale
 70
     0
300
1:1
140
1.0
141
1.0
290
     1
  0
SCALE
  5
A7D7
102
{ACAD_REACTORS
330
A7CF
102
}
330
A7CF
100
AcDbScale
 70
     0
300
1:2
140
1.0
141
2.0
290
     0
  0
SCALE
  5
A7D8
102
{ACAD_REACTORS
330
A7CF
102
}
330
A7CF
100
AcDbScale
 70
     0
300
1:4
140
1.0
141
4.0
290
     0
  0
SCALE
  5
A7D9
102
{ACAD_REACTORS
330
A7CF
102
}
330
A7CF
100
AcDbScale
 70
     0
300
1:5
140
1.0
141
5.0
290
     0
  0
SCALE
  5
A7DA
102
{ACAD_REACTORS
330
A7CF
102
}
330
A7CF
100
AcDbScale
 70
     0
300
1:8
140
1.0
141
8.0
290
     0
  0
SCALE
  5
A7DB
102
{ACAD_REACTORS
330
A7CF
102
}
330
A7CF
100
AcDbScale
 70
     0
300
1:10
140
1.0
141
10.0
290
     0
  0
SCALE
  5
A7DC
102
{ACAD_REACTORS
330
A7CF
102
}
330
A7CF
100
AcDbScale
 70
     0
300
1:16
140
1.0
141
16.0
290
     0
  0
SCALE
  5
A7DD
102
{ACAD_REACTORS
330
A7CF
102
}
330
A7CF
100
AcDbScale
 70
     0
300
1:20
140
1.0
141
20.0
290
     0
  0
SCALE
  5
A7DE
102
{ACAD_REACTORS
330
A7CF
102
}
330
A7CF
100
AcDbScale
 70
     0
300
1:30
140
1.0
141
30.0
290
     0
  0
SCALE
  5
A7DF
102
{ACAD_REACTORS
330
A7CF
102
}
330
A7CF
100
AcDbScale
 70
     0
300
1:40
140
1.0
141
40.0
290
     0
  0
SCALE
  5
A7E0
102
{ACAD_REACTORS
330
A7CF
102
}
330
A7CF
100
AcDbScale
 70
     0
300
1:50
140
1.0
141
50.0
290
     0
  0
SCALE
  5
A7E1
102
{ACAD_REACTORS
330
A7CF
102
}
330
A7CF
100
AcDbScale
 70
     0
300
1:100
140
1.0
141
100.0
290
     0
  0
SCALE
  5
A7E2
102
{ACAD_REACTORS
330
A7CF
102
}
330
A7CF
100
AcDbScale
 70
     0
300
2:1
140
2.0
141
1.0
290
     0
  0
SCALE
  5
A7E3
102
{ACAD_REACTORS
330
A7CF
102
}
330
A7CF
100
AcDbScale
 70
     0
300
4:1
140
4.0
141
1.0
290
     0
  0
SCALE
  5
A7E4
102
{ACAD_REACTORS
330
A7CF
102
}
330
A7CF
100
AcDbScale
 70
     0
300
8:1
140
8.0
141
1.0
290
     0
  0
SCALE
  5
A7E5
102
{ACAD_REACTORS
330
A7CF
102
}
330
A7CF
100
AcDbScale
 70
     0
300
10:1
140
10.0
141
1.0
290
     0
  0
SCALE
  5
A7E6
102
{ACAD_REACTORS
330
A7CF
102
}
330
A7CF
100
AcDbScale
 70
     0
300
100:1
140
100.0
141
1.0
290
     0
  0
TABLESTYLE
  5
A7D3
102
{ACAD_XDICTIONARY
360
A7F8
102
}
102
{ACAD_REACTORS
330
A7D0
102
}
330
A7D0
100
AcDbTableStyle
  3
Standard
 70
     0
 71
     0
 40
1.5
 41
1.5
280
     0
281
     0
  7
Standard
140
4.5
170
     2
 62
     0
 63
     7
283
     0
274
    -2
284
     1
 64
     0
275
    -2
285
     1
 65
     0
276
    -2
286
     1
 66
     0
277
    -2
287
     1
 67
     0
278
    -2
288
     1
 68
     0
279
    -2
289
     1
 69
     0
  7
Standard
140
6.0
170
     5
 62
     0
 63
     7
283
     0
274
    -2
284
     1
 64
     0
275
    -2
285
     1
 65
     0
276
    -2
286
     1
 66
     0
277
    -2
287
     1
 67
     0
278
    -2
288
     1
 68
     0
279
    -2
289
     1
 69
     0
  7
Standard
140
4.5
170
     5
 62
     0
 63
     7
283
     0
274
    -2
284
     1
 64
     0
275
    -2
285
     1
 65
     0
276
    -2
286
     1
 66
     0
277
    -2
287
     1
 67
     0
278
    -2
288
     1
 68
     0
279
    -2
289
     1
 69
     0
  0
VISUALSTYLE
  5
A7B4
102
{ACAD_XDICTIONARY
360
A7FC
102
}
102
{ACAD_REACTORS
330
A7B5
102
}
330
A7B5
100
AcDbVisualStyle
  2
2dWireframe
 70
     4
 71
     0
 72
     2
 73
     0
 90
        0
 40
-0.6
 41
-30.0
 62
     5
 63
     7
421
 16777215
 74
     1
 91
        4
 64
     7
 65
   257
 75
     1
175
     1
 42
1.0
 92
        0
 66
   257
 43
1.0
 76
     1
 77
     6
 78
     2
 67
     7
 79
     5
170
     0
171
     0
290
     0
174
     0
 93
        1
 44
0.0
173
     0
291
     0
 45
0.0
1001
ACAD
1000
AcDbSavedByObjectVersion
1070
     0
  0
VISUALSTYLE
  5
A7D5
102
{ACAD_XDICTIONARY
360
A803
102
}
102
{ACAD_REACTORS
330
A7B5
102
}
330
A7B5
100
AcDbVisualStyle
  2
3dWireframe
 70
     5
 71
     0
 72
     2
 73
     0
 90
        0
 40
-0.6
 41
-30.0
 62
     5
 63
     7
421
 16777215
 74
     1
 91
        4
 64
     7
 65
   257
 75
     1
175
     1
 42
1.0
 92
        0
 66
   257
 43
1.0
 76
     1
 77
     6
 78
     2
 67
     7
 79
     5
170
     0
171
     0
290
     0
174
     0
 93
        1
 44
0.0
173
     0
291
     0
 45
0.0
1001
ACAD
1000
AcDbSavedByObjectVersion
1070
     0
  0
VISUALSTYLE
  5
A7D4
102
{ACAD_XDICTIONARY
360
A801
102
}
102
{ACAD_REACTORS
330
A7B5
102
}
330
A7B5
100
AcDbVisualStyle
  2
Realistic
 70
     8
 71
     2
 72
     2
 73
     0
 90
        0
 40
-0.6
 41
-30.0
 62
     5
 63
     7
421
 16777215
 74
     1
 91
        0
 64
     7
 65
   257
 75
     1
175
     1
 42
1.0
 92
        8
 66
     8
424
  7895160
 43
1.0
 76
     1
 77
     6
 78
     2
 67
     7
 79
     5
170
     0
171
     0
290
     0
174
     0
 93
       13
 44
0.0
173
     0
291
     0
 45
0.0
1001
ACAD
1000
AcDbSavedByObjectVersion
1070
     0
  0
DICTIONARYVAR
  5
A7F6
102
{ACAD_REACTORS
330
A7F3
102
}
330
A7F3
100
DictionaryVariables
280
     0
  1
1:1
  0
DICTIONARYVAR
  5
A7F5
102
{ACAD_REACTORS
330
A7F3
102
}
330
A7F3
100
DictionaryVariables
280
     0
  1
STANDARD
  0
DICTIONARYVAR
  5
A7F4
102
{ACAD_REACTORS
330
A7F3
102
}
330
A7F3
100
DictionaryVariables
280
     0
  1
STANDARD
  0
XRECORD
  5
5B
102
{ACAD_REACTORS
330
A7E9
102
}
330
A7E9
100
AcDbXrecord
280
     1
310
0800000000000000000000000600100200060030000000000000000000408F40E80300000A000000000000000000F03F000000000088C3400000000000805640000000000000F03F000000000000F03F000000000000F03F000000000000F03F000000000000F03F0000000000000000000000000000000000000000000000
310
000000000000000000000000000000000000000000CD065FC1000000807A914DC1000000000000000000000000E0A1094100000000A003EE40000000000000000001000000FFFFFF7F01000000FFFFFFFFFFFFFFFF000000000000000001000000000000000000000000000000000000000000000000004940000000000000
310
000000000000000000000000000000000000000000000000000000000000000000000000000000000000000000000000000000000000000000000004000000000000000000000070A74000000000004CAD400000000000000000000000000000000000000000000000000000000000000000000000000000000004E7280071
310
B3F26900000000000000000000000000000000000000000000000000000000000000000000000000000000000000000000000000000000000000000000000000000000000000000000000000000000000000000000000000080000000000000000000000000000000000000000000000000000000000000000000000000000
310
01000000000000000000000000000000000000000000000000000000000000000000000000000000000000004A00000000000000000000000000090000000000020000400100000000000500070101000000000000000000000000000000000000000000000000000000000000000000000000000000000000000000000000
310
00000000000000000000000000000000000000000000000000000000000000000000000000000000000000000000000000000000000000000000000000000000000000000001000000000000000000000000000000000075006E006B0000000000000000000000000000000000000000000000000000000000000000000000
310
00000000000000000000000000000000000000000000000000000000000000000000000000000000000000000000000000000000000000000000000000000000000000000000000000000000000000000000000000000000000000000000000000000000000000000000000000000000000000000000000000000000000000
310
00000000000000000000000000000000000000000000000000000000000000000000000000000000000000000000000000000000000000000000000000000000000000000000000000000000000000000000000000000000000000000000000000000000000000000000000000000000000000000000000000000000000000
310
00000000000000000000000000000000000000000000000000000000000000000000000000000000000000000000000000000000000000000000000000000000000000000000000000000000000000000000000000000000000000000000000000000000000000000000000000000000000000000000000000000000000000
310
00000000000000000000000000000000000000000000000000000000000000000000000000000000000000000000000000000000000000000000000000000000000000000000000000000000000000000000000000000000000000000000000000000000000000000000000000000000000000000000000000000000000000
310
00000000000000000000000000000000000000000000000000000000000000000000000000000000000000000000000000000000000000000000000000000000000000000000000000000000000000000000000000000000000000000000000000000000000000000000000000000000000000000000000000000000000000
310
00000000000000000000000000000000000000000000000000000000000000000000000000000000000000000000000000000000000000000000000000000000000000000000000000000000000000000000000000000000000000000000000000000000000000000000000000000000000000000000000000000000000000
310
00000000000000000000000000000000000000000000000000000000000000000000000000000000000000000000000000000000000000000000000000000000000000000000000000000000000000000000000000000000000000000000000000000000000000000000000000000000000000000000000000000000000000
310
000000000000000000000000000000000000000000000000000000000000000000000000000000000000000000000000000000000000000000000000000000000000000000000000000000000000000000000000000000000000000000000075006E006B000000000000000000000000000000000000000000000000000000
310
00000000000000000000000000000000000000000000000000000000000000000000000000000000000000000000000000000000000000000000000000000000000000000000000000000000000000000000000000000000000000000000000000000000000000000000000000000000000000000000000000000000000000
310
00000000000000000000000000000000000000000000000000000000000000000000000000000000000000000000000000000000000000000000000000000000000000000000000000000000000000000000000000000000000000000000000000000000000000000000000000000000000000000000000000000000000000
310
00000000000000000000000000000000000000000000000000000000000000000000000000000000000000000000000000000000000000000000000000000000000000000000000000000000000000000000000000000000000000000000000000000000000000000000000000000000000000000000000000000000000000
310
00000000000000000000000000000000000000000000000000000000000000000000000000000000000000000000000000000000000000000000000000000000000000000000000000000000000000000000000000000000000000000000000000000000000000000000000000000000000000000000000000000000000000
310
00000000000000000000000000000000000000000000000000000000000000000000000000000000000000000000000000000000000000000000000000000000000000000000000000000000000000000000000000000000000000000000000000000000000000000000000000000000000000000000000000000000000000
310
00000000000000000000000000000000000000000000000000000000000000000000000000000000000000000000000000000000000000000000000000000000000000000000000000000000000000000000000000000000000000000000000000000000000000000000000000000000000000000000000000000000000000
310
00000000000000000000000000000000000000000000000000000000000000000000000000000000000000000000000000000000000000000000000000000000000000000000000000000000000000000000000000000000000000000000000000000000000000000000000000000000000000000000000000000000000000
310
0000000000000000000000000000000000000000000000000000000000000000000000000000000000000000000000000000000000000000000000000000000000000000000000000000000000000000000000000000000000000000000000000000000000000000000000F03F000075006E006B0000000000000000000000
310
00000000000000000000000000000000000000000000000000000000000000000000000000000000000000000000000000000000000000000000000000000000000000000000000000000000000000000000000000000000000000000000000000000000000000000000000000000000000000000000000000000000000000
310
00000000000000000000000000000000000000000000000000000000000000000000000000000000000000000000000000000000000000000000000000000000000000000000000000000000000000000000000000000000000000000000000000000000000000000000000000000000000000000000000000000000000000
310
00000000000000000000000000000000000000000000000000000000000000000000000000000000000000000000000000000000000000000000000000000000000000000000000000000000000000000000000000000000000000000000000000000000000000000000000000000000000000000000000000000000000000
310
00000000000000000000000000000000000000000000000000000000000000000000000000000000000000000000000000000000000000000000000000000000000000000000000000000000000000000000000000000000000000000000000000000000000000000000000000000000000000000000000000000000000000
310
00000000000000000000000000000000000000000000000000000000000000000000000000000000000000000000000000000000000000000000000000000000000000000000000000000000000000000000000000000000000000000000000000000000000000000000000000000000000000000000000000000000000000
310
00000000000000000000000000000000000000000000000000000000000000000000000000000000000000000000000000000000000000000000000000000000000000000000000000000000000000000000000000000000000000000000000000000000000000000000000000000000000000000000000000000000000000
310
00000000000000000000000000000000000000000000000000000000000000000000000000000000000000000000000000000000000000000000000000000000000000000000000000000000000000000000000000000000000000000000000000000000000000000000000000000000000000000000000000000000000000
310
000000000000000000000000000000000000000000000000000000000000000000000000000000000000000000000000000000000000000000000000000000000000000000000000000000000000000000000000000000000000000000000000000000000000000000000000000000000000000000000000000000F03F0000
310
00000080464000000000008046C0000000000088C340000000000088C3400000000000000000000000000000000075006E006B00000000000000000000000000000000000000000000000000000000000000000000000000000000000000000000000000000000000000000000000000000000000000000000000000000000
310
00000000000000000000000000000000000000000000000000000000000000000000000000000000000000000000000000000000000000000000000000000000000000000000000000000000000000000000000000000000000000000000000000000000000000000000000000000000000000000000000000000000000000
310
00000000000000000000000000000000000000000000000000000000000000000000000000000000000000000000000000000000000000000000000000000000000000000000000000000000000000000000000000000000000000000000000000000000000000000000000000000000000000000000000000000000000000
310
00000000000000000000000000000000000000000000000000000000000000000000000000000000000000000000000000000000000000000000000000000000000000000000000000000000000000000000000000000000000000000000000000000000000000000000000000000000000000000000000000000000000000
310
00000000000000000000000000000000000000000000000000000000000000000000000000000000000000000000000000000000000000000000000000000000000000000000000000000000000000000000000000000000000000000000000000000000000000000000000000000000000000000000000000000000000000
310
00000000000000000000000000000000000000000000000000000000000000000000000000000000000000000000000000000000000000000000000000000000000000000000000000000000000000000000000000000000000000000000000000000000000000000000000000000000000000000000000000000000000000
310
00000000000000000000000000000000000000000000000000000000000000000000000000000000000000000000000000000000000000000000000000000000000000000000000000000000000000000000000000000000000000000000000000000000000000000000000000000000000000000000000000000000000000
310
00000000000000000000000000000000000000000000000000000000000000000000000000000000000000000000000000000000000000000000000000000000000000000000000000000000000000000000000000000000000000000000000000000000000000000000000000000000000000000000000000000000000000
310
00000000000000000000000000000000000000000000000000000000000000000000000000000000000000000000000000000000000000000000000000000000000000000000000000000000000000000000000000000000000000000000000000000000000000000000000000000000000000000000000000000000000000
310
00000000000000000000000000000000000000000000000000000000000000000000000000000000000000000000000000000000000000000000000000000000000000000000000000000000408F400000000000409F4000000000000000000000000000000000000000000000000000000000000000000000000000000000
310
080000000700000000000000008046400000000000000000000000000088C340000000000088C3400000000000002440000000000088C340000000000088C3400000000000000000000000000088C340000000000088C34000000000000000000000000000003E40000000000088C3400000000000407F40000000000088C3
310
40000000000088A3C000000000000000000000000000805640000000000088C34006000300040014000100000301010100000000000000000000000000000000000000000000000000000000000000F03F000000000000000000000000000000000000000000000000000000000000F03F0000000000000000000000000000
310
00000000000000000000000000000000F03F00000000000000000000000000000000000000000000000000000000000000000000000000000000000000000000000000000000000000000000000000000000000000000000000000000000000000000000000000000000000000000000000000000000000000000000000000
310
00000000000000000000000000000000000000152100000002000027003800B5FF0900010A0066D107000000000000000014C000000000000000000000000000000000000000000000000000000000000000000000000000000000000000000000F03F000000000000F03F000000000000F03F000000000000F03F00000000
310
0000F03F000000000000F03F000000000000F03F000000000000F03F333333333333D33F000000000000F03F000000000000F03F000000000000F03F333333333333D33F0000000000000000000000000000E83F0000000000000000000000000000F03F000000000000F03F000000000000F03F7B14AE47E17A943F000000
310
000000E03F00000700D0070000000000000000000000000000000000000000000000000000000000000000000000000000000000000000000000000000000000000000000000000000000000000000000000000000000000000000000000000000000000000000000000000000000000000000000000000000000000000000
310
0000000000000000000000000000000000000000000000000000000000000000000000000000000000000000000000000000000000000000000008000000003A5C756E6F5C563843454C4C5C574F4F442E43454C00000000000000000000000000000000000000000000000000000000000000000000000000000000000000
310
00000000000000000000000000000000000000000000000000000000000000000000000000000000000000000000000000000000000000000000000000000000000000000000000000000000000000000000000000000000000000000000000000000000000000000000000000000000000000000000000000000000000000
310
00000000000000000000000000000000000000000000000000000000000000000000000000000000000000000000000000000000000000000000000000000000000000000000000000000000000000000000000000000000000000000000000000000000000000000000000000000000000000000000000000000000000000
310
00000000000000000000000000000000000000000000000000000000000000000000000000000000000000000000000000000000000000000000000000000000000000000000000000000000000000000000000000000000000000000000000000000000000000000000000000000000000000000000000000000000000000
310
00000000000000000000000000000000000000000000000000000000000000000000000000000000000000000000000000000000000000000000000000000000000003000000000000000000000000000000000000000000000001000000000000000000000000000000000000000000000000000000140000000000000002
310
00000000000000000000000000000000000000000000000000000006000000000000004000000000000000000000000000F03F000000000000F03F000000000000F03F000000000000F03F000000000F00000000000000000000000000000006200000000000000000000000000000A00000000F0A00000000000000000000
310
00000000000000000088C34000000000000000000000000000000000000000000000000000000000000000000000000000000000000000000000000000000000000000000000000000000000000000000000000000000000000000000000000000000000000000000000000000000000000000000000000000000000000000
310
00000000000000000000000000000000000000000000000000000000000000000000000000000000000000000000000000000000000000000000000000000000000000000000000000000000000000000000000000000000000000000000000000000000000000000000000000000000000000000000000000000000000000
310
00000000000000000000000000000000000000000000000000000000000000000000000000000000000000000000000000000000000000000000000000000000000000000000000000000000000000000000000000000000000000000000000000000000000000000000000059400100000004000000000000000400000000
310
000000000000000000000001000000000000000000000000000000000000000000000000000000000000000000E83F000000000000D03F00000000000000000000000000000000000000000000000000000000000000000000000000000000000000000000000000000000000000000000000000000000FCA9F1D24D62503F
310
00000000000000000000000000002440000000000000000000000000008066400000000000000000000000000000000000840000000000000000000000000000000000000000000000000000000000000000000000000000000000000000000000000000000000000000000000000000000000000000000000000000000000
310
000000000000000000000000000000E03F0000000000000000000000000000000000000000000000000000000000000000000000000000000000000000000000000000000000000000000000000000000000000000000000000000000000000000000000000000000000000000000000000000000000000000000000000000
310
00000000000000000000100400000000000000000000000000000000000000000000000000000000000000000000000000000000000000000000000000000000000000000000000000000000000000000000000000000000000000000000000000000000000000000000000000000000000000000000000000000000000000
310
00000000000000000000000000000000000000000000000000000000000000000000000000000000000000000000000000000000000000000000000000000000000000000000000000000000000000000000000000000000000000000000000000000000000000000000000000000000000000000000000000F03F00000000
310
00000000000000000000F03F00000000000000000000000000000000000000000080564001020000040000000000000004000000000000000A000000040000000000000004000000000000000A0000000000000001000000000000000000000000000000000000000000000000000000000000000000000000000000000000
310
00000000000000000000000000000000000000000000000000000000000000000000000000000000000000000000000000000000000000000000000000000000000000000000000000000000000000000000000000000000000000000000000000000000000000000000000000000000000088C34000000000000000000000
310
00000088C3400000000000000000000000000088C3400000000000000000000000000088C340000000000000000000000000000000000000000000000000000000000000000000000000000000000000000000000000000000000000000041000000000000009A9999999999B93F9A9999999999B93F01000000000000009A
310
9999999999B93F9A9999999999B93F40010000000000000000000000000000000000000000000013030000000000000000000000000000000000000000000000000000000000000000000000000000000000000000000000000000000000000100000000000000000000000000000000000000000000000100000000000000
310
7B14AE47E17A843F0100000000000000000000000000E03F0100000000000000000000000000E03F000000000000000000000000000000000000000000000000000000000000000000000000000000000000000000000000000000000000000000000000000000000000000000000000000000000088C34000000000000000
310
00000000000088C3400000000000000000000000000088C34038000000000000000000000000000000000000000088C340FFFFFFFF00000000000000000088D34000000000000000000000000000000000000000000088C3400000000000000000000000000088C3400000000000000000000000000000000000000000006A
310
E840010000000000000000000000006AE840010000000000000000000000006AF840000000000000000000000000006AE840000000000000000028000000000000000000000000002440000000000000000000000000006AF84000000000000000000000000000000000000000000000000000000000000024400000000000
310
0000000100000000000000000000000000244040000800000000000000000000002440048000000000000000000000000024408800000014000000000000000000000000000000000000009A9999999999B93F9A9999999999B93F000000000088C34088808000140000001400000000000000000000000000000000000000
310
0000000000000000000000000000000000000000000000000000F03F9A9999999999B93F0000000000000000000000000A0000000A0000000000000000000000000000000000000000000000000000000000000000000000000000000000000000000000C00000000000000000000000000000009A9999999999B93F000000
310
0000000000000000000000000000000000000000000000000000000000000000000000000000000000000000000400000000000000000000000088C340000000000088C34000000000008036408DEDB5A0F7C6B03E000000004000000002000000010000000800000000000000000000000000F03F00000000000000000000
310
00000000F03F1000000000000000000000000000F03F9001000000000000000000000000F03F0000000000000000000000000000000000000000000000000000000000000000000000000000000000000000000000000100000000000000000000000000000000000000010000000000002000000000000000000000000000
310
00000000000000000100000000000000000000000000000000000000002440000000000000000000000000000000000000000000000000000000000000000000000000000000000000000000000000000000000000000000000000000000000000000000000000000000000000000000000000000000000000000000000000
310
00000000000000000000000000000000000000000000000000000000000000000000000000000000000000000000000000000000000000000000000000000000000000000000000000000000000000000000000000000000000000000000000000000000000000000000000000000000000000000000000000000000000000
310
00000000000000F03F000000000000F03F00000000000000000000000000000000000000000000F03F000000000000000000000000000000000000000000000000000000000000000000000000000000000000000000000000000000000000F03F000000000000F03F00000000008056400000000000000000000000000000
310
00000000000000002440000000000000444000000000000000000000000000000000000000000000000000000000000000000000000000000000000000000000000000000000000000000000000000000000000000000000000014000005010000000000000000000000000000000000000001000000000000000200000000
310
00000004000000E80300000010000000000000040000000000000000000000000000000000000000000000000000000000000000000000000000000000000000000000000000000000000000000000000000000000000000000000000000000000000000000000000000000000000000000000000000000000000000000000
310
00000000000000000000000000000000000000000000000000000000000000000000000000000000000000000000000000000000000000000000000000000000000000000000000000000000000000000000000000000000000000000000000000000000000000000000000000000000000000000000000000000000000000
310
00000000000000000000000000000000000000000000000000000000000000000000000000000000000000000000000000000000000000000000000000000000000000000000000000000000000000000000000000000000000000000000000000000000000000000000000000000000000000000000000000000000000000
310
00000000000000000000000000000000000000000000000000000000000000000000000000000000000000000000000000000000000000000000000000000000000000000000000000000000000000000000000000000000000000000000000000000000000000000000000000000000000000000000000000000000000000
310
00000000000000000000000000000000000000000000000000000000000000000000000000000000000000000000000000000000000000000000000000000000000000000000000000000000000000000000000000000000000000000000000000000000000000000000000000000000000000000000000000000000000000
310
00000000000000000000000000000000000000000000000000000000000000000000000000000000000000000000000000000000000000000000000000000000000000000000000000000000000000000000000000000000000000000000000000000000000000000000000000000000000000000000000000000000000000
310
00000000000000000000000000000000000000000000000000
  0
DICTIONARY
  5
A7A5
330
A7A4
100
AcDbDictionary
280
     1
281
     1
  3
ADSK_XREC_LAYOUTTHUMBNAIL
360
A7A6
  0
DICTIONARY
  5
A7C7
330
A7C6
100
AcDbDictionary
280
     1
281
     1
  3
ACAD_XREC_ROUNDTRIP
360
A7FF
  3
BUMPTILE
360
A7C8
  3
DIFFUSETILE
360
A7C9
  3
OPACITYTILE
360
A7CA
  3
REFLECTIONTILE
360
A7CB
  3
REFRACTIONTILE
360
A7CC
  3
SPECULARTILE
360
A7CD
  0
DICTIONARY
  5
A7BF
330
A7BE
100
AcDbDictionary
280
     1
281
     1
  3
ACAD_XREC_ROUNDTRIP
360
A7FE
  3
BUMPTILE
360
A7C0
  3
DIFFUSETILE
360
A7C1
  3
OPACITYTILE
360
A7C2
  3
REFLECTIONTILE
360
A7C3
  3
REFRACTIONTILE
360
A7C4
  3
SPECULARTILE
360
A7C5
  0
DICTIONARY
  5
A795
330
A793
100
AcDbDictionary
280
     1
281
     1
  3
ACAD_XREC_ROUNDTRIP
360
A7FB
  3
BUMPTILE
360
A796
  3
DIFFUSETILE
360
A797
  3
OPACITYTILE
360
A798
  3
REFLECTIONTILE
360
A799
  3
REFRACTIONTILE
360
A79A
  3
SPECULARTILE
360
A79B
  0
DICTIONARY
  5
A7F8
330
A7D3
100
AcDbDictionary
280
     1
281
     1
  3
ACAD_ROUNDTRIP_2008_TABLESTYLE_CELLSTYLEMAP
360
A7F9
  3
ACAD_XREC_ROUNDTRIP
360
A800
  0
DICTIONARY
  5
A7FC
330
A7B4
100
AcDbDictionary
280
     1
281
     1
  3
ACAD_XREC_ROUNDTRIP
360
A7FD
  0
DICTIONARY
  5
A803
330
A7D5
100
AcDbDictionary
280
     1
281
     1
  3
ACAD_XREC_ROUNDTRIP
360
A804
  0
DICTIONARY
  5
A801
330
A7D4
100
AcDbDictionary
280
     1
281
     1
  3
ACAD_XREC_ROUNDTRIP
360
A802
  0
XRECORD
  5
A7A6
102
{ACAD_REACTORS
330
A7A5
102
}
330
A7A5
100
AcDbXrecord
280
     1
310
28000000B40000007F00000001000800000000004C59000000000000000000000001000000000000FFFFFF0000000000FFFFFF000000000000000000000000000000000000000000000000000000000000000000330000006600000099000000CC000000FF00000000330000333300006633000099330000CC330000FF3300
310
0000660000336600006666000099660000CC660000FF66000000990000339900006699000099990000CC990000FF99000000CC000033CC000066CC000099CC0000CCCC0000FFCC000000FF000033FF000066FF000099FF0000CCFF0000FFFF000000003300330033006600330099003300CC003300FF003300003333003333
310
33006633330099333300CC333300FF33330000663300336633006666330099663300CC663300FF66330000993300339933006699330099993300CC993300FF99330000CC330033CC330066CC330099CC3300CCCC3300FFCC330000FF330033FF330066FF330099FF3300CCFF3300FFFF330000006600330066006600660099
310
006600CC006600FF00660000336600333366006633660099336600CC336600FF33660000666600336666006666660099666600CC666600FF66660000996600339966006699660099996600CC996600FF99660000CC660033CC660066CC660099CC6600CCCC6600FFCC660000FF660033FF660066FF660099FF6600CCFF6600
310
FFFF660000009900330099006600990099009900CC009900FF00990000339900333399006633990099339900CC339900FF33990000669900336699006666990099669900CC669900FF66990000999900339999006699990099999900CC999900FF99990000CC990033CC990066CC990099CC9900CCCC9900FFCC990000FF99
310
0033FF990066FF990099FF9900CCFF9900FFFF99000000CC003300CC006600CC009900CC00CC00CC00FF00CC000033CC003333CC006633CC009933CC00CC33CC00FF33CC000066CC003366CC006666CC009966CC00CC66CC00FF66CC000099CC003399CC006699CC009999CC00CC99CC00FF99CC0000CCCC0033CCCC0066CC
310
CC0099CCCC00CCCCCC00FFCCCC0000FFCC0033FFCC0066FFCC0099FFCC00CCFFCC00FFFFCC000000FF003300FF006600FF009900FF00CC00FF00FF00FF000033FF003333FF006633FF009933FF00CC33FF00FF33FF000066FF003366FF006666FF009966FF00CC66FF00FF66FF000099FF003399FF006699FF009999FF00CC
310
99FF00FF99FF0000CCFF0033CCFF0066CCFF0099CCFF00CCCCFF00FFCCFF0000FFFF0033FFFF0066FFFF0099FFFF00CCFFFF00FFFFFF00000000000D0D0D001A1A1A00282828003535350043434300505050005D5D5D006B6B6B00787878008686860093939300A1A1A100AEAEAE00BBBBBB00C9C9C900D6D6D600E4E4E400
310
F1F1F100FFFFFF0000000000000000000000000000000000000000000000000000000000000000000000000000000000E2E2E2E2E2E2E2E2E2E2E2E2E2E2E2E2E2E2E2E2E2E2E2E2E2E2E2E2E2E2E2E2E2E2E2E2E2E2E2E2E2E2E2E2E2E2E2E2E2E2E2E2E2E2E2E2E2E2E2E2E2E2E2E2E2E2E2E2E2E2E2E2E2E2E2E2E2E2E2
310
E2E2E2E2E2E2E2E2E2E2E2E2E2E2E2E2E2E2E2E2E2E2E2E2E2E2E2E2E2E2E2E2E2E2E2E2E2E2E2E2E2E2E2E2E2E2E2E2E2E2E2E2E2E2E2E2E2E2E2E2E2E2E2E2E2E2E2E2E2E2E2E2E2E2E2E2E2E2E2E2E2E2E2E2E2E2E2E2E2E2E2E2E2E2E2E2E2E2E2E2E2E2F5F5F5F5F5F5F5F5F5F5F5F5F5F5F5F5F5F5F5F5F5F5F5F5F5
310
F5F5F5F5F5F5F5F5F5F5F5F5F5F5F5F5F5F5F5F5F5F5F5F5F5F5F5F5F5F5F5F5F5F5F5F5F5F5F5F5F5F5F5F5F5F5F5F5F5F5F5F5F5F5F5F5F5F5F5F5F5F5F5F5F5F5F5F5F5F5F5F5F5F5F5F5F5F5F5F5F5F5F5F5F5F5F5F5F5F5F5F5F5F5F5F5F5F5F5F5F5F5F5F5F5F5F5F5F5F5F5F5F5F5F5F5F5F5F5F5F5F5F5F5F5F5F5
310
F5F5F5F5F5F5F5F5F5F5F5F5F5F5F5F5F5F5F5F5F5F5F5F5F5E2E2E2F5F5F5F5F5F5F5F5F5F5F5F5F5F5F5F5F5F5F5F5F5F5F5F5F5F5F5F5F5F5F5F5F5F5F5F5F5F5F5F5F5F5F5F5F5F5F5F5F5F5F5F5F5F5F5F5F5F5F5F5F5F5F5F5F5F5F5F5F5F5F5F5F5F5F5F5F5F5F5F5F5F5F5F5F5F5F5F5F5F5F5F5F5F5F5F5F5F5F5
310
F5F5F5F5F5F5F5F5F5F5F5F5F5F5F5F5F5F5F5F5F5F5F5F5F5F5F5F5F5F5F5F5F5F5F5F5F5F5F5F5F5F5F5F5F5F5F5F5F5F5F5F5F5F5F5F5F5F5F5F5F5F5F5F5F5F5F5F5F5F5F5F5F5F5F5F5F5F5E2E2E2F5F5F5F5F5F5F5F5F5F5F5F5F5F5F5F5F5F5F5F5F5F5F5F5F5F5F5F5F5F5F5F5F5F5F5F5F5F5F5F5F5F5F5F5F5F5
310
F5F5F5F5F5F5F5F5F5F5F5F5F5F5F5F5F5F5F5F5F5F5F5F5F5F5F5F5F5F5F5F5F5F5F5F5F5F5F5F5F5F5F5F5F5F5F5F5F5F5F5F5F5F5F5F5F5F5F5F5F5F5F5F5F5F5F5F5F5F5F5F5F5F5F5F5F5F5F5F5F5F5F5F5F5F5F5F5F5F5F5F5F5F5F5F5F5F5F5F5F5F5F5F5F5F5F5F5F5F5F5F5F5F5F5F5F5F5F5F5F5F5F5F5F5F5F5
310
F5F5F5F5E2E2E2F5F5F5F5F5F5F5F5F5F5F5F5F5F5F5F5F5F5F5F5F5F5F5F5F5F5F5F5F5F5F5F5F5F5F5F5F5F5F5F5F5F5F5F5F5F5F5F5F5F5F5F5F5F5F5F5F5F5F5F5F5F5F5F5F5F5F5F5F5F5F5F5F5F5F5F5F5F5F5F5F5F5F5F5F5F5F5F5F5F5F5F5F5F5F5F5F5F5F5F5F5F5F5F5F5F5F5F5F5F5F5F5F5F5F5F5F5F5F5F5
310
F5F5F5F5F5F5F5F5F5F5F5F5F5F5F5F5F5F5F5F5F5F5F5F5F5F5F5F5F5F5F5F5F5F5F5F5F5F5F5F5F5F5F5F5F5F5F5F5F5F5F5F5F5F5F5F5F5E2E2E2F5F5F5F5F5F5F5F5F5F5F5E2E2E2E2E2E2E2E2E2F5F5F5F5F5F5F5F5F5E2E2E2E2E2E2E2E2E2E2E2E2E2E2E2E2F5F5F5F5F5F5F5F5F5F5E2E2E2E2E2E2E2E2E2E2E2E2
310
E2E2E2E2F5F5F5F5F5F5F5F5F5E2E2E2E2E2E2E2E2E2E2E2E2E2E2E2E2E2F5F5F5F5F5F5F5F5F5E2E2E2E2E2E2E2E2E2E2E2E2E2E2E2E2F5F5F5F5F5F5F5F5F5F5E2E2E2E2E2E2E2E2E2E2E2E2E2E2E2E2F5F5F5F5F5F5F5F5F5E2E2E2E2E2E2E2E2E2F5F5F5F5F5F5F5F5F5F5F5E2E2E2F5F5F5F5F5F5F5F5F5F5F5E2F5F5
310
F5F5F5F5F5F5F5F5F5F5F5F5F5F5F5F5F5F5F5F5F5F5F5F5F5F5F5F5F5F5F5F5F5F5F5F5F5F5F5F5F5F5F5F5F5F5F5F5F5F5F5F5F5F5F5F5F5F5F5F5F5F5F5F5F5F5F5F5F5F5F5F5F5F5F5F5F5F5F5F5F5F5F5F5F5F5F5F5F5F5F5F5F5F5F5F5F5F5F5F5F5F5F5F5F5F5F5F5F5F5F5F5F5F5F5F5F5F5F5F5F5F5F5F5F5F5F5
310
F5F5F5F5F5F5F5F5F5F5F5F5F5F5F5F5F5F5F5F5F5F5F5F5E2F5F5F5F5F5F5F5F5F5F5F5E2E2E2F5F5F5F5F5F5F5F5F5F5F5E2F5F5F5F5F5F5F5F5F5F5F5F5F5F5F5F5F5F5F5F5F5F5F5F5F5F5F5F5F5F5F5F5F5F5F5F5F5F5F5F5F5F5F5F5F5F5F5F5F5F5F5F5F5F5F5F5F5F5F5F5F5F5F5F5F5F5F5F5F5F5F5F5F5F5F5F5
310
F5F5F5F5F5F5F5F5F5F5F5F5F5F5F5F5F5F5F5F5F5F5F5F5F5F5F5F5F5F5F5F5F5F5F5F5F5F5F5F5F5F5F5F5F5F5F5F5F5F5F5F5F5F5F5F5F5F5F5F5F5F5F5F5F5F5F5F5F5F5F5F5F5F5F5F5F5E2F5F5F5F5F5F5F5F5F5F5F5E2E2E2F5F5F5F5F5F5F5F5F5F5F5E2F5F5F5F5F5F5F5F5F5F5F5F5F5F5F5F5F5F5F5F5F5F5F5
310
F5F5F5F5F5F5F5F5F5F5F5F5F5F5F5F5F5F5F5F5F5F5F5F5F5F5F5F5F5F5F5F5F5F5F5F5F5F5F5F5F5F5F5F5F5F5F5F5F5F5F5F5F5F5F5F5F5F5F5F5F5F5F5F5F5F5F5F5F5F5F5F5F5F5F5F5F5F5F5F5F5F5F5F5F5F5F5F5F5F5F5F5F5F5F5F5F5F5F5F5F5F5F5F5F5F5F5F5F5F5F5F5F5F5F5F5F5F5F5F5F5F5F5F5F5F5F5
310
F5F5F5E2F5F5F5F5F5F5F5F5F5F5F5E2E2E2F5F5F5F5F5F5F5F5F5F5F5E2F5F5F5F5F5F5F5F5F5F5F5F5F5F5F5F5F5F5F5F5F5F5F5F5F5F5F5F5F5F5F5F5F5F5F5F5F5F5F5F5F5F5F5F5F5F5F5F5F5F5F5F5F5F5F5F5F5F5F5F5F5F5F5F5F5F5F5F5F5F5F5F5F5F5F5F5F5F5F5F5F5F5F5F5F5F5F5F5F5F5F5F5F5F5F5F5F5
310
F5F5F5F5F5F5F5F5F5F5F5F5F5F5F5F5F5F5F5F5F5F5F5F5F5F5F5F5F5F5F5F5F5F5F5F5F5F5F5F5F5F5F5F5F5F5F5F5F5F5F5F5F5F5F5F5E2F5F5F5F5F5F5F5F5F5F5F5E2E2E2F5F5F5F5F5F5F5F5F5F5F5E2F5F5F5F5F5F5F5F5F5F5F5F5F5F5F5F5F5F5F5F5F5F5F5F5F5F5F5F5F5F5F5F5F5F5F5F5F5F5F5F5F5F5F5F5
310
F5F5F5F5F5F5F5F5F5F5F5F5F5F5F5F5F5F5F5F5F5F5F5F5F5F5F5F5F5F5F5F5F5F5F5F5F5F5F5F5F5F5F5F5F5F5F5F5F5F5F5F5F5F5F5F5F5F5F5F5F5F5F5F5F5F5F5F5F5F5F5F5F5F5F5F5F5F5F5F5F5F5F5F5F5F5F5F5F5F5F5F5F5F5F5F5F5F5F5F5F5F5F5F5F5F5F5F5F5E2F5F5F5F5F5F5F5F5F5F5F5E2E2E2F5F5F5
310
F5F5F5F5F5F5F5F5E2F5F5F5F5F5F5F5F5F5F5F5F5F5F5F5F5F5F5F5F5F5F5F5F5F5F5F5F5F5F5F5F5F5F5F5F5F5F5F5F5F5F5F5F5F5F5F5F5F5F5F5F5F5F5F5F5F5F5F5F5F5F5F5F5F5F5F5F5F5F5F5F5F5F5F5F5F5F5F5F5F5F5F5F5F5F5F5F5F5F5F5F5F5F5F5F5F5F5F5F5F5F5F5F5F5F5F5F5F5F5F5F5F5F5F5F5F5F5
310
F5F5F5F5F5F5F5F5F5F5F5F5F5F5F5F5F5F5F5F5F5F5F5F5F5F5F5F5F5F5F5F5F5F5F5E2F5F5F5F5F5F5F5F5F5F5F5E2E2E2F5F5F5F5F5F5F5F5F5F5F5E2F5F5F5F5F5F5F5F5F5F5F5F5F5F5F5F5F5F5F5F5F5F5F5F5F5F5F5F5F5F5F5F5F5F5F5F5F5F5F5F5F5F5F5F5F5F5F5F5F5F5F5F5F5F5F5F5F5F5F5F5F5F5F5F5F5
310
F5F5F5F5F5F5F5F5F5F5F5F5F5F5F5F5F5F5F5F5F5F5F5F5F5F5F5F5F5F5F5F5F5F5F5F5F5F5F5F5F5F5F5F5F5F5F5F5F5F5F5F5F5F5F5F5F5F5F5F5F5F5F5F5F5F5F5F5F5F5F5F5F5F5F5F5F5F5F5F5F5F5F5F5F5F5F5F5E2F5F5F5F5F5F5F5F5F5F5F5E2E2E2F5F5F5F5F5F5F5F5F5F5F5F5F5F5F5F5F5F5F5F5F5F5F5F5
310
F5F5F5F5F5F5F5F5F5F5F5F5F5F5F5F5F5F5F5F5F5F5F5F5F5F5F5F5F5F5F5F5F5F5F5F5F5F5F5F5F5F5F5F5F5F5F5F5F5F5F5F5F5F5F5F5F5F5F5F5F5F5F5F5F5F5F5F5F5F5F5F5F5F5F5F5F5F5F5F5F5F5F5F5F5F5F5F5F5F5F5F5F5F5F5F5F5F5F5F5F5F5F5F5F5F5F5F5F5F5F5F5F5F5F5F5F5F5F5F5F5F5F5F5F5F5F5
310
F5F5F5F5F5F5F5F5F5F5F5F5F5F5F5F5F5F5F5F5F5F5F5F5F5F5E2E2E2F5F5F5F5F5F5F5F5F5F5F5F5F5F5F5F5F5F5F5F5F5F5F5F5F5F5F5F5F5F5F5F5F5F5F5F5F5F5F5F5F5F5F5F5F5F5F5F5F5F5F5F5F5F5F5F5F5F5F5F5F5F5F5F5F5F5F5F5F5F5F5F5F5F5F5F5F5F5F5F5F5F5F5F5F5F5F5F5F5F5F5F5F5F5F5F5F5F5
310
F5F5F5F5F5F5F5F5F5F5F5F5F5F5F5F5F5F5F5F5F5F5F5F5F5F5F5F5F5F5F5F5F5F5F5F5F5F5F5F5F5F5F5F5F5F5F5F5F5F5F5F5F5F5F5F5F5F5F5F5F5F5F5F5F5F5F5F5F5F5F5F5F5F5F5F5F5F5F5E2E2E2F5F5F5F5F5F5F5F5F5F5F5F5F5F5F5F5F5F5F5F5F5F5F5F5F5F5F5F5F5F5F5F5F5F5F5F5F5F5F5F5F5F5F5F5F5
310
F5F5F5F5F5F5F5F5F5F5F5F5F5F5F5F5F5F5F5F5F5F5F5F5F5F5F5F5F5F5F5F5F5F5F5F5F5F5F5F5F5F5F5F5F5F5F5F5F5F5F5F5F5F5F5F5F5F5F5F5F5F5F5F5F5F5F5F5F5F5F5F5F5F5F5F5F5F5F5F5F5F5F5F5F5F5F5F5F5F5F5F5F5F5F5F5F5F5F5F5F5F5F5F5F5F5F5F5F5F5F5F5F5F5F5F5F5F5F5F5F5F5F5F5F5F5F5
310
F5F5F5F5F5E2E2E2F5F5F5F5F5F5F5F5F5F5F5F5F5F5F5F5F5F5F5F5F5F5F5F5F5F5E2E2E2E2E2E2E2E2E2E2E2E2E2E2E2E2E2E2E2E2E2E2E2E2E2E2E2E2E2E2E2E2E2E2E2E2E2E2E2E2E2E2E2E2E2E2E2E2E2E2E2E2E2E2E2E2E2E2E2E2E2E2E2E2E2E2E2E2E2E2E2E2E2E2E2E2E2E2E2E2E2E2E2E2E2E2E2E2E2E2E2E2E2
310
E2E2E2E2E2E2E2E2E2E2E2E2E2E2E2E2E2E2E2E2E2E2E2E2E2E2E2E2E2E2E2E2F5F5F5F5F5F5F5F5F5F5F5F5F5F5F5F5F5F5F5F5F5F5F5F5F5F5E2E2E2F5F5F5F5F5F5F5F5F5F5F5F5F5F5F5F5F5F5F5F5F5F5F5F5F5F5E2F5F5F5F5F5F5F5F5F5F5F5F5F5F5F5F5F5F5F5F5F5F5F5F5F5F5F5F5F5F5F5F5F5F5F5F5F5F5F5
310
F5F5F5F5F5F5F5F5F5F5F5F5F5F5F5F5F5F5F5F5F5F5F5F5F5F5F5F5F5F5F5F5F5F5F5F5F5F5F5F5F5F5F5F5F5F5F5F5F5F5F5F5F5F5F5F5F5F5F5F5F5F5F5F5F5F5F5F5F5F5F5F5F5F5F5F5F5F5F5F5F5F5F5F5E2F5F5F5F5F5F5F5F5F5F5F5F5F5F5F5F5F5F5F5F5F5F5F5F5F5F5E2E2E2F5F5F5F5F5F5F5F5F5F5F5F5F5
310
F5F5F5F5F5F5F5F5F5F5F5F5F5E2F5F5F5F5F5F5F5F5F5F5F5F5F5F5F5F5F5F5F5F5F5F5F5F5F5F5F5F5F5F5F5F5F5F5F5F5F5F5F5F5F5F5F5F5F5F5F5F5F5F5F5F5F5F5F5F5F5F5F5F5F5F5F5F5F5F5F5F5F5F5F5F5F5F5F5F5F5F5F5F5F5F5F5F5F5F5F5F5F5F5F5F5F5F5F5F5F5F5F5F5F5F5F5F5F5F5F5F5F5F5F5F5F5
310
F5F5F5F5F5F5F5F5F5F5E2F5F5F5F5F5F5F5F5F5F5F5F5F5F5F5F5F5F5F5F5F5F5F5F5F5F5E2E2E2F5F5F5F5F5F5F5F5F5F5F5F5F5F5F5F5F5F5F5F5F5F5F5F5F5F5E2F5F5F5F5F5F5F5F5F5F5F5F5F5F5F5F5F5F5F5F5F5F5F5F5F5F5F5F5F5F5F5F5F5F5F5F5F5F5F5F5F5F5F5F5F5F5F5F5F5F5F5F5F5F5F5F5F5F5F5F5
310
F5F5F5F5F5F5F5F5F5F5F5F5F5F5F5F5F5F5F5F5F5F5F5F5F5F5F5F5F5F5F5F5F5F5F5F5F5F5F5F5F5F5F5F5F5F5F5F5F5F5F5F5F5F5F5F5F5F5F5F5F5F5F5E2F5F5F5F5F5F5F5F5F5F5F5F5F5F5F5F5F5F5F5F5F5F5F5F5F5F5E2E2E2F5F5F5F5F5F5F5F5F5F5F5F5F5F5F5F5F5F5F5F5F5F5F5F5F5F5E2F5F5F5F5F5F5F5
310
F5F5F5F5F5F5F5F5F5F5F5F5F5F5F5F5F5F5F5F5F5F5F5F5F5F5F5F5F5F5F5F5F5F5F5F5F5F5F5F5F5F5F5F5F5F5F5F5F5F5F5F5F5F5F5F5F5F5F5F5F5F5F5F5F5F5F5F5F5F5F5F5F5F5F5F5F5F5F5F5F5F5F5F5F5F5F5F5F5F5F5F5F5F5F5F5F5F5F5F5F5F5F5F5F5F5F5F5F5F5F5F5F5F5F5F5E2F5F5F5F5F5F5F5F5F5F5
310
F5F5F5F5F5F5F5F5F5F5F5F5F5F5F5F5E2E2E2F5F5F5F5F5F5F5F5F5F5F5E2F5F5F5F5F5F5F5F5F5F5F5F5F5F5E2F5F5F5F5F5F5F5F5F5F5F5F5F5F5F5F5F5F5F5F5F5F5F5F5F5F5F5F5F5F5F5F5F5F5F5F5F5F5F5F5F5F5F5F5F5F5F5F5F5F5F5F5F5F5F5F5F5F5F5F5F5F5F5F5F5F5F5F5F5F5F5F5F5F5F5F5F5F5F5F5F5
310
F5F5F5F5F5F5F5F5F5F5F5F5F5F5F5F5F5F5F5F5F5F5F5F5F5F5F5F5F5F5F5F5F5F5F5F5F5F5F5F5F5F5E2F5F5F5F5F5F5F5F5F5F5F5F5F5F5E2F5F5F5F5F5F5F5F5F5F5F5E2E2E2F5F5F5F5F5F5F5F5F5F5F5E2F5F5F5F5F5F5F5F5F5F5F5F5F5F5E2F5F5F5F5F5F5F5F5F5F5F5F5F5F5F5F5F5F5F5F5F5F5F5F5F5F5F5F5
310
F5F5F5F5F5F5F5F5F5F5F5F5F5F5F5F5F5F5F5F5F5F5F5F5F5F5F5F5F5F5F5F5F5F5F5F5F5F5F5F5F5F5F5F5F5F5F5F5F5F5F5F5F5F5F5F5F5F5F5F5F5F5F5F5F5F5F5F5F5F5F5F5F5F5F5F5F5F5F5F5F5F5F5F5F5F5F5F5F5F5F5F5F5F5F5E2F5F5F5F5F5F5F5F5F5F5F5F5F5F5E2F5F5F5F5F5F5F5F5F5F5F5E2E2E2F5F5
310
F5F5F5F5F5F5F5F5F5E2F5F5F5F5F5F5F5F5F5F5F5F5F5F5E2F5F5F5F5F5F5F5F5F5F5F5F5F5F5F5F5F5F5F5F5F5F5F5F5F5F5F5F5F5F5F5F5F5F5F5F5F5F5F5F5F5F5F5F5F5F5F5F5F5F5F5F5F5F5F5F5F5F5F5F5F5F5F5F5F5F5F5F5F5F5F5F5F5F5F5F5F5F5F5F5F5F5F5F5F5F5F5F5F5F5F5F5F5F5F5F5F5F5F5F5F5F5
310
F5F5F5F5F5F5F5F5F5F5F5F5F5F5F5F5F5F5F5F5F5E2F5F5F5F5F5F5F5F5F5F5F5F5F5F5E2F5F5F5F5F5F5F5F5F5F5F5E2E2E2F5F5F5F5F5F5F5F5F5F5F5E2F5F5F5F5F5F5F5F5F5F5F5F5F5F5E2F5F5F5F5F5F5F5F5F5F5F5F5F5F5F5F5F5F5F5F5F5F5F5F5F5F5F5F5F5F5F5F5F5F5F5F5F5F5F5F5F5F5F5F5F5F5F5F5F5
310
F5F5F5F5F5F5F5F5F5F5F5F5F5F5F5F5F5F5F5F5F5F5F5F5F5F5F5F5F5F5F5F5F5F5F5F5F5F5F5F5F5F5F5F5F5F5F5F5F5F5F5F5F5F5F5F5F5F5F5F5F5F5F5F5F5F5F5F5F5F5F5F5F5F5E2F5F5F5F5F5F5F5F5F5F5F5F5F5F5E2F5F5F5F5F5F5F5F5F5F5F5E2E2E2F5F5F5F5F5F5F5F5F5F5F5E2F5F5F5F5F5F5F5F5F5F5F5
310
F5F5F5E2F5F5F5F5F5F5F5F5F5F5F5F5F5F5F5F5F5F5F5F5F5F5F5F5F5F5F5F5F5F5F5F5F5F5F5F5F5F5F5F5F5F5F5F5F5F5F5F5F5F5F5F5F5F5F5F5F5F5F5F5F5F5F5F5F5F5F5F5F5F5F5F5F5F5F5F5F5F5F5F5F5F5F5F5F5F5F5F5F5F5F5F5F5F5F5F5F5F5F5F5F5F5F5F5F5F5F5F5F5F5F5F5F5F5F5F5F5F5F5F5F5F5F5
310
E2F5F5F5F5F5F5F5F5F5F5F5F5F5F5E2F5F5F5F5F5F5F5F5F5F5F5E2E2E2F5F5F5F5F5F5F5F5F5F5F5E2F5F5F5F5F5F5F5F5F5F5F5F5F5F5E2F5F5F5F5F5F5F5F5F5F5F5F5F5F5F5F5F5F5F5F5F5F5F5F5F5F5F5F5F5F5F5F5F5F5F5F5F5F5F5F5F5F5F5F5F5F5F5F5F5F5F5F5F5F5F5F5F5F5F5F5F5F5F5F5F5F5F5F5F5F5
310
F5F5F5F5F5F5F5F5F5F5F5F5F5F5F5F5F5F5F5F5F5F5F5F5F5F5F5F5F5F5F5F5F5F5F5F5F5F5F5F5F5F5F5F5F5F5F5F5F5F5F5F5F5E2F5F5F5F5F5F5F5F5F5F5F5F5F5F5E2F5F5F5F5F5F5F5F5F5F5F5E2E2E2F5F5F5F5F5F5F5F5F5F5F5E2F5F5F5F5F5F5F5F5F5F5F5F5F5F5E2F5F5F5F5F5F5F5F5F5F5F5F5F5F5F5F5F5
310
F5F5F5F5F5F5F5F5F5F5F5F5F5F5F5F5F5F5F5F5F5F5F5F5F5F5F5F5F5F5F5F5F5F5F5F5F5F5F5F5F5F5F5F5F5F5F5F5F5F5F5F5F5F5F5F5F5F5F5F5F5F5F5F5F5F5F5F5F5F5F5F5F5F5F5F5F5F5F5F5F5F5F5F5F5F5F5F5F5F5F5F5F5F5F5F5F5F5F5F5F5F5F5F5F5F5E2F5F5F5F5F5F5F5F5F5F5F5F5F5F5E2F5F5F5F5F5
310
F5F5F5F5F5F5E2E2E2F5F5F5F5F5F5F5F5F5F5F5E2F5F5F5F5F5F5F5F5F5F5F5F5F5F5E2F5F5F5F5F5F5F5F5F5F5F5F5F5F5F5F5F5F5F5F5F5F5F5F5F5F5F5F5F5F5F5F5F5F5F5F5F5F5F5F5F5F5F5F5F5F5F5F5F5F5F5F5F5F5F5F5F5F5F5F5F5F5F5F5F5F5F5F5F5F5F5F5F5F5F5F5F5F5F5F5F5F5F5F5F5F5F5F5F5F5F5
310
F5F5F5F5F5F5F5F5F5F5F5F5F5F5F5F5F5F5F5F5F5F5F5F5F5F5F5F5F5F5F5F5E2F5F5F5F5F5F5F5F5F5F5F5F5F5F5E2F5F5F5F5F5F5F5F5F5F5F5E2E2E2F5F5F5F5F5F5F5F5F5F5F5E2F5F5F5F5F5F5F5F5F5F5F5F5F5F5E2F5F5F5F5F5F5F5F5F5F5F5F5F5F5F5F5F5F5F5F5F5F5F5F5F5F5F5F5F5F5F5F5F5F5F5F5F5F5
310
F5F5F5F5F5F5F5F5F5F5F5F5F5F5F5F5F5F5F5F5F5F5F5F5F5F5F5F5F5F5F5F5F5F5F5F5F5F5F5F5F5F5F5F5F5F5F5F5F5F5F5F5F5F5F5F5F5F5F5F5F5F5F5F5F5F5F5F5F5F5F5F5F5F5F5F5F5F5F5F5F5F5F5F5F5E2F5F5F5F5F5F5F5F5F5F5F5F5F5F5E2F5F5F5F5F5F5F5F5F5F5F5E2E2E2F5F5F5F5F5F5F5F5F5F5F5E2
310
F5F5F5F5F5F5F5F5F5F5F5F5F5F5E2F5F5F5F5F5F5F5F5F5F5F5F5F5F5F5F5F5F5F5F5F5F5F5F5F5F5F5F5F5F5F5F5F5F5F5F5F5F5F5F5F5F5F5F5F5F5F5F5F5F5F5F5F5F5F5F5F5F5F5F5F5F5F5F5F5F5F5F5F5F5F5F5F5F5F5F5F5F5F5F5F5F5F5F5F5F5F5F5F5F5F5F5F5F5F5F5F5F5F5F5F5F5F5F5F5F5F5F5F5F5F5F5
310
F5F5F5F5F5F5F5F5F5F5F5E2F5F5F5F5F5F5F5F5F5F5F5F5F5F5E2F5F5F5F5F5F5F5F5F5F5F5E2E2E2F5F5F5F5F5F5F5F5F5F5F5E2F5F5F5F5F5F5F5F5F5F5F5F5F5F5E2F5F5F5F5F5F5F5F5F5F5F5F5F5F5F5F5F5F5F5F5F5F5F5F5F5F5F5F5F5F5F5F5F5F5F5F5F5F5F5F5F5F5F5F5F5F5F5F5F5F5F5F5F5F5F5F5F5F5F5
310
F5F5F5F5F5F5F5F5F5F5F5F5F5F5F5F5F5F5F5F5F5F5F5F5F5F5F5F5F5F5F5F5F5F5F5F5F5F5F5F5F5F5F5F5F5F5F5F5F5F5F5F5F5F5F5F5F5F5F5F5F5F5F5F5E2F5F5F5F5F5F5F5F5F5F5F5F5F5F5E2F5F5F5F5F5F5F5F5F5F5F5E2E2E2F5F5F5F5F5F5F5F5F5F5F5E2F5F5F5F5F5F5F5F5F5F5F5F5F5F5E2F5F5F5F5F5F5
310
F5F5F5F5F5F5F5F5F5F5F5F5F5F5F5F5F5F5F5F5F5F5F5F5F5F5F5F5F5F5F5F5F5F5F5F5F5F5F5F5F5F5F5F5F5F5F5F5F5F5F5F5F5F5F5F5F5F5F5F5F5F5F5F5F5F5F5F5F5F5F5F5F5F5F5F5F5F5F5F5F5F5F5F5F5F5F5F5F5F5F5F5F5F5F5F5F5F5F5F5F5F5F5F5F5F5F5F5F5F5F5F5F5F5F5F5F5E2F5F5F5F5F5F5F5F5F5
310
F5F5F5F5F5E2F5F5F5F5F5F5F5F5F5F5F5E2E2E2F5F5F5F5F5F5F5F5F5F5F5E2F5F5F5F5F5F5F5F5F5F5F5F5F5F5E2F5F5F5F5F5F5F5F5F5F5F5F5F5F5F5F5F5F5F5F5F5F5F5F5F5F5F5F5F5F5F5F5F5F5F5F5F5F5F5F5F5F5F5F5F5F5F5F5F5F5F5F5F5F5F5F5F5F5F5F5F5F5F5F5F5F5F5F5F5F5F5F5F5F5F5F5F5F5F5F5
310
F5F5F5F5F5F5F5F5F5F5F5F5F5F5F5F5F5F5F5F5F5F5F5F5F5F5F5F5F5F5F5F5F5F5F5F5F5F5F5F5F5F5F5E2F5F5F5F5F5F5F5F5F5F5F5F5F5F5E2F5F5F5F5F5F5F5F5F5F5F5E2E2E2F5F5F5F5F5F5F5F5F5F5F5E2F5F5F5F5F5F5F5F5F5F5F5F5F5F5E2F5F5F5F5F5F5F5F5F5F5F5F5F5F5F5F5F5F5F5F5F5F5F5F5F5F5F5
310
F5F5F5F5F5F5F5F5F5F5F5F5F5F5F5F5F5F5F5F5F5F5F5F5F5F5F5F5F5F5F5F5F5F5F5F5F5F5F5F5F5F5F5F5F5F5F5F5F5F5F5F5F5F5F5F5F5F5F5F5F5F5F5F5F5F5F5F5F5F5F5F5F5F5F5F5F5F5F5F5F5F5F5F5F5F5F5F5F5F5F5F5F5F5F5F5E2F5F5F5F5F5F5F5F5F5F5F5F5F5F5E2F5F5F5F5F5F5F5F5F5F5F5E2E2E2F5
310
F5F5F5F5F5F5F5F5F5F5E2F5F5F5F5F5F5F5F5F5F5F5F5F5F5E2F5F5F5F5F5F5F5F5F5F5F5F5F5F5F5F5F5F5F5F5F5F5F5F5F5F5F5F5F5F5F5F5F5F5F5F5F5F5F5F5F5F5F5F5F5F5F5F5F5F5F5F5F5F5F5F5F5F5F5F5F5F5F5F5F5F5F5F5F5F5F5F5F5F5F5F5F5F5F5F5F5F5F5F5F5F5F5F5F5F5F5F5F5F5F5F5F5F5F5F5F5
310
F5F5F5F5F5F5F5F5F5F5F5F5F5F5F5F5F5F5F5F5F5F5E2F5F5F5F5F5F5F5F5F5F5F5F5F5F5E2F5F5F5F5F5F5F5F5F5F5F5E2E2E2F5F5F5F5F5F5F5F5F5F5F5F5F5F5F5F5F5F5F5F5F5F5F5F5F5F5E2F5F5F5F5F5F5F5F5F5F5F5F5F5F5F5F5F5F5F5F5F5F5F5F5F5F5F5F5F5F5F5F5F5F5F5F5F5F5F5F5F5F5F5F5F5F5F5F5
310
F5F5F5F5F5F5F5F5F5F5F5F5F5F5F5F5F5F5F5F5F5F5F5F5F5F5F5F5F5F5F5F5F5F5F5F5F5F5F5F5F5F5F5F5F5F5F5F5F5F5F5F5F5F5F5F5F5F5F5F5F5F5F5F5F5F5F5F5F5F5F5F5F5F5F5E2F5F5F5F5F5F5F5F5F5F5F5F5F5F5F5F5F5F5F5F5F5F5F5F5F5F5E2E2E2F5F5F5F5F5F5F5F5F5F5F5F5F5F5F5F5F5F5F5F5F5F5
310
F5F5F5F5E2F5F5F5F5F5F5F5F5F5F5F5F5F5F5F5F5F5F5F5F5F5F5F5F5F5F5F5F5F5F5F5F5F5F5F5F5F5F5F5F5F5F5F5F5F5F5F5F5F5F5F5F5F5F5F5F5F5F5F5F5F5F5F5F5F5F5F5F5F5F5F5F5F5F5F5F5F5F5F5F5F5F5F5F5F5F5F5F5F5F5F5F5F5F5F5F5F5F5F5F5F5F5F5F5F5F5F5F5F5F5F5F5F5F5F5F5F5F5F5F5F5F5
310
F5E2F5F5F5F5F5F5F5F5F5F5F5F5F5F5F5F5F5F5F5F5F5F5F5F5F5F5E2E2E2F5F5F5F5F5F5F5F5F5F5F5F5F5F5F5F5F5F5F5F5F5F5F5F5F5F5E2F5F5F5F5F5F5F5F5F5F5F5F5F5F5F5F5F5F5F5F5F5F5F5F5F5F5F5F5F5F5F5F5F5F5F5F5F5F5F5F5F5F5F5F5F5F5F5F5F5F5F5F5F5F5F5F5F5F5F5F5F5F5F5F5F5F5F5F5F5
310
F5F5F5F5F5F5F5F5F5F5F5F5F5F5F5F5F5F5F5F5F5F5F5F5F5F5F5F5F5F5F5F5F5F5F5F5F5F5F5F5F5F5F5F5F5F5F5F5F5F5F5F5F5F5E2F5F5F5F5F5F5F5F5F5F5F5F5F5F5F5F5F5F5F5F5F5F5F5F5F5F5E2E2E2F5F5F5F5F5F5F5F5F5F5F5F5F5F5F5F5F5F5F5F5F5F5F5F5F5F5E2F5F5F5F5F5F5F5F5F5F5F5F5F5F5F5F5
310
F5F5F5F5F5F5F5F5F5F5F5F5F5F5F5F5F5F5F5F5F5F5F5F5F5F5F5F5F5F5F5F5F5F5F5F5F5F5F5F5F5F5F5F5F5F5F5F5F5F5F5F5F5F5F5F5F5F5F5F5F5F5F5F5F5F5F5F5F5F5F5F5F5F5F5F5F5F5F5F5F5F5F5F5F5F5F5F5F5F5F5F5F5F5F5F5F5F5F5F5F5F5F5F5F5F5F5E2F5F5F5F5F5F5F5F5F5F5F5F5F5F5F5F5F5F5F5
310
F5F5F5F5F5F5F5E2E2E2F5F5F5F5F5F5F5F5F5F5F5F5F5F5F5F5F5F5F5F5F5F5F5F5F5F5E2F5F5F5F5F5F5F5F5F5F5F5F5F5F5F5F5F5F5F5F5F5F5F5F5F5F5F5F5F5F5F5F5F5F5F5F5F5F5F5F5F5F5F5F5F5F5F5F5F5F5F5F5F5F5F5F5F5F5F5F5F5F5F5F5F5F5F5F5F5F5F5F5F5F5F5F5F5F5F5F5F5F5F5F5F5F5F5F5F5F5
310
F5F5F5F5F5F5F5F5F5F5F5F5F5F5F5F5F5F5F5F5F5F5F5F5F5F5F5F5F5F5F5F5F5E2F5F5F5F5F5F5F5F5F5F5F5F5F5F5F5F5F5F5F5F5F5F5F5F5F5F5E2E2E2F5F5F5F5F5F5F5F5F5F5F5F5F5F5F5F5F5F5F5F5F5F5F5F5F5F5E2F5F5F5F5F5F5F5F5F5F5F5F5F5F5F5F5F5F5F5F5F5F5F5F5F5F5F5F5F5F5F5F5F5F5F5F5F5
310
F5F5F5F5F5F5F5F5F5F5F5F5F5F5F5F5F5F5F5F5F5F5F5F5F5F5F5F5F5F5F5F5F5F5F5F5F5F5F5F5F5F5F5F5F5F5F5F5F5F5F5F5F5F5F5F5F5F5F5F5F5F5F5F5F5F5F5F5F5F5F5F5F5F5F5F5F5F5F5F5F5F5F5F5F5F5E2F5F5F5F5F5F5F5F5F5F5F5F5F5F5F5F5F5F5F5F5F5F5F5F5F5F5E2E2E2F5F5F5F5F5F5F5F5F5F5F5
310
F5F5F5F5F5F5F5F5F5F5F5F5F5F5F5E2F5F5F5F5F5F5F5F5F5F5F5F5F5F5F5F5F5F5F5F5F5F5F5F5F5F5F5F5F5F5F5F5F5F5F5F5F5F5F5F5F5F5F5F5F5F5F5F5F5F5F5F5F5F5F5F5F5F5F5F5F5F5F5F5F5F5F5F5F5F5F5F5F5F5F5F5F5F5F5F5F5F5F5F5F5F5F5F5F5F5F5F5F5F5F5F5F5F5F5F5F5F5F5F5F5F5F5F5F5F5F5
310
F5F5F5F5F5F5F5F5F5F5F5F5E2F5F5F5F5F5F5F5F5F5F5F5F5F5F5F5F5F5F5F5F5F5F5F5F5F5F5E2E2E2F5F5F5F5F5F5F5F5F5F5F5F5F5F5F5F5F5F5F5F5F5F5F5F5F5F5E2F5F5F5F5F5F5F5F5F5F5F5F5F5F5F5F5F5F5F5F5F5F5F5F5F5F5F5F5F5F5F5F5F5F5F5F5F5F5F5F5F5F5F5F5F5F5F5F5F5F5F5F5F5F5F5F5F5F5
310
F5F5F5F5F5F5F5F5F5F5F5F5F5F5F5F5F5F5F5F5F5F5F5F5F5F5F5F5F5F5F5F5F5F5F5F5F5F5F5F5F5F5F5F5F5F5F5F5F5F5F5F5F5F5F5F5F5F5F5F5F5F5F5F5F5E2F5F5F5F5F5F5F5F5F5F5F5F5F5F5F5F5F5F5F5F5F5F5F5F5F5F5E2E2E2F5F5F5F5F5F5F5F5F5F5F5E2F5F5F5F5F5F5F5F5F5F5F5F5F5F5E2F5F5F5F5F5
310
F5F5F5F5F5F5F5F5F5F5F5F5F5F5F5F5F5F5F5F5F5F5F5F5F5F5F5F5F5F5F5F5F5F5F5F5F5F5F5F5F5F5F5F5F5F5F5F5F5F5F5F5F5F5F5F5F5F5F5F5F5F5F5F5F5F5F5F5F5F5F5F5F5F5F5F5F5F5F5F5F5F5F5F5F5F5F5F5F5F5F5F5F5F5F5F5F5F5F5F5F5F5F5F5F5F5F5F5F5F5F5F5F5F5F5F5F5F5E2F5F5F5F5F5F5F5F5
310
F5F5F5F5F5F5E2F5F5F5F5F5F5F5F5F5F5F5E2E2E2F5F5F5F5F5F5F5F5F5F5F5E2F5F5F5F5F5F5F5F5F5F5F5F5F5F5E2F5F5F5F5F5F5F5F5F5F5F5F5F5F5F5F5F5F5F5F5F5F5F5F5F5F5F5F5F5F5F5F5F5F5F5F5F5F5F5F5F5F5F5F5F5F5F5F5F5F5F5F5F5F5F5F5F5F5F5F5F5F5F5F5F5F5F5F5F5F5F5F5F5F5F5F5F5F5F5
310
F5F5F5F5F5F5F5F5F5F5F5F5F5F5F5F5F5F5F5F5F5F5F5F5F5F5F5F5F5F5F5F5F5F5F5F5F5F5F5F5F5F5F5F5E2F5F5F5F5F5F5F5F5F5F5F5F5F5F5E2F5F5F5F5F5F5F5F5F5F5F5E2E2E2F5F5F5F5F5F5F5F5F5F5F5E2F5F5F5F5F5F5F5F5F5F5F5F5F5F5E2F5F5F5F5F5F5F5F5F5F5F5F5F5F5F5F5F5F5F5F5F5F5F5F5F5F5
310
F5F5F5F5F5F5F5F5F5F5F5F5F5F5F5F5F5F5F5F5F5F5F5F5F5F5F5F5F5F5F5F5F5F5F5F5F5F5F5F5F5F5F5F5F5F5F5F5F5F5F5F5F5F5F5F5F5F5F5F5F5F5F5F5F5F5F5F5F5F5F5F5F5F5F5F5F5F5F5F5F5F5F5F5F5F5F5F5F5F5F5F5F5F5F5F5F5E2F5F5F5F5F5F5F5F5F5F5F5F5F5F5E2F5F5F5F5F5F5F5F5F5F5F5E2E2E2
310
F5F5F5F5F5F5F5F5F5F5F5E2F5F5F5F5F5F5F5F5F5F5F5F5F5F5E2F5F5F5F5F5F5F5F5F5F5F5F5F5F5F5F5F5F5F5F5F5F5F5F5F5F5F5F5F5F5F5F5F5F5F5F5F5F5F5F5F5F5F5F5F5F5F5F5F5F5F5F5F5F5F5F5F5F5F5F5F5F5F5F5F5F5F5F5F5F5F5F5F5F5F5F5F5F5F5F5F5F5F5F5F5F5F5F5F5F5F5F5F5F5F5F5F5F5F5F5
310
F5F5F5F5F5F5F5F5F5F5F5F5F5F5F5F5F5F5F5F5F5F5F5E2F5F5F5F5F5F5F5F5F5F5F5F5F5F5E2F5F5F5F5F5F5F5F5F5F5F5E2E2E2F5F5F5F5F5F5F5F5F5F5F5E2F5F5F5F5F5F5F5F5F5F5F5F5F5F5E2F5F5F5F5F5F5F5F5F5F5F5F5F5F5F5F5F5F5F5F5F5F5F5F5F5F5F5F5F5F5F5F5F5F5F5F5F5F5F5F5F5F5F5F5F5F5F5
310
F5F5F5F5F5F5F5F5F5F5F5F5F5F5F5F5F5F5F5F5F5F5F5F5F5F5F5F5F5F5F5F5F5F5F5F5F5F5F5F5F5F5F5F5F5F5F5F5F5F5F5F5F5F5F5F5F5F5F5F5F5F5F5F5F5F5F5F5F5F5F5F5F5F5F5F5E2F5F5F5F5F5F5F5F5F5F5F5F5F5F5E2F5F5F5F5F5F5F5F5F5F5F5E2E2E2F5F5F5F5F5F5F5F5F5F5F5E2F5F5F5F5F5F5F5F5F5
310
F5F5F5F5F5E2F5F5F5F5F5F5F5F5F5F5F5F5F5F5F5F5F5F5F5F5F5F5F5F5F5F5F5F5F5F5F5F5F5F5F5F5F5F5F5F5F5F5F5F5F5F5F5F5F5F5F5F5F5F5F5F5F5F5F5F5F5F5F5F5F5F5F5F5F5F5F5F5F5F5F5F5F5F5F5F5F5F5F5F5F5F5F5F5F5F5F5F5F5F5F5F5F5F5F5F5F5F5F5F5F5F5F5F5F5F5F5F5F5F5F5F5F5F5F5F5F5
310
F5F5E2F5F5F5F5F5F5F5F5F5F5F5F5F5F5E2F5F5F5F5F5F5F5F5F5F5F5E2E2E2F5F5F5F5F5F5F5F5F5F5F5E2F5F5F5F5F5F5F5F5F5F5F5F5F5F5E2F5F5F5F5F5F5F5F5F5F5F5F5F5F5F5F5F5F5F5F5F5F5F5F5F5F5F5F5F5F5F5F5F5F5F5F5F5F5F5F5F5F5F5F5F5F5F5F5F5F5F5F5F5F5F5F5F5F5F5F5F5F5F5F5F5F5F5F5
310
F5F5F5F5F5F5F5F5F5F5F5F5F5F5F5F5F5F5F5F5F5F5F5F5F5F5F5F5F5F5F5F5F5F5F5F5F5F5F5F5F5F5F5F5F5F5F5F5F5F5F5F5F5F5F5E2F5F5F5F5F5F5F5F5F5F5F5F5F5F5E2F5F5F5F5F5F5F5F5F5F5F5E2E2E2F5F5F5F5F5F5F5F5F5F5F5E2F5F5F5F5F5F5F5F5F5F5F5F5F5F5E2F5F5F5F5F5F5F5F5F5F5F5F5F5F5F5
310
F5F5F5F5F5F5F5F5F5F5F5F5F5F5F5F5F5F5F5F5F5F5F5F5F5F5F5F5F5F5F5F5F5F5F5F5F5F5F5F5F5F5F5F5F5F5F5F5F5F5F5F5F5F5F5F5F5F5F5F5F5F5F5F5F5F5F5F5F5F5F5F5F5F5F5F5F5F5F5F5F5F5F5F5F5F5F5F5F5F5F5F5F5F5F5F5F5F5F5F5F5F5F5F5F5F5F5F5E2F5F5F5F5F5F5F5F5F5F5F5F5F5F5E2F5F5F5
310
F5F5F5F5F5F5F5F5E2E2E2F5F5F5F5F5F5F5F5F5F5F5E2F5F5F5F5F5F5F5F5F5F5F5F5F5F5E2F5F5F5F5F5F5F5F5F5F5F5F5F5F5F5F5F5F5F5F5F5F5F5F5F5F5F5F5F5F5F5F5F5F5F5F5F5F5F5F5F5F5F5F5F5F5F5F5F5F5F5F5F5F5F5F5F5F5F5F5F5F5F5F5F5F5F5F5F5F5F5F5F5F5F5F5F5F5F5F5F5F5F5F5F5F5F5F5F5
310
F5F5F5F5F5F5F5F5F5F5F5F5F5F5F5F5F5F5F5F5F5F5F5F5F5F5F5F5F5F5F5F5F5F5E2F5F5F5F5F5F5F5F5F5F5F5F5F5F5E2F5F5F5F5F5F5F5F5F5F5F5E2E2E2F5F5F5F5F5F5F5F5F5F5F5E2F5F5F5F5F5F5F5F5F5F5F5F5F5F5E2F5F5F5F5F5F5F5F5F5F5F5F5F5F5F5F5F5F5F5F5F5F5F5F5F5F5F5F5F5F5F5F5F5F5F5F5
310
F5F5F5F5F5F5F5F5F5F5F5F5F5F5F5F5F5F5F5F5F5F5F5F5F5F5F5F5F5F5F5F5F5F5F5F5F5F5F5F5F5F5F5F5F5F5F5F5F5F5F5F5F5F5F5F5F5F5F5F5F5F5F5F5F5F5F5F5F5F5F5F5F5F5F5F5F5F5F5F5F5F5F5F5F5F5F5E2F5F5F5F5F5F5F5F5F5F5F5F5F5F5E2F5F5F5F5F5F5F5F5F5F5F5E2E2E2F5F5F5F5F5F5F5F5F5F5
310
F5E2F5F5F5F5F5F5F5F5F5F5F5F5F5F5E2F5F5F5F5F5F5F5F5F5F5F5F5F5F5F5F5F5F5F5F5F5F5F5F5F5F5F5F5F5F5F5F5F5F5F5F5F5F5F5F5F5F5F5F5F5F5F5F5F5F5F5F5F5F5F5F5F5F5F5F5F5F5F5F5F5F5F5F5F5F5F5F5F5F5F5F5F5F5F5F5F5F5F5F5F5F5F5F5F5F5F5F5F5F5F5F5F5F5F5F5F5F5F5F5F5F5F5F5F5F5
310
F5F5F5F5F5F5F5F5F5F5F5F5F5E2F5F5F5F5F5F5F5F5F5F5F5F5F5F5E2F5F5F5F5F5F5F5F5F5F5F5E2E2E2F5F5F5F5F5F5F5F5F5F5F5E2F5F5F5F5F5F5F5F5F5F5F5F5F5F5E2F5F5F5F5F5F5F5F5F5F5F5F5F5F5F5F5F5F5F5F5F5F5F5F5F5F5F5F5F5F5F5F5F5F5F5F5F5F5F5F5F5F5F5F5F5F5F5F5F5F5F5F5F5F5F5F5F5
310
F5F5F5F5F5F5F5F5F5F5F5F5F5F5F5F5F5F5F5F5F5F5F5F5F5F5F5F5F5F5F5F5F5F5F5F5F5F5F5F5F5F5F5F5F5F5F5F5F5F5F5F5F5F5F5F5F5F5F5F5F5F5F5F5F5F5E2F5F5F5F5F5F5F5F5F5F5F5F5F5F5E2F5F5F5F5F5F5F5F5F5F5F5E2E2E2F5F5F5F5F5F5F5F5F5F5F5E2F5F5F5F5F5F5F5F5F5F5F5F5F5F5E2F5F5F5F5
310
F5F5F5F5F5F5F5F5F5F5F5F5F5F5F5F5F5F5F5F5F5F5F5F5F5F5F5F5F5F5F5F5F5F5F5F5F5F5F5F5F5F5F5F5F5F5F5F5F5F5F5F5F5F5F5F5F5F5F5F5F5F5F5F5F5F5F5F5F5F5F5F5F5F5F5F5F5F5F5F5F5F5F5F5F5F5F5F5F5F5F5F5F5F5F5F5F5F5F5F5F5F5F5F5F5F5F5F5F5F5F5F5F5F5F5F5F5F5F5E2F5F5F5F5F5F5F5
310
F5F5F5F5F5F5F5E2F5F5F5F5F5F5F5F5F5F5F5E2E2E2F5F5F5F5F5F5F5F5F5F5F5E2F5F5F5F5F5F5F5F5F5F5F5F5F5F5E2F5F5F5F5F5F5F5F5F5F5F5F5F5F5F5F5F5F5F5F5F5F5F5F5F5F5F5F5F5F5F5F5F5F5F5F5F5F5F5F5F5F5F5F5F5F5F5F5F5F5F5F5F5F5F5F5F5F5F5F5F5F5F5F5F5F5F5F5F5F5F5F5F5F5F5F5F5F5
310
F5F5F5F5F5F5F5F5F5F5F5F5F5F5F5F5F5F5F5F5F5F5F5F5F5F5F5F5F5F5F5F5F5F5F5F5F5F5F5F5F5F5F5F5F5E2F5F5F5F5F5F5F5F5F5F5F5F5F5F5E2F5F5F5F5F5F5F5F5F5F5F5E2E2E2F5F5F5F5F5F5F5F5F5F5F5E2F5F5F5F5F5F5F5F5F5F5F5F5F5F5E2F5F5F5F5F5F5F5F5F5F5F5F5F5F5F5F5F5F5F5F5F5F5F5F5F5
310
F5F5F5F5F5F5F5F5F5F5F5F5F5F5F5F5F5F5F5F5F5F5F5F5F5F5F5F5F5F5F5F5F5F5F5F5F5F5F5F5F5F5F5F5F5F5F5F5F5F5F5F5F5F5F5F5F5F5F5F5F5F5F5F5F5F5F5F5F5F5F5F5F5F5F5F5F5F5F5F5F5F5F5F5F5F5F5F5F5F5F5F5F5F5F5F5F5F5E2F5F5F5F5F5F5F5F5F5F5F5F5F5F5E2F5F5F5F5F5F5F5F5F5F5F5E2E2
310
E2F5F5F5F5F5F5F5F5F5F5F5F5F5F5F5F5F5F5F5F5F5F5F5F5F5F5E2F5F5F5F5F5F5F5F5F5F5F5F5F5F5F5F5F5F5F5F5F5F5F5F5F5F5F5F5F5F5F5F5F5F5F5F5F5F5F5F5F5F5F5F5F5F5F5F5F5F5F5F5F5F5F5F5F5F5F5F5F5F5F5F5F5F5F5F5F5F5F5F5F5F5F5F5F5F5F5F5F5F5F5F5F5F5F5F5F5F5F5F5F5F5F5F5F5F5F5
310
F5F5F5F5F5F5F5F5F5F5F5F5F5F5F5F5F5F5F5F5F5F5F5F5E2F5F5F5F5F5F5F5F5F5F5F5F5F5F5F5F5F5F5F5F5F5F5F5F5F5F5E2E2E2F5F5F5F5F5F5F5F5F5F5F5F5F5F5F5F5F5F5F5F5F5F5F5F5F5F5E2F5F5F5F5F5F5F5F5F5F5F5F5F5F5F5F5F5F5F5F5F5F5F5F5F5F5F5F5F5F5F5F5F5F5F5F5F5F5F5F5F5F5F5F5F5F5
310
F5F5F5F5F5F5F5F5F5F5F5F5F5F5F5F5F5F5F5F5F5F5F5F5F5F5F5F5F5F5F5F5F5F5F5F5F5F5F5F5F5F5F5F5F5F5F5F5F5F5F5F5F5F5F5F5F5F5F5F5F5F5F5F5F5F5F5F5F5F5F5F5F5F5F5F5F5E2F5F5F5F5F5F5F5F5F5F5F5F5F5F5F5F5F5F5F5F5F5F5F5F5F5F5E2E2E2F5F5F5F5F5F5F5F5F5F5F5F5F5F5F5F5F5F5F5F5
310
F5F5F5F5F5F5E2F5F5F5F5F5F5F5F5F5F5F5F5F5F5F5F5F5F5F5F5F5F5F5F5F5F5F5F5F5F5F5F5F5F5F5F5F5F5F5F5F5F5F5F5F5F5F5F5F5F5F5F5F5F5F5F5F5F5F5F5F5F5F5F5F5F5F5F5F5F5F5F5F5F5F5F5F5F5F5F5F5F5F5F5F5F5F5F5F5F5F5F5F5F5F5F5F5F5F5F5F5F5F5F5F5F5F5F5F5F5F5F5F5F5F5F5F5F5F5F5
310
F5F5F5E2F5F5F5F5F5F5F5F5F5F5F5F5F5F5F5F5F5F5F5F5F5F5F5F5F5F5E2E2E2F5F5F5F5F5F5F5F5F5F5F5F5F5F5F5F5F5F5F5F5F5F5F5F5F5F5E2F5F5F5F5F5F5F5F5F5F5F5F5F5F5F5F5F5F5F5F5F5F5F5F5F5F5F5F5F5F5F5F5F5F5F5F5F5F5F5F5F5F5F5F5F5F5F5F5F5F5F5F5F5F5F5F5F5F5F5F5F5F5F5F5F5F5F5
310
F5F5F5F5F5F5F5F5F5F5F5F5F5F5F5F5F5F5F5F5F5F5F5F5F5F5F5F5F5F5F5F5F5F5F5F5F5F5F5F5F5F5F5F5F5F5F5F5F5F5F5F5F5F5F5F5E2F5F5F5F5F5F5F5F5F5F5F5F5F5F5F5F5F5F5F5F5F5F5F5F5F5F5E2E2E2F5F5F5F5F5F5F5F5F5F5F5F5F5F5F5F5F5F5F5F5F5F5F5F5F5F5E2F5F5F5F5F5F5F5F5F5F5F5F5F5F5
310
F5F5F5F5F5F5F5F5F5F5F5F5F5F5F5F5F5F5F5F5F5F5F5F5F5F5F5F5F5F5F5F5F5F5F5F5F5F5F5F5F5F5F5F5F5F5F5F5F5F5F5F5F5F5F5F5F5F5F5F5F5F5F5F5F5F5F5F5F5F5F5F5F5F5F5F5F5F5F5F5F5F5F5F5F5F5F5F5F5F5F5F5F5F5F5F5F5F5F5F5F5F5F5F5F5F5F5F5F5E2F5F5F5F5F5F5F5F5F5F5F5F5F5F5F5F5F5
310
F5F5F5F5F5F5F5F5F5E2E2E2F5F5F5F5F5F5F5F5F5F5F5F5F5F5F5F5F5F5F5F5F5F5F5F5F5F5E2F5F5F5F5F5F5F5F5F5F5F5F5F5F5F5F5F5F5F5F5F5F5F5F5F5F5F5F5F5F5F5F5F5F5F5F5F5F5F5F5F5F5F5F5F5F5F5F5F5F5F5F5F5F5F5F5F5F5F5F5F5F5F5F5F5F5F5F5F5F5F5F5F5F5F5F5F5F5F5F5F5F5F5F5F5F5F5F5
310
F5F5F5F5F5F5F5F5F5F5F5F5F5F5F5F5F5F5F5F5F5F5F5F5F5F5F5F5F5F5F5F5F5F5F5E2F5F5F5F5F5F5F5F5F5F5F5F5F5F5F5F5F5F5F5F5F5F5F5F5F5F5E2E2E2F5F5F5F5F5F5F5F5F5F5F5F5F5F5F5F5F5F5F5F5F5F5F5F5F5F5E2F5F5F5F5F5F5F5F5F5F5F5F5F5F5F5F5F5F5F5F5F5F5F5F5F5F5F5F5F5F5F5F5F5F5F5
310
F5F5F5F5F5F5F5F5F5F5F5F5F5F5F5F5F5F5F5F5F5F5F5F5F5F5F5F5F5F5F5F5F5F5F5F5F5F5F5F5F5F5F5F5F5F5F5F5F5F5F5F5F5F5F5F5F5F5F5F5F5F5F5F5F5F5F5F5F5F5F5F5F5F5F5F5F5F5F5F5F5F5F5F5F5F5F5F5E2F5F5F5F5F5F5F5F5F5F5F5F5F5F5F5F5F5F5F5F5F5F5F5F5F5F5E2E2E2F5F5F5F5F5F5F5F5F5
310
F5F5F5F5F5F5F5F5F5F5F5F5F5F5F5F5F5E2F5F5F5F5F5F5F5F5F5F5F5F5F5F5F5F5F5F5F5F5F5F5F5F5F5F5F5F5F5F5F5F5F5F5F5F5F5F5F5F5F5F5F5F5F5F5F5F5F5F5F5F5F5F5F5F5F5F5F5F5F5F5F5F5F5F5F5F5F5F5F5F5F5F5F5F5F5F5F5F5F5F5F5F5F5F5F5F5F5F5F5F5F5F5F5F5F5F5F5F5F5F5F5F5F5F5F5F5F5
310
F5F5F5F5F5F5F5F5F5F5F5F5F5F5E2F5F5F5F5F5F5F5F5F5F5F5F5F5F5F5F5F5F5F5F5F5F5F5F5F5F5E2E2E2F5F5F5F5F5F5F5F5F5F5F5F5F5F5F5F5F5F5F5F5F5F5F5F5F5F5E2F5F5F5F5F5F5F5F5F5F5F5F5F5F5F5F5F5F5F5F5F5F5F5F5F5F5F5F5F5F5F5F5F5F5F5F5F5F5F5F5F5F5F5F5F5F5F5F5F5F5F5F5F5F5F5F5
310
F5F5F5F5F5F5F5F5F5F5F5F5F5F5F5F5F5F5F5F5F5F5F5F5F5F5F5F5F5F5F5F5F5F5F5F5F5F5F5F5F5F5F5F5F5F5F5F5F5F5F5F5F5F5F5F5F5F5F5F5F5F5F5F5F5F5F5E2F5F5F5F5F5F5F5F5F5F5F5F5F5F5F5F5F5F5F5F5F5F5F5F5F5F5E2E2E2F5F5F5F5F5F5F5F5F5F5F5E2F5F5F5F5F5F5F5F5F5F5F5F5F5F5E2F5F5F5
310
F5F5F5F5F5F5F5F5F5F5F5F5F5F5F5F5F5F5F5F5F5F5F5F5F5F5F5F5F5F5F5F5F5F5F5F5F5F5F5F5F5F5F5F5F5F5F5F5F5F5F5F5F5F5F5F5F5F5F5F5F5F5F5F5F5F5F5F5F5F5F5F5F5F5F5F5F5F5F5F5F5F5F5F5F5F5F5F5F5F5F5F5F5F5F5F5F5F5F5F5F5F5F5F5F5F5F5F5F5F5F5F5F5F5F5F5F5F5F5F5E2F5F5F5F5F5F5
310
F5F5F5F5F5F5F5F5E2F5F5F5F5F5F5F5F5F5F5F5E2E2E2F5F5F5F5F5F5F5F5F5F5F5E2F5F5F5F5F5F5F5F5F5F5F5F5F5F5E2F5F5F5F5F5F5F5F5F5F5F5F5F5F5F5F5F5F5F5F5F5F5F5F5F5F5F5F5F5F5F5F5F5F5F5F5F5F5F5F5F5F5F5F5F5F5F5F5F5F5F5F5F5F5F5F5F5F5F5F5F5F5F5F5F5F5F5F5F5F5F5F5F5F5F5F5F5
310
F5F5F5F5F5F5F5F5F5F5F5F5F5F5F5F5F5F5F5F5F5F5F5F5F5F5F5F5F5F5F5F5F5F5F5F5F5F5F5F5F5F5F5F5F5F5E2F5F5F5F5F5F5F5F5F5F5F5F5F5F5E2F5F5F5F5F5F5F5F5F5F5F5E2E2E2F5F5F5F5F5F5F5F5F5F5F5E2F5F5F5F5F5F5F5F5F5F5F5F5F5F5E2F5F5F5F5F5F5F5F5F5F5F5F5F5F5F5F5F5F5F5F5F5F5F5F5
310
F5F5F5F5F5F5F5F5F5F5F5F5F5F5F5F5F5F5F5F5F5F5F5F5F5F5F5F5F5F5F5F5F5F5F5F5F5F5F5F5F5F5F5F5F5F5F5F5F5F5F5F5F5F5F5F5F5F5F5F5F5F5F5F5F5F5F5F5F5F5F5F5F5F5F5F5F5F5F5F5F5F5F5F5F5F5F5F5F5F5F5F5F5F5F5F5F5F5F5E2F5F5F5F5F5F5F5F5F5F5F5F5F5F5E2F5F5F5F5F5F5F5F5F5F5F5E2
310
E2E2F5F5F5F5F5F5F5F5F5F5F5E2F5F5F5F5F5F5F5F5F5F5F5F5F5F5E2F5F5F5F5F5F5F5F5F5F5F5F5F5F5F5F5F5F5F5F5F5F5F5F5F5F5F5F5F5F5F5F5F5F5F5F5F5F5F5F5F5F5F5F5F5F5F5F5F5F5F5F5F5F5F5F5F5F5F5F5F5F5F5F5F5F5F5F5F5F5F5F5F5F5F5F5F5F5F5F5F5F5F5F5F5F5F5F5F5F5F5F5F5F5F5F5F5F5
310
F5F5F5F5F5F5F5F5F5F5F5F5F5F5F5F5F5F5F5F5F5F5F5F5F5E2F5F5F5F5F5F5F5F5F5F5F5F5F5F5E2F5F5F5F5F5F5F5F5F5F5F5E2E2E2F5F5F5F5F5F5F5F5F5F5F5E2F5F5F5F5F5F5F5F5F5F5F5F5F5F5E2F5F5F5F5F5F5F5F5F5F5F5F5F5F5F5F5F5F5F5F5F5F5F5F5F5F5F5F5F5F5F5F5F5F5F5F5F5F5F5F5F5F5F5F5F5
310
F5F5F5F5F5F5F5F5F5F5F5F5F5F5F5F5F5F5F5F5F5F5F5F5F5F5F5F5F5F5F5F5F5F5F5F5F5F5F5F5F5F5F5F5F5F5F5F5F5F5F5F5F5F5F5F5F5F5F5F5F5F5F5F5F5F5F5F5F5F5F5F5F5F5F5F5F5F5E2F5F5F5F5F5F5F5F5F5F5F5F5F5F5E2F5F5F5F5F5F5F5F5F5F5F5E2E2E2F5F5F5F5F5F5F5F5F5F5F5E2F5F5F5F5F5F5F5
310
F5F5F5F5F5F5F5E2F5F5F5F5F5F5F5F5F5F5F5F5F5F5F5F5F5F5F5F5F5F5F5F5F5F5F5F5F5F5F5F5F5F5F5F5F5F5F5F5F5F5F5F5F5F5F5F5F5F5F5F5F5F5F5F5F5F5F5F5F5F5F5F5F5F5F5F5F5F5F5F5F5F5F5F5F5F5F5F5F5F5F5F5F5F5F5F5F5F5F5F5F5F5F5F5F5F5F5F5F5F5F5F5F5F5F5F5F5F5F5F5F5F5F5F5F5F5F5
310
F5F5F5F5E2F5F5F5F5F5F5F5F5F5F5F5F5F5F5E2F5F5F5F5F5F5F5F5F5F5F5E2E2E2F5F5F5F5F5F5F5F5F5F5F5E2F5F5F5F5F5F5F5F5F5F5F5F5F5F5E2F5F5F5F5F5F5F5F5F5F5F5F5F5F5F5F5F5F5F5F5F5F5F5F5F5F5F5F5F5F5F5F5F5F5F5F5F5F5F5F5F5F5F5F5F5F5F5F5F5F5F5F5F5F5F5F5F5F5F5F5F5F5F5F5F5F5
310
F5F5F5F5F5F5F5F5F5F5F5F5F5F5F5F5F5F5F5F5F5F5F5F5F5F5F5F5F5F5F5F5F5F5F5F5F5F5F5F5F5F5F5F5F5F5F5F5F5F5F5F5F5F5F5F5F5E2F5F5F5F5F5F5F5F5F5F5F5F5F5F5E2F5F5F5F5F5F5F5F5F5F5F5E2E2E2F5F5F5F5F5F5F5F5F5F5F5E2F5F5F5F5F5F5F5F5F5F5F5F5F5F5E2F5F5F5F5F5F5F5F5F5F5F5F5F5
310
F5F5F5F5F5F5F5F5F5F5F5F5F5F5F5F5F5F5F5F5F5F5F5F5F5F5F5F5F5F5F5F5F5F5F5F5F5F5F5F5F5F5F5F5F5F5F5F5F5F5F5F5F5F5F5F5F5F5F5F5F5F5F5F5F5F5F5F5F5F5F5F5F5F5F5F5F5F5F5F5F5F5F5F5F5F5F5F5F5F5F5F5F5F5F5F5F5F5F5F5F5F5F5F5F5F5F5F5F5F5E2F5F5F5F5F5F5F5F5F5F5F5F5F5F5E2F5
310
F5F5F5F5F5F5F5F5F5F5E2E2E2F5F5F5F5F5F5F5F5F5F5F5E2F5F5F5F5F5F5F5F5F5F5F5F5F5F5E2F5F5F5F5F5F5F5F5F5F5F5F5F5F5F5F5F5F5F5F5F5F5F5F5F5F5F5F5F5F5F5F5F5F5F5F5F5F5F5F5F5F5F5F5F5F5F5F5F5F5F5F5F5F5F5F5F5F5F5F5F5F5F5F5F5F5F5F5F5F5F5F5F5F5F5F5F5F5F5F5F5F5F5F5F5F5F5
310
F5F5F5F5F5F5F5F5F5F5F5F5F5F5F5F5F5F5F5F5F5F5F5F5F5F5F5F5F5F5F5F5F5F5F5F5E2F5F5F5F5F5F5F5F5F5F5F5F5F5F5E2F5F5F5F5F5F5F5F5F5F5F5E2E2E2F5F5F5F5F5F5F5F5F5F5F5E2F5F5F5F5F5F5F5F5F5F5F5F5F5F5E2F5F5F5F5F5F5F5F5F5F5F5F5F5F5F5F5F5F5F5F5F5F5F5F5F5F5F5F5F5F5F5F5F5F5
310
F5F5F5F5F5F5F5F5F5F5F5F5F5F5F5F5F5F5F5F5F5F5F5F5F5F5F5F5F5F5F5F5F5F5F5F5F5F5F5F5F5F5F5F5F5F5F5F5F5F5F5F5F5F5F5F5F5F5F5F5F5F5F5F5F5F5F5F5F5F5F5F5F5F5F5F5F5F5F5F5F5F5F5F5F5F5F5F5F5E2F5F5F5F5F5F5F5F5F5F5F5F5F5F5E2F5F5F5F5F5F5F5F5F5F5F5E2E2E2F5F5F5F5F5F5F5F5
310
F5F5F5E2F5F5F5F5F5F5F5F5F5F5F5F5F5F5E2F5F5F5F5F5F5F5F5F5F5F5F5F5F5F5F5F5F5F5F5F5F5F5F5F5F5F5F5F5F5F5F5F5F5F5F5F5F5F5F5F5F5F5F5F5F5F5F5F5F5F5F5F5F5F5F5F5F5F5F5F5F5F5F5F5F5F5F5F5F5F5F5F5F5F5F5F5F5F5F5F5F5F5F5F5F5F5F5F5F5F5F5F5F5F5F5F5F5F5F5F5F5F5F5F5F5F5F5
310
F5F5F5F5F5F5F5F5F5F5F5F5F5F5F5E2F5F5F5F5F5F5F5F5F5F5F5F5F5F5E2F5F5F5F5F5F5F5F5F5F5F5E2E2E2F5F5F5F5F5F5F5F5F5F5F5E2F5F5F5F5F5F5F5F5F5F5F5F5F5F5E2F5F5F5F5F5F5F5F5F5F5F5F5F5F5F5F5F5F5F5F5F5F5F5F5F5F5F5F5F5F5F5F5F5F5F5F5F5F5F5F5F5F5F5F5F5F5F5F5F5F5F5F5F5F5F5
310
F5F5F5F5F5F5F5F5F5F5F5F5F5F5F5F5F5F5F5F5F5F5F5F5F5F5F5F5F5F5F5F5F5F5F5F5F5F5F5F5F5F5F5F5F5F5F5F5F5F5F5F5F5F5F5F5F5F5F5F5F5F5F5F5F5F5F5F5E2F5F5F5F5F5F5F5F5F5F5F5F5F5F5E2F5F5F5F5F5F5F5F5F5F5F5E2E2E2F5F5F5F5F5F5F5F5F5F5F5E2F5F5F5F5F5F5F5F5F5F5F5F5F5F5E2F5F5
310
F5F5F5F5F5F5F5F5F5F5F5F5F5F5F5F5F5F5F5F5F5F5F5F5F5F5F5F5F5F5F5F5F5F5F5F5F5F5F5F5F5F5F5F5F5F5F5F5F5F5F5F5F5F5F5F5F5F5F5F5F5F5F5F5F5F5F5F5F5F5F5F5F5F5F5F5F5F5F5F5F5F5F5F5F5F5F5F5F5F5F5F5F5F5F5F5F5F5F5F5F5F5F5F5F5F5F5F5F5F5F5F5F5F5F5F5F5F5F5F5F5E2F5F5F5F5F5
310
F5F5F5F5F5F5F5F5F5E2F5F5F5F5F5F5F5F5F5F5F5E2E2E2F5F5F5F5F5F5F5F5F5F5F5E2F5F5F5F5F5F5F5F5F5F5F5F5F5F5E2F5F5F5F5F5F5F5F5F5F5F5F5F5F5F5F5F5F5F5F5F5F5F5F5F5F5F5F5F5F5F5F5F5F5F5F5F5F5F5F5F5F5F5F5F5F5F5F5F5F5F5F5F5F5F5F5F5F5F5F5F5F5F5F5F5F5F5F5F5F5F5F5F5F5F5F5
310
F5F5F5F5F5F5F5F5F5F5F5F5F5F5F5F5F5F5F5F5F5F5F5F5F5F5F5F5F5F5F5F5F5F5F5F5F5F5F5F5F5F5F5F5F5F5F5E2F5F5F5F5F5F5F5F5F5F5F5F5F5F5E2F5F5F5F5F5F5F5F5F5F5F5E2E2E2F5F5F5F5F5F5F5F5F5F5F5E2F5F5F5F5F5F5F5F5F5F5F5F5F5F5E2F5F5F5F5F5F5F5F5F5F5F5F5F5F5F5F5F5F5F5F5F5F5F5
310
F5F5F5F5F5F5F5F5F5F5F5F5F5F5F5F5F5F5F5F5F5F5F5F5F5F5F5F5F5F5F5F5F5F5F5F5F5F5F5F5F5F5F5F5F5F5F5F5F5F5F5F5F5F5F5F5F5F5F5F5F5F5F5F5F5F5F5F5F5F5F5F5F5F5F5F5F5F5F5F5F5F5F5F5F5F5F5F5F5F5F5F5F5F5F5F5F5F5F5F5E2F5F5F5F5F5F5F5F5F5F5F5F5F5F5E2F5F5F5F5F5F5F5F5F5F5F5
310
E2E2E2F5F5F5F5F5F5F5F5F5F5F5F5F5F5F5F5F5F5F5F5F5F5F5F5F5F5E2F5F5F5F5F5F5F5F5F5F5F5F5F5F5F5F5F5F5F5F5F5F5F5F5F5F5F5F5F5F5F5F5F5F5F5F5F5F5F5F5F5F5F5F5F5F5F5F5F5F5F5F5F5F5F5F5F5F5F5F5F5F5F5F5F5F5F5F5F5F5F5F5F5F5F5F5F5F5F5F5F5F5F5F5F5F5F5F5F5F5F5F5F5F5F5F5F5
310
F5F5F5F5F5F5F5F5F5F5F5F5F5F5F5F5F5F5F5F5F5F5F5F5F5F5E2F5F5F5F5F5F5F5F5F5F5F5F5F5F5F5F5F5F5F5F5F5F5F5F5F5F5E2E2E2F5F5F5F5F5F5F5F5F5F5F5F5F5F5F5F5F5F5F5F5F5F5F5F5F5F5E2F5F5F5F5F5F5F5F5F5F5F5F5F5F5F5F5F5F5F5F5F5F5F5F5F5F5F5F5F5F5F5F5F5F5F5F5F5F5F5F5F5F5F5F5
310
F5F5F5F5F5F5F5F5F5F5F5F5F5F5F5F5F5F5F5F5F5F5F5F5F5F5F5F5F5F5F5F5F5F5F5F5F5F5F5F5F5F5F5F5F5F5F5F5F5F5F5F5F5F5F5F5F5F5F5F5F5F5F5F5F5F5F5F5F5F5F5F5F5F5F5F5F5F5F5E2F5F5F5F5F5F5F5F5F5F5F5F5F5F5F5F5F5F5F5F5F5F5F5F5F5F5E2E2E2F5F5F5F5F5F5F5F5F5F5F5F5F5F5F5F5F5F5
310
F5F5F5F5F5F5F5F5E2F5F5F5F5F5F5F5F5F5F5F5F5F5F5F5F5F5F5F5F5F5F5F5F5F5F5F5F5F5F5F5F5F5F5F5F5F5F5F5F5F5F5F5F5F5F5F5F5F5F5F5F5F5F5F5F5F5F5F5F5F5F5F5F5F5F5F5F5F5F5F5F5F5F5F5F5F5F5F5F5F5F5F5F5F5F5F5F5F5F5F5F5F5F5F5F5F5F5F5F5F5F5F5F5F5F5F5F5F5F5F5F5F5F5F5F5F5F5
310
F5F5F5F5F5E2F5F5F5F5F5F5F5F5F5F5F5F5F5F5F5F5F5F5F5F5F5F5F5F5F5F5E2E2E2F5F5F5F5F5F5F5F5F5F5F5F5F5F5F5F5F5F5F5F5F5F5F5F5F5F5E2F5F5F5F5F5F5F5F5F5F5F5F5F5F5F5F5F5F5F5F5F5F5F5F5F5F5F5F5F5F5F5F5F5F5F5F5F5F5F5F5F5F5F5F5F5F5F5F5F5F5F5F5F5F5F5F5F5F5F5F5F5F5F5F5F5
310
F5F5F5F5F5F5F5F5F5F5F5F5F5F5F5F5F5F5F5F5F5F5F5F5F5F5F5F5F5F5F5F5F5F5F5F5F5F5F5F5F5F5F5F5F5F5F5F5F5F5F5F5F5F5F5F5F5F5E2F5F5F5F5F5F5F5F5F5F5F5F5F5F5F5F5F5F5F5F5F5F5F5F5F5F5E2E2E2F5F5F5F5F5F5F5F5F5F5F5F5F5F5F5F5F5F5F5F5F5F5F5F5F5F5E2F5F5F5F5F5F5F5F5F5F5F5F5
310
F5F5F5F5F5F5F5F5F5F5F5F5F5F5F5F5F5F5F5F5F5F5F5F5F5F5F5F5F5F5F5F5F5F5F5F5F5F5F5F5F5F5F5F5F5F5F5F5F5F5F5F5F5F5F5F5F5F5F5F5F5F5F5F5F5F5F5F5F5F5F5F5F5F5F5F5F5F5F5F5F5F5F5F5F5F5F5F5F5F5F5F5F5F5F5F5F5F5F5F5F5F5F5F5F5F5F5F5F5F5F5E2F5F5F5F5F5F5F5F5F5F5F5F5F5F5F5
310
F5F5F5F5F5F5F5F5F5F5F5E2E2E2F5F5F5F5F5F5F5F5F5F5F5F5F5F5F5F5F5F5F5F5F5F5F5F5F5F5E2F5F5F5F5F5F5F5F5F5F5F5F5F5F5F5F5F5F5F5F5F5F5F5F5F5F5F5F5F5F5F5F5F5F5F5F5F5F5F5F5F5F5F5F5F5F5F5F5F5F5F5F5F5F5F5F5F5F5F5F5F5F5F5F5F5F5F5F5F5F5F5F5F5F5F5F5F5F5F5F5F5F5F5F5F5F5
310
F5F5F5F5F5F5F5F5F5F5F5F5F5F5F5F5F5F5F5F5F5F5F5F5F5F5F5F5F5F5F5F5F5F5F5F5F5E2F5F5F5F5F5F5F5F5F5F5F5F5F5F5F5F5F5F5F5F5F5F5F5F5F5F5E2E2E2F5F5F5F5F5F5F5F5F5F5F5F5F5F5F5F5F5F5F5F5F5F5F5F5F5F5E2F5F5F5F5F5F5F5F5F5F5F5F5F5F5F5F5F5F5F5F5F5F5F5F5F5F5F5F5F5F5F5F5F5
310
F5F5F5F5F5F5F5F5F5F5F5F5F5F5F5F5F5F5F5F5F5F5F5F5F5F5F5F5F5F5F5F5F5F5F5F5F5F5F5F5F5F5F5F5F5F5F5F5F5F5F5F5F5F5F5F5F5F5F5F5F5F5F5F5F5F5F5F5F5F5F5F5F5F5F5F5F5F5F5F5F5F5F5F5F5F5F5F5F5F5E2F5F5F5F5F5F5F5F5F5F5F5F5F5F5F5F5F5F5F5F5F5F5F5F5F5F5E2E2E2F5F5F5F5F5F5F5
310
F5F5F5F5F5F5F5F5F5F5F5F5F5F5F5F5F5F5F5E2F5F5F5F5F5F5F5F5F5F5F5F5F5F5F5F5F5F5F5F5F5F5F5F5F5F5F5F5F5F5F5F5F5F5F5F5F5F5F5F5F5F5F5F5F5F5F5F5F5F5F5F5F5F5F5F5F5F5F5F5F5F5F5F5F5F5F5F5F5F5F5F5F5F5F5F5F5F5F5F5F5F5F5F5F5F5F5F5F5F5F5F5F5F5F5F5F5F5F5F5F5F5F5F5F5F5F5
310
F5F5F5F5F5F5F5F5F5F5F5F5F5F5F5F5E2F5F5F5F5F5F5F5F5F5F5F5F5F5F5F5F5F5F5F5F5F5F5F5F5F5F5E2E2E2F5F5F5F5F5F5F5F5F5F5F5E2F5F5F5F5F5F5F5F5F5F5F5F5F5F5E2F5F5F5F5F5F5F5F5F5F5F5F5F5F5F5F5F5F5F5F5F5F5F5F5F5F5F5F5F5F5F5F5F5F5F5F5F5F5F5F5F5F5F5F5F5F5F5F5F5F5F5F5F5F5
310
F5F5F5F5F5F5F5F5F5F5F5F5F5F5F5F5F5F5F5F5F5F5F5F5F5F5F5F5F5F5F5F5F5F5F5F5F5F5F5F5F5F5F5F5F5F5F5F5F5F5F5F5F5F5F5F5F5F5F5F5F5F5F5F5F5F5F5F5F5E2F5F5F5F5F5F5F5F5F5F5F5F5F5F5E2F5F5F5F5F5F5F5F5F5F5F5E2E2E2F5F5F5F5F5F5F5F5F5F5F5E2F5F5F5F5F5F5F5F5F5F5F5F5F5F5E2F5
310
F5F5F5F5F5F5F5F5F5F5F5F5F5F5F5F5F5F5F5F5F5F5F5F5F5F5F5F5F5F5F5F5F5F5F5F5F5F5F5F5F5F5F5F5F5F5F5F5F5F5F5F5F5F5F5F5F5F5F5F5F5F5F5F5F5F5F5F5F5F5F5F5F5F5F5F5F5F5F5F5F5F5F5F5F5F5F5F5F5F5F5F5F5F5F5F5F5F5F5F5F5F5F5F5F5F5F5F5F5F5F5F5F5F5F5F5F5F5F5F5F5F5E2F5F5F5F5
310
F5F5F5F5F5F5F5F5F5F5E2F5F5F5F5F5F5F5F5F5F5F5E2E2E2F5F5F5F5F5F5F5F5F5F5F5E2F5F5F5F5F5F5F5F5F5F5F5F5F5F5E2F5F5F5F5F5F5F5F5F5F5F5F5F5F5F5F5F5F5F5F5F5F5F5F5F5F5F5F5F5F5F5F5F5F5F5F5F5F5F5F5F5F5F5F5F5F5F5F5F5F5F5F5F5F5F5F5F5F5F5F5F5F5F5F5F5F5F5F5F5F5F5F5F5F5F5
310
F5F5F5F5F5F5F5F5F5F5F5F5F5F5F5F5F5F5F5F5F5F5F5F5F5F5F5F5F5F5F5F5F5F5F5F5F5F5F5F5F5F5F5F5F5F5F5F5E2F5F5F5F5F5F5F5F5F5F5F5F5F5F5E2F5F5F5F5F5F5F5F5F5F5F5E2E2E2F5F5F5F5F5F5F5F5F5F5F5E2F5F5F5F5F5F5F5F5F5F5F5F5F5F5E2F5F5F5F5F5F5F5F5F5F5F5F5F5F5F5F5F5F5F5F5F5F5
310
F5F5F5F5F5F5F5F5F5F5F5F5F5F5F5F5F5F5F5F5F5F5F5F5F5F5F5F5F5F5F5F5F5F5F5F5F5F5F5F5F5F5F5F5F5F5F5F5F5F5F5F5F5F5F5F5F5F5F5F5F5F5F5F5F5F5F5F5F5F5F5F5F5F5F5F5F5F5F5F5F5F5F5F5F5F5F5F5F5F5F5F5F5F5F5F5F5F5F5F5F5E2F5F5F5F5F5F5F5F5F5F5F5F5F5F5E2F5F5F5F5F5F5F5F5F5F5
310
F5E2E2E2F5F5F5F5F5F5F5F5F5F5F5E2F5F5F5F5F5F5F5F5F5F5F5F5F5F5E2F5F5F5F5F5F5F5F5F5F5F5F5F5F5F5F5F5F5F5F5F5F5F5F5F5F5F5F5F5F5F5F5F5F5F5F5F5F5F5F5F5F5F5F5F5F5F5F5F5F5F5F5F5F5F5F5F5F5F5F5F5F5F5F5F5F5F5F5F5F5F5F5F5F5F5F5F5F5F5F5F5F5F5F5F5F5F5F5F5F5F5F5F5F5F5F5
310
F5F5F5F5F5F5F5F5F5F5F5F5F5F5F5F5F5F5F5F5F5F5F5F5F5F5F5E2F5F5F5F5F5F5F5F5F5F5F5F5F5F5E2F5F5F5F5F5F5F5F5F5F5F5E2E2E2F5F5F5F5F5F5F5F5F5F5F5E2F5F5F5F5F5F5F5F5F5F5F5F5F5F5E2F5F5F5F5F5F5F5F5F5F5F5F5F5F5F5F5F5F5F5F5F5F5F5F5F5F5F5F5F5F5F5F5F5F5F5F5F5F5F5F5F5F5F5
310
F5F5F5F5F5F5F5F5F5F5F5F5F5F5F5F5F5F5F5F5F5F5F5F5F5F5F5F5F5F5F5F5F5F5F5F5F5F5F5F5F5F5F5F5F5F5F5F5F5F5F5F5F5F5F5F5F5F5F5F5F5F5F5F5F5F5F5F5F5F5F5F5F5F5F5F5F5F5F5F5E2F5F5F5F5F5F5F5F5F5F5F5F5F5F5E2F5F5F5F5F5F5F5F5F5F5F5E2E2E2F5F5F5F5F5F5F5F5F5F5F5E2F5F5F5F5F5
310
F5F5F5F5F5F5F5F5F5E2F5F5F5F5F5F5F5F5F5F5F5F5F5F5F5F5F5F5F5F5F5F5F5F5F5F5F5F5F5F5F5F5F5F5F5F5F5F5F5F5F5F5F5F5F5F5F5F5F5F5F5F5F5F5F5F5F5F5F5F5F5F5F5F5F5F5F5F5F5F5F5F5F5F5F5F5F5F5F5F5F5F5F5F5F5F5F5F5F5F5F5F5F5F5F5F5F5F5F5F5F5F5F5F5F5F5F5F5F5F5F5F5F5F5F5F5F5
310
F5F5F5F5F5F5E2F5F5F5F5F5F5F5F5F5F5F5F5F5F5E2F5F5F5F5F5F5F5F5F5F5F5E2E2E2F5F5F5F5F5F5F5F5F5F5F5E2F5F5F5F5F5F5F5F5F5F5F5F5F5F5E2F5F5F5F5F5F5F5F5F5F5F5F5F5F5F5F5F5F5F5F5F5F5F5F5F5F5F5F5F5F5F5F5F5F5F5F5F5F5F5F5F5F5F5F5F5F5F5F5F5F5F5F5F5F5F5F5F5F5F5F5F5F5F5F5
310
F5F5F5F5F5F5F5F5F5F5F5F5F5F5F5F5F5F5F5F5F5F5F5F5F5F5F5F5F5F5F5F5F5F5F5F5F5F5F5F5F5F5F5F5F5F5F5F5F5F5F5F5F5F5F5F5F5F5F5E2F5F5F5F5F5F5F5F5F5F5F5F5F5F5E2F5F5F5F5F5F5F5F5F5F5F5E2E2E2F5F5F5F5F5F5F5F5F5F5F5E2F5F5F5F5F5F5F5F5F5F5F5F5F5F5E2F5F5F5F5F5F5F5F5F5F5F5
310
F5F5F5F5F5F5F5F5F5F5F5F5F5F5F5F5F5F5F5F5F5F5F5F5F5F5F5F5F5F5F5F5F5F5F5F5F5F5F5F5F5F5F5F5F5F5F5F5F5F5F5F5F5F5F5F5F5F5F5F5F5F5F5F5F5F5F5F5F5F5F5F5F5F5F5F5F5F5F5F5F5F5F5F5F5F5F5F5F5F5F5F5F5F5F5F5F5F5F5F5F5F5F5F5F5F5F5F5F5F5F5F5E2F5F5F5F5F5F5F5F5F5F5F5F5F5F5
310
E2F5F5F5F5F5F5F5F5F5F5F5E2E2E2F5F5F5F5F5F5F5F5F5F5F5E2F5F5F5F5F5F5F5F5F5F5F5F5F5F5E2F5F5F5F5F5F5F5F5F5F5F5F5F5F5F5F5F5F5F5F5F5F5F5F5F5F5F5F5F5F5F5F5F5F5F5F5F5F5F5F5F5F5F5F5F5F5F5F5F5F5F5F5F5F5F5F5F5F5F5F5F5F5F5F5F5F5F5F5F5F5F5F5F5F5F5F5F5F5F5F5F5F5F5F5F5
310
F5F5F5F5F5F5F5F5F5F5F5F5F5F5F5F5F5F5F5F5F5F5F5F5F5F5F5F5F5F5F5F5F5F5F5F5F5F5E2F5F5F5F5F5F5F5F5F5F5F5F5F5F5E2F5F5F5F5F5F5F5F5F5F5F5E2E2E2F5F5F5F5F5F5F5F5F5F5F5E2F5F5F5F5F5F5F5F5F5F5F5F5F5F5E2F5F5F5F5F5F5F5F5F5F5F5F5F5F5F5F5F5F5F5F5F5F5F5F5F5F5F5F5F5F5F5F5
310
F5F5F5F5F5F5F5F5F5F5F5F5F5F5F5F5F5F5F5F5F5F5F5F5F5F5F5F5F5F5F5F5F5F5F5F5F5F5F5F5F5F5F5F5F5F5F5F5F5F5F5F5F5F5F5F5F5F5F5F5F5F5F5F5F5F5F5F5F5F5F5F5F5F5F5F5F5F5F5F5F5F5F5F5F5F5F5F5F5F5F5E2F5F5F5F5F5F5F5F5F5F5F5F5F5F5E2F5F5F5F5F5F5F5F5F5F5F5E2E2E2F5F5F5F5F5F5
310
F5F5F5F5F5E2F5F5F5F5F5F5F5F5F5F5F5F5F5F5E2F5F5F5F5F5F5F5F5F5F5F5F5F5F5F5F5F5F5F5F5F5F5F5F5F5F5F5F5F5F5F5F5F5F5F5F5F5F5F5F5F5F5F5F5F5F5F5F5F5F5F5F5F5F5F5F5F5F5F5F5F5F5F5F5F5F5F5F5F5F5F5F5F5F5F5F5F5F5F5F5F5F5F5F5F5F5F5F5F5F5F5F5F5F5F5F5F5F5F5F5F5F5F5F5F5F5
310
F5F5F5F5F5F5F5F5F5F5F5F5F5F5F5F5F5E2F5F5F5F5F5F5F5F5F5F5F5F5F5F5E2F5F5F5F5F5F5F5F5F5F5F5E2E2E2F5F5F5F5F5F5F5F5F5F5F5E2F5F5F5F5F5F5F5F5F5F5F5F5F5F5E2F5F5F5F5F5F5F5F5F5F5F5F5F5F5F5F5F5F5F5F5F5F5F5F5F5F5F5F5F5F5F5F5F5F5F5F5F5F5F5F5F5F5F5F5F5F5F5F5F5F5F5F5F5
310
F5F5F5F5F5F5F5F5F5F5F5F5F5F5F5F5F5F5F5F5F5F5F5F5F5F5F5F5F5F5F5F5F5F5F5F5F5F5F5F5F5F5F5F5F5F5F5F5F5F5F5F5F5F5F5F5F5F5F5F5F5F5F5F5F5F5F5F5F5F5E2F5F5F5F5F5F5F5F5F5F5F5F5F5F5E2F5F5F5F5F5F5F5F5F5F5F5E2E2E2F5F5F5F5F5F5F5F5F5F5F5E2F5F5F5F5F5F5F5F5F5F5F5F5F5F5E2
310
F5F5F5F5F5F5F5F5F5F5F5F5F5F5F5F5F5F5F5F5F5F5F5F5F5F5F5F5F5F5F5F5F5F5F5F5F5F5F5F5F5F5F5F5F5F5F5F5F5F5F5F5F5F5F5F5F5F5F5F5F5F5F5F5F5F5F5F5F5F5F5F5F5F5F5F5F5F5F5F5F5F5F5F5F5F5F5F5F5F5F5F5F5F5F5F5F5F5F5F5F5F5F5F5F5F5F5F5F5F5F5F5F5F5F5F5F5F5F5F5F5F5F5E2F5F5F5
310
F5F5F5F5F5F5F5F5F5F5F5E2F5F5F5F5F5F5F5F5F5F5F5E2E2E2F5F5F5F5F5F5F5F5F5F5F5E2F5F5F5F5F5F5F5F5F5F5F5F5F5F5E2F5F5F5F5F5F5F5F5F5F5F5F5F5F5F5F5F5F5F5F5F5F5F5F5F5F5F5F5F5F5F5F5F5F5F5F5F5F5F5F5F5F5F5F5F5F5F5F5F5F5F5F5F5F5F5F5F5F5F5F5F5F5F5F5F5F5F5F5F5F5F5F5F5F5
310
F5F5F5F5F5F5F5F5F5F5F5F5F5F5F5F5F5F5F5F5F5F5F5F5F5F5F5F5F5F5F5F5F5F5F5F5F5F5F5F5F5F5F5F5F5F5F5F5F5E2F5F5F5F5F5F5F5F5F5F5F5F5F5F5E2F5F5F5F5F5F5F5F5F5F5F5E2E2E2F5F5F5F5F5F5F5F5F5F5F5F5F5F5F5F5F5F5F5F5F5F5F5F5F5F5E2F5F5F5F5F5F5F5F5F5F5F5F5F5F5F5F5F5F5F5F5F5
310
F5F5F5F5F5F5F5F5F5F5F5F5F5F5F5F5F5F5F5F5F5F5F5F5F5F5F5F5F5F5F5F5F5F5F5F5F5F5F5F5F5F5F5F5F5F5F5F5F5F5F5F5F5F5F5F5F5F5F5F5F5F5F5F5F5F5F5F5F5F5F5F5F5F5F5F5F5F5F5F5F5F5F5F5F5F5F5F5F5F5F5F5F5F5F5F5F5F5F5F5F5F5E2F5F5F5F5F5F5F5F5F5F5F5F5F5F5F5F5F5F5F5F5F5F5F5F5
310
F5F5E2E2E2F5F5F5F5F5F5F5F5F5F5F5F5F5F5F5F5F5F5F5F5F5F5F5F5F5F5E2F5F5F5F5F5F5F5F5F5F5F5F5F5F5F5F5F5F5F5F5F5F5F5F5F5F5F5F5F5F5F5F5F5F5F5F5F5F5F5F5F5F5F5F5F5F5F5F5F5F5F5F5F5F5F5F5F5F5F5F5F5F5F5F5F5F5F5F5F5F5F5F5F5F5F5F5F5F5F5F5F5F5F5F5F5F5F5F5F5F5F5F5F5F5F5
310
F5F5F5F5F5F5F5F5F5F5F5F5F5F5F5F5F5F5F5F5F5F5F5F5F5F5F5F5E2F5F5F5F5F5F5F5F5F5F5F5F5F5F5F5F5F5F5F5F5F5F5F5F5F5F5E2E2E2F5F5F5F5F5F5F5F5F5F5F5F5F5F5F5F5F5F5F5F5F5F5F5F5F5F5E2F5F5F5F5F5F5F5F5F5F5F5F5F5F5F5F5F5F5F5F5F5F5F5F5F5F5F5F5F5F5F5F5F5F5F5F5F5F5F5F5F5F5
310
F5F5F5F5F5F5F5F5F5F5F5F5F5F5F5F5F5F5F5F5F5F5F5F5F5F5F5F5F5F5F5F5F5F5F5F5F5F5F5F5F5F5F5F5F5F5F5F5F5F5F5F5F5F5F5F5F5F5F5F5F5F5F5F5F5F5F5F5F5F5F5F5F5F5F5F5F5F5F5F5F5E2F5F5F5F5F5F5F5F5F5F5F5F5F5F5F5F5F5F5F5F5F5F5F5F5F5F5E2E2E2F5F5F5F5F5F5F5F5F5F5F5F5F5F5F5F5
310
F5F5F5F5F5F5F5F5F5F5E2F5F5F5F5F5F5F5F5F5F5F5F5F5F5F5F5F5F5F5F5F5F5F5F5F5F5F5F5F5F5F5F5F5F5F5F5F5F5F5F5F5F5F5F5F5F5F5F5F5F5F5F5F5F5F5F5F5F5F5F5F5F5F5F5F5F5F5F5F5F5F5F5F5F5F5F5F5F5F5F5F5F5F5F5F5F5F5F5F5F5F5F5F5F5F5F5F5F5F5F5F5F5F5F5F5F5F5F5F5F5F5F5F5F5F5F5
310
F5F5F5F5F5F5F5E2F5F5F5F5F5F5F5F5F5F5F5F5F5F5F5F5F5F5F5F5F5F5F5F5F5F5E2E2E2F5F5F5F5F5F5F5F5F5F5F5F5F5F5F5F5F5F5F5F5F5F5F5F5F5F5E2E2E2E2E2E2E2E2E2E2E2E2E2E2E2E2E2E2E2E2E2E2E2E2E2E2E2E2E2E2E2E2E2E2E2E2E2E2E2E2E2E2E2E2E2E2E2E2E2E2E2E2E2E2E2E2E2E2E2E2E2E2E2E2
310
E2E2E2E2E2E2E2E2E2E2E2E2E2E2E2E2E2E2E2E2E2E2E2E2E2E2E2E2E2E2E2E2E2E2E2E2E2E2E2E2E2E2E2E2E2E2E2E2E2E2E2E2E2E2E2E2E2E2E2E2E2F5F5F5F5F5F5F5F5F5F5F5F5F5F5F5F5F5F5F5F5F5F5F5F5F5F5E2E2E2F5F5F5F5F5F5F5F5F5F5F5F5F5F5F5F5F5F5F5F5F5F5F5F5F5F5F5F5F5F5F5F5F5F5F5F5F5
310
F5F5F5F5F5F5F5F5F5F5F5F5F5F5F5F5F5F5F5F5F5F5F5F5F5F5F5F5F5F5F5F5F5F5F5F5F5F5F5F5F5F5F5F5F5F5F5F5F5F5F5F5F5F5F5F5F5F5F5F5F5F5F5F5F5F5F5F5F5F5F5F5F5F5F5F5F5F5F5F5F5F5F5F5F5F5F5F5F5F5F5F5F5F5F5F5F5F5F5F5F5F5F5F5F5F5F5F5F5F5F5F5F5F5F5F5F5F5F5F5F5F5F5F5F5F5F5
310
F5F5F5F5F5F5F5F5F5F5F5F5F5E2E2E2F5F5F5F5F5F5F5F5F5F5F5F5F5F5F5F5F5F5F5F5F5F5F5F5F5F5F5F5F5F5F5F5F5F5F5F5F5F5F5F5F5F5F5F5F5F5F5F5F5F5F5F5F5F5F5F5F5F5F5F5F5F5F5F5F5F5F5F5F5F5F5F5F5F5F5F5F5F5F5F5F5F5F5F5F5F5F5F5F5F5F5F5F5F5F5F5F5F5F5F5F5F5F5F5F5F5F5F5F5F5F5
310
F5F5F5F5F5F5F5F5F5F5F5F5F5F5F5F5F5F5F5F5F5F5F5F5F5F5F5F5F5F5F5F5F5F5F5F5F5F5F5F5F5F5F5F5F5F5F5F5F5F5F5F5F5F5F5F5F5F5F5F5F5F5F5F5F5F5E2E2E2F5F5F5F5F5F5F5F5F5F5F5F5F5F5F5F5F5F5F5F5F5F5F5F5F5F5F5F5F5F5F5F5F5F5F5F5F5F5F5F5F5F5F5F5F5F5F5F5F5F5F5F5F5F5F5F5F5F5
310
F5F5F5F5F5F5F5F5F5F5F5F5F5F5F5F5F5F5F5F5F5F5F5F5F5F5F5F5F5F5F5F5F5F5F5F5F5F5F5F5F5F5F5F5F5F5F5F5F5F5F5F5F5F5F5F5F5F5F5F5F5F5F5F5F5F5F5F5F5F5F5F5F5F5F5F5F5F5F5F5F5F5F5F5F5F5F5F5F5F5F5F5F5F5F5F5F5F5F5F5F5F5F5F5F5F5F5F5F5F5F5F5F5F5F5F5F5F5F5E2E2E2F5F5F5F5F5
310
F5F5F5F5F5F5E2F5F5F5F5F5F5F5F5F5F5F5F5F5F5F5F5F5F5F5F5F5F5F5F5F5F5F5F5F5F5F5F5F5F5F5F5F5F5F5F5F5F5F5F5F5F5F5F5F5F5F5F5F5F5F5F5F5F5F5F5F5F5F5F5F5F5F5F5F5F5F5F5F5F5F5F5F5F5F5F5F5F5F5F5F5F5F5F5F5F5F5F5F5F5F5F5F5F5F5F5F5F5F5F5F5F5F5F5F5F5F5F5F5F5F5F5F5F5F5F5
310
F5F5F5F5F5F5F5F5F5F5F5F5F5F5F5F5F5F5F5F5F5F5F5F5F5F5F5F5F5F5F5F5F5E2F5F5F5F5F5F5F5F5F5F5F5E2E2E2F5F5F5F5F5F5F5F5F5F5F5E2F5F5F5F5F5F5F5F5F5F5F5F5F5F5F5F5F5F5F5F5F5F5F5F5F5F5F5F5F5F5F5F5F5F5F5F5F5F5F5F5F5F5F5F5F5F5F5F5F5F5F5F5F5F5F5F5F5F5F5F5F5F5F5F5F5F5F5
310
F5F5F5F5F5F5F5F5F5F5F5F5F5F5F5F5F5F5F5F5F5F5F5F5F5F5F5F5F5F5F5F5F5F5F5F5F5F5F5F5F5F5F5F5F5F5F5F5F5F5F5F5F5F5F5F5F5F5F5F5F5F5F5F5F5F5F5F5F5F5F5F5F5F5F5F5F5F5F5F5F5F5F5F5F5F5E2F5F5F5F5F5F5F5F5F5F5F5E2E2E2F5F5F5F5F5F5F5F5F5F5F5E2F5F5F5F5F5F5F5F5F5F5F5F5F5F5
310
F5F5F5F5F5F5F5F5F5F5F5F5F5F5F5F5F5F5F5F5F5F5F5F5F5F5F5F5F5F5F5F5F5F5F5F5F5F5F5F5F5F5F5F5F5F5F5F5F5F5F5F5F5F5F5F5F5F5F5F5F5F5F5F5F5F5F5F5F5F5F5F5F5F5F5F5F5F5F5F5F5F5F5F5F5F5F5F5F5F5F5F5F5F5F5F5F5F5F5F5F5F5F5F5F5F5F5F5F5F5F5F5F5F5F5F5F5F5F5F5F5F5F5F5F5F5F5
310
F5F5F5F5F5F5F5F5F5F5F5F5E2F5F5F5F5F5F5F5F5F5F5F5E2E2E2F5F5F5F5F5F5F5F5F5F5F5E2F5F5F5F5F5F5F5F5F5F5F5F5F5F5F5F5F5F5F5F5F5F5F5F5F5F5F5F5F5F5F5F5F5F5F5F5F5F5F5F5F5F5F5F5F5F5F5F5F5F5F5F5F5F5F5F5F5F5F5F5F5F5F5F5F5F5F5F5F5F5F5F5F5F5F5F5F5F5F5F5F5F5F5F5F5F5F5F5
310
F5F5F5F5F5F5F5F5F5F5F5F5F5F5F5F5F5F5F5F5F5F5F5F5F5F5F5F5F5F5F5F5F5F5F5F5F5F5F5F5F5F5F5F5F5F5F5F5F5F5F5F5F5F5F5F5F5F5F5F5F5F5F5F5F5E2F5F5F5F5F5F5F5F5F5F5F5E2E2E2F5F5F5F5F5F5F5F5F5F5F5E2F5F5F5F5F5F5F5F5F5F5F5F5F5F5F5F5F5F5F5F5F5F5F5F5F5F5F5F5F5F5F5F5F5F5F5
310
F5F5F5F5F5F5F5F5F5F5F5F5F5F5F5F5F5F5F5F5F5F5F5F5F5F5F5F5F5F5F5F5F5F5F5F5F5F5F5F5F5F5F5F5F5F5F5F5F5F5F5F5F5F5F5F5F5F5F5F5F5F5F5F5F5F5F5F5F5F5F5F5F5F5F5F5F5F5F5F5F5F5F5F5F5F5F5F5F5F5F5F5F5F5F5F5F5F5F5F5F5F5F5F5F5F5F5F5F5F5F5F5F5F5F5F5F5F5E2F5F5F5F5F5F5F5F5
310
F5F5F5E2E2E2F5F5F5F5F5F5F5F5F5F5F5E2F5F5F5F5F5F5F5F5F5F5F5F5F5F5F5F5F5F5F5F5F5F5F5F5F5F5F5F5F5F5F5F5F5F5F5F5F5F5F5F5F5F5F5F5F5F5F5F5F5F5F5F5F5F5F5F5F5F5F5F5F5F5F5F5F5F5F5F5F5F5F5F5F5F5F5F5F5F5F5F5F5F5F5F5F5F5F5F5F5F5F5F5F5F5F5F5F5F5F5F5F5F5F5F5F5F5F5F5F5
310
F5F5F5F5F5F5F5F5F5F5F5F5F5F5F5F5F5F5F5F5F5F5F5F5F5F5F5F5F5F5F5F5F5F5F5F5F5F5F5F5F5F5F5F5E2F5F5F5F5F5F5F5F5F5F5F5E2E2E2F5F5F5F5F5F5F5F5F5F5F5E2F5F5F5F5F5F5F5F5F5F5F5F5F5F5F5F5F5F5F5F5F5F5F5F5F5F5F5F5F5F5F5F5F5F5F5F5F5F5F5F5F5F5F5F5F5F5F5F5F5F5F5F5F5F5F5F5
310
F5F5F5F5F5F5F5F5F5F5F5F5F5F5F5F5F5F5F5F5F5F5F5F5F5F5F5F5F5F5F5F5F5F5F5F5F5F5F5F5F5F5F5F5F5F5F5F5F5F5F5F5F5F5F5F5F5F5F5F5F5F5F5F5F5F5F5F5F5F5F5F5F5F5F5F5F5F5F5F5F5F5F5F5F5F5F5F5F5F5F5F5F5F5F5F5F5E2F5F5F5F5F5F5F5F5F5F5F5E2E2E2F5F5F5F5F5F5F5F5F5F5F5E2E2E2E2
310
E2E2E2E2E2F5F5F5F5F5F5F5F5F5E2E2E2E2E2E2E2E2E2E2E2E2E2E2E2E2F5F5F5F5F5F5F5F5F5F5E2E2E2E2E2E2E2E2E2E2E2E2E2E2E2E2F5F5F5F5F5F5F5F5F5E2E2E2E2E2E2E2E2E2E2E2E2E2E2E2E2E2F5F5F5F5F5F5F5F5F5E2E2E2E2E2E2E2E2E2E2E2E2E2E2E2E2F5F5F5F5F5F5F5F5F5F5E2E2E2E2E2E2E2E2E2E2
310
E2E2E2E2E2E2F5F5F5F5F5F5F5F5F5E2E2E2E2E2E2E2E2E2F5F5F5F5F5F5F5F5F5F5F5E2E2E2F5F5F5F5F5F5F5F5F5F5F5F5F5F5F5F5F5F5F5F5F5F5F5F5F5F5F5F5F5F5F5F5F5F5F5F5F5F5F5F5F5F5F5F5F5F5F5F5F5F5F5F5F5F5F5F5F5F5F5F5F5F5F5F5F5F5F5F5F5F5F5F5F5F5F5F5F5F5F5F5F5F5F5F5F5F5F5F5F5
310
F5F5F5F5F5F5F5F5F5F5F5F5F5F5F5F5F5F5F5F5F5F5F5F5F5F5F5F5F5F5F5F5F5F5F5F5F5F5F5F5F5F5F5F5F5F5F5F5F5F5F5F5F5F5F5F5F5F5F5F5F5F5F5F5F5F5F5F5F5F5F5F5F5F5F5F5F5F5F5F5F5F5F5F5F5F5F5F5E2E2E2F5F5F5F5F5F5F5F5F5F5F5F5F5F5F5F5F5F5F5F5F5F5F5F5F5F5F5F5F5F5F5F5F5F5F5F5
310
F5F5F5F5F5F5F5F5F5F5F5F5F5F5F5F5F5F5F5F5F5F5F5F5F5F5F5F5F5F5F5F5F5F5F5F5F5F5F5F5F5F5F5F5F5F5F5F5F5F5F5F5F5F5F5F5F5F5F5F5F5F5F5F5F5F5F5F5F5F5F5F5F5F5F5F5F5F5F5F5F5F5F5F5F5F5F5F5F5F5F5F5F5F5F5F5F5F5F5F5F5F5F5F5F5F5F5F5F5F5F5F5F5F5F5F5F5F5F5F5F5F5F5F5F5F5F5
310
F5F5F5F5F5F5F5F5F5F5F5F5F5F5E2E2E2F5F5F5F5F5F5F5F5F5F5F5F5F5F5F5F5F5F5F5F5F5F5F5F5F5F5F5F5F5F5F5F5F5F5F5F5F5F5F5F5F5F5F5F5F5F5F5F5F5F5F5F5F5F5F5F5F5F5F5F5F5F5F5F5F5F5F5F5F5F5F5F5F5F5F5F5F5F5F5F5F5F5F5F5F5F5F5F5F5F5F5F5F5F5F5F5F5F5F5F5F5F5F5F5F5F5F5F5F5F5
310
F5F5F5F5F5F5F5F5F5F5F5F5F5F5F5F5F5F5F5F5F5F5F5F5F5F5F5F5F5F5F5F5F5F5F5F5F5F5F5F5F5F5F5F5F5F5F5F5F5F5F5F5F5F5F5F5F5F5F5F5F5F5F5F5F5F5F5E2E2E2F5F5F5F5F5F5F5F5F5F5F5F5F5F5F5F5F5F5F5F5F5F5F5F5F5F5F5F5F5F5F5F5F5F5F5F5F5F5F5F5F5F5F5F5F5F5F5F5F5F5F5F5F5F5F5F5F5
310
F5F5F5F5F5F5F5F5F5F5F5F5F5F5F5F5F5F5F5F5F5F5F5F5F5F5F5F5F5F5F5F5F5F5F5F5F5F5F5F5F5F5F5F5F5F5F5F5F5F5F5F5F5F5F5F5F5F5F5F5F5F5F5F5F5F5F5F5F5F5F5F5F5F5F5F5F5F5F5F5F5F5F5F5F5F5F5F5F5F5F5F5F5F5F5F5F5F5F5F5F5F5F5F5F5F5F5F5F5F5F5F5F5F5F5F5F5F5F5F5E2EFE2E2E2E2E2
310
E2E2E2E2E2E2E2E2E2E2E2E2E2E2E2E2E2E2E2E2E2E2E2E2E2E2E2E2E2E2E2E2E2E2E2E2E2E2E2E2E2E2E2E2E2E2E2E2E2E2E2E2E2E2E2E2E2E2E2E2E2E2E2E2E2E2E2E2E2E2E2E2E2E2E2E2E2E2E2E2E2E2E2E2E2E2E2E2E2E2E2E2E2E2E2E2E2E2E2E2E2E2E2E2E2E2E2E2E2E2E2E2E2E2E2E2E2E2E2E2E2E2E2E2E2E2E2
310
E2E2E2E2E2E2E2E2E2E2E2E2E2E2E2E2E2E2E2E2E2E2E2E2E2E2E2E2E2E2E2E2E2E2E2E2E2E2E2E2E2E2E2E2E2E2E2EF
  0
XRECORD
  5
A7FF
102
{ACAD_REACTORS
330
A7C7
102
}
330
A7C7
100
AcDbXrecord
280
     1
102
MATERIAL
148
0.0
149
0.0
149
0.0
 93
        0
 94
      127
282
     0
 72
     0
 77
     0
171
     0
175
     0
179
     0
273
     0
  0
XRECORD
  5
A7C8
102
{ACAD_REACTORS
330
A7C7
102
}
330
A7C7
100
AcDbXrecord
280
     1
270
     1
271
     1
  0
XRECORD
  5
A7C9
102
{ACAD_REACTORS
330
A7C7
102
}
330
A7C7
100
AcDbXrecord
280
     1
270
     1
271
     1
  0
XRECORD
  5
A7CA
102
{ACAD_REACTORS
330
A7C7
102
}
330
A7C7
100
AcDbXrecord
280
     1
270
     1
271
     1
  0
XRECORD
  5
A7CB
102
{ACAD_REACTORS
330
A7C7
102
}
330
A7C7
100
AcDbXrecord
280
     1
270
     1
271
     1
  0
XRECORD
  5
A7CC
102
{ACAD_REACTORS
330
A7C7
102
}
330
A7C7
100
AcDbXrecord
280
     1
270
     1
271
     1
  0
XRECORD
  5
A7CD
102
{ACAD_REACTORS
330
A7C7
102
}
330
A7C7
100
AcDbXrecord
280
     1
270
     1
271
     1
  0
XRECORD
  5
A7FE
102
{ACAD_REACTORS
330
A7BF
102
}
330
A7BF
100
AcDbXrecord
280
     1
102
MATERIAL
148
0.0
149
0.0
149
0.0
 93
        0
 94
      127
282
     0
 72
     0
 77
     0
171
     0
175
     0
179
     0
273
     0
  0
XRECORD
  5
A7C0
102
{ACAD_REACTORS
330
A7BF
102
}
330
A7BF
100
AcDbXrecord
280
     1
270
     1
271
     1
  0
XRECORD
  5
A7C1
102
{ACAD_REACTORS
330
A7BF
102
}
330
A7BF
100
AcDbXrecord
280
     1
270
     1
271
     1
  0
XRECORD
  5
A7C2
102
{ACAD_REACTORS
330
A7BF
102
}
330
A7BF
100
AcDbXrecord
280
     1
270
     1
271
     1
  0
XRECORD
  5
A7C3
102
{ACAD_REACTORS
330
A7BF
102
}
330
A7BF
100
AcDbXrecord
280
     1
270
     1
271
     1
  0
XRECORD
  5
A7C4
102
{ACAD_REACTORS
330
A7BF
102
}
330
A7BF
100
AcDbXrecord
280
     1
270
     1
271
     1
  0
XRECORD
  5
A7C5
102
{ACAD_REACTORS
330
A7BF
102
}
330
A7BF
100
AcDbXrecord
280
     1
270
     1
271
     1
  0
XRECORD
  5
A7FB
102
{ACAD_REACTORS
330
A795
102
}
330
A795
100
AcDbXrecord
280
     1
102
MATERIAL
148
0.0
149
0.0
149
0.0
 93
        0
 94
      127
282
     0
 72
     0
 77
     0
171
     0
175
     0
179
     0
273
     0
  0
XRECORD
  5
A796
102
{ACAD_REACTORS
330
A795
102
}
330
A795
100
AcDbXrecord
280
     1
270
     1
271
     1
  0
XRECORD
  5
A797
102
{ACAD_REACTORS
330
A795
102
}
330
A795
100
AcDbXrecord
280
     1
270
     1
271
     1
  0
XRECORD
  5
A798
102
{ACAD_REACTORS
330
A795
102
}
330
A795
100
AcDbXrecord
280
     1
270
     1
271
     1
  0
XRECORD
  5
A799
102
{ACAD_REACTORS
330
A795
102
}
330
A795
100
AcDbXrecord
280
     1
270
     1
271
     1
  0
XRECORD
  5
A79A
102
{ACAD_REACTORS
330
A795
102
}
330
A795
100
AcDbXrecord
280
     1
270
     1
271
     1
  0
XRECORD
  5
A79B
102
{ACAD_REACTORS
330
A795
102
}
330
A795
100
AcDbXrecord
280
     1
270
     1
271
     1
  0
CELLSTYLEMAP
  5
A7F9
102
{ACAD_REACTORS
330
A7F8
102
}
330
A7F8
100
AcDbCellStyleMap
 90
        3
300
CELLSTYLE
  1
TABLEFORMAT_BEGIN
 90
        5
170
     1
 91
        0
 92
    32768
 62
   257
 93
        1
300
CONTENTFORMAT
  1
CONTENTFORMAT_BEGIN
 90
        0
 91
        0
 92
        4
 93
        0
300

 40
0.0
140
1.0
 94
        5
 62
     0
340
A7AB
144
6.0
309
CONTENTFORMAT_END
171
     1
301
MARGIN
  1
CELLMARGIN_BEGIN
 40
1.5
 40
1.5
 40
1.5
 40
1.5
 40
0.18
 40
0.18
309
CELLMARGIN_END
 94
        6
 95
        1
302
GRIDFORMAT
  1
GRIDFORMAT_BEGIN
 90
        0
 91
        1
 62
     0
 92
       -2
340
0
 93
        0
 40
0.045
309
GRIDFORMAT_END
 95
        2
302
GRIDFORMAT
  1
GRIDFORMAT_BEGIN
 90
        0
 91
        1
 62
     0
 92
       -2
340
0
 93
        0
 40
0.045
309
GRIDFORMAT_END
 95
        4
302
GRIDFORMAT
  1
GRIDFORMAT_BEGIN
 90
        0
 91
        1
 62
     0
 92
       -2
340
0
 93
        0
 40
0.045
309
GRIDFORMAT_END
 95
        8
302
GRIDFORMAT
  1
GRIDFORMAT_BEGIN
 90
        0
 91
        1
 62
     0
 92
       -2
340
0
 93
        0
 40
0.045
309
GRIDFORMAT_END
 95
       16
302
GRIDFORMAT
  1
GRIDFORMAT_BEGIN
 90
        0
 91
        1
 62
     0
 92
       -2
340
0
 93
        0
 40
0.045
309
GRIDFORMAT_END
 95
       32
302
GRIDFORMAT
  1
GRIDFORMAT_BEGIN
 90
        0
 91
        1
 62
     0
 92
       -2
340
0
 93
        0
 40
0.045
309
GRIDFORMAT_END
309
TABLEFORMAT_END
  1
CELLSTYLE_BEGIN
 90
        1
 91
        1
300
_TITLE
309
CELLSTYLE_END
300
CELLSTYLE
  1
TABLEFORMAT_BEGIN
 90
        5
170
     1
 91
        0
 92
        0
 62
   257
 93
        1
300
CONTENTFORMAT
  1
CONTENTFORMAT_BEGIN
 90
        0
 91
        0
 92
        4
 93
        0
300

 40
0.0
140
1.0
 94
        5
 62
     0
340
A7AB
144
4.5
309
CONTENTFORMAT_END
171
     1
301
MARGIN
  1
CELLMARGIN_BEGIN
 40
1.5
 40
1.5
 40
1.5
 40
1.5
 40
0.18
 40
0.18
309
CELLMARGIN_END
 94
        6
 95
        1
302
GRIDFORMAT
  1
GRIDFORMAT_BEGIN
 90
        0
 91
        1
 62
     0
 92
       -2
340
0
 93
        0
 40
0.045
309
GRIDFORMAT_END
 95
        2
302
GRIDFORMAT
  1
GRIDFORMAT_BEGIN
 90
        0
 91
        1
 62
     0
 92
       -2
340
0
 93
        0
 40
0.045
309
GRIDFORMAT_END
 95
        4
302
GRIDFORMAT
  1
GRIDFORMAT_BEGIN
 90
        0
 91
        1
 62
     0
 92
       -2
340
0
 93
        0
 40
0.045
309
GRIDFORMAT_END
 95
        8
302
GRIDFORMAT
  1
GRIDFORMAT_BEGIN
 90
        0
 91
        1
 62
     0
 92
       -2
340
0
 93
        0
 40
0.045
309
GRIDFORMAT_END
 95
       16
302
GRIDFORMAT
  1
GRIDFORMAT_BEGIN
 90
        0
 91
        1
 62
     0
 92
       -2
340
0
 93
        0
 40
0.045
309
GRIDFORMAT_END
 95
       32
302
GRIDFORMAT
  1
GRIDFORMAT_BEGIN
 90
        0
 91
        1
 62
     0
 92
       -2
340
0
 93
        0
 40
0.045
309
GRIDFORMAT_END
309
TABLEFORMAT_END
  1
CELLSTYLE_BEGIN
 90
        2
 91
        1
300
_HEADER
309
CELLSTYLE_END
300
CELLSTYLE
  1
TABLEFORMAT_BEGIN
 90
        5
170
     1
 91
        0
 92
        0
 62
   257
 93
        1
300
CONTENTFORMAT
  1
CONTENTFORMAT_BEGIN
 90
        0
 91
        0
 92
        4
 93
        0
300

 40
0.0
140
1.0
 94
        2
 62
     0
340
A7AB
144
4.5
309
CONTENTFORMAT_END
171
     1
301
MARGIN
  1
CELLMARGIN_BEGIN
 40
1.5
 40
1.5
 40
1.5
 40
1.5
 40
0.18
 40
0.18
309
CELLMARGIN_END
 94
        6
 95
        1
302
GRIDFORMAT
  1
GRIDFORMAT_BEGIN
 90
        0
 91
        1
 62
     0
 92
       -2
340
0
 93
        0
 40
0.045
309
GRIDFORMAT_END
 95
        2
302
GRIDFORMAT
  1
GRIDFORMAT_BEGIN
 90
        0
 91
        1
 62
     0
 92
       -2
340
0
 93
        0
 40
0.045
309
GRIDFORMAT_END
 95
        4
302
GRIDFORMAT
  1
GRIDFORMAT_BEGIN
 90
        0
 91
        1
 62
     0
 92
       -2
340
0
 93
        0
 40
0.045
309
GRIDFORMAT_END
 95
        8
302
GRIDFORMAT
  1
GRIDFORMAT_BEGIN
 90
        0
 91
        1
 62
     0
 92
       -2
340
0
 93
        0
 40
0.045
309
GRIDFORMAT_END
 95
       16
302
GRIDFORMAT
  1
GRIDFORMAT_BEGIN
 90
        0
 91
        1
 62
     0
 92
       -2
340
0
 93
        0
 40
0.045
309
GRIDFORMAT_END
 95
       32
302
GRIDFORMAT
  1
GRIDFORMAT_BEGIN
 90
        0
 91
        1
 62
     0
 92
       -2
340
0
 93
        0
 40
0.045
309
GRIDFORMAT_END
309
TABLEFORMAT_END
  1
CELLSTYLE_BEGIN
 90
        3
 91
        2
300
_DATA
309
CELLSTYLE_END
  0
XRECORD
  5
A800
102
{ACAD_REACTORS
330
A7F8
102
}
330
A7F8
100
AcDbXrecord
280
     1
102
ACAD_ROUNDTRIP_PRE2007_TABLESTYLE
 90
        4
 91
        0
  1

 92
        4
 93
        0
  2

 94
        4
 95
        0
  3

  0
XRECORD
  5
A7FD
102
{ACAD_REACTORS
330
A7FC
102
}
330
A7FC
100
AcDbXrecord
280
     1
102
RTVSPropertyOp0
 70
     1
102
RTVSPropertyOp1
 70
     1
102
RTVSPropertyOp2
 70
     1
102
RTVSPropertyOp3
 70
     1
102
RTVSPropertyOp4
 70
     1
102
RTVSPropertyOp5
 70
     1
102
RTVSPropertyOp6
 70
     1
102
RTVSPropertyOp7
 70
     1
102
RTVSPropertyOp8
 70
     1
102
RTVSPropertyOp9
 70
     1
102
RTVSPropertyOp10
 70
     1
102
RTVSPropertyOp11
 70
     1
102
RTVSPropertyOp12
 70
     1
102
RTVSPropertyOp13
 70
     1
102
RTVSPropertyOp14
 70
     1
102
RTVSPropertyOp15
 70
     1
102
RTVSPropertyOp16
 70
     1
102
RTVSPropertyOp17
 70
     1
102
RTVSPropertyOp18
 70
     1
102
RTVSPropertyOp19
 70
     1
102
RTVSPropertyOp20
 70
     1
102
RTVSPropertyOp21
 70
     1
102
RTVSPropertyOp22
 70
     1
102
RTVSPropertyOp23
 70
     1
102
RTVSPropertyOp24
 70
     1
102
RTVSPropertyOp25
 70
     1
102
RTVSPropertyOp26
 70
     1
102
RTVSPropertyOp27
 70
     1
  0
XRECORD
  5
A804
102
{ACAD_REACTORS
330
A803
102
}
330
A803
100
AcDbXrecord
280
     1
102
RTVSPropertyOp0
 70
     1
102
RTVSPropertyOp1
 70
     1
102
RTVSPropertyOp2
 70
     1
102
RTVSPropertyOp3
 70
     1
102
RTVSPropertyOp4
 70
     1
102
RTVSPropertyOp5
 70
     1
102
RTVSPropertyOp6
 70
     1
102
RTVSPropertyOp7
 70
     1
102
RTVSPropertyOp8
 70
     1
102
RTVSPropertyOp9
 70
     1
102
RTVSPropertyOp10
 70
     1
102
RTVSPropertyOp11
 70
     1
102
RTVSPropertyOp12
 70
     1
102
RTVSPropertyOp13
 70
     1
102
RTVSPropertyOp14
 70
     1
102
RTVSPropertyOp15
 70
     1
102
RTVSPropertyOp16
 70
     1
102
RTVSPropertyOp17
 70
     1
102
RTVSPropertyOp18
 70
     1
102
RTVSPropertyOp19
 70
     1
102
RTVSPropertyOp20
 70
     1
102
RTVSPropertyOp21
 70
     1
102
RTVSPropertyOp22
 70
     1
102
RTVSPropertyOp23
 70
     1
102
RTVSPropertyOp24
 70
     1
102
RTVSPropertyOp25
 70
     1
102
RTVSPropertyOp26
 70
     1
102
RTVSPropertyOp27
 70
     1
  0
XRECORD
  5
A802
102
{ACAD_REACTORS
330
A801
102
}
330
A801
100
AcDbXrecord
280
     1
102
RTVSPropertyOp0
 70
     1
102
RTVSPropertyOp1
 70
     1
102
RTVSPropertyOp2
 70
     1
102
RTVSPropertyOp3
 70
     1
102
RTVSPropertyOp4
 70
     1
102
RTVSPropertyOp5
 70
     1
102
RTVSPropertyOp6
 70
     1
102
RTVSPropertyOp7
 70
     1
102
RTVSPropertyOp8
 70
     1
102
RTVSPropertyOp9
 70
     1
102
RTVSPropertyOp10
 70
     1
102
RTVSPropertyOp11
 70
     1
102
RTVSPropertyOp12
 70
     1
102
RTVSPropertyOp13
 70
     1
102
RTVSPropertyOp14
 70
     1
102
RTVSPropertyOp15
 70
     1
102
RTVSPropertyOp16
 70
     1
102
RTVSPropertyOp17
 70
     1
102
RTVSPropertyOp18
 70
     1
102
RTVSPropertyOp19
 70
     1
102
RTVSPropertyOp20
 70
     1
102
RTVSPropertyOp21
 70
     1
102
RTVSPropertyOp22
 70
     1
102
RTVSPropertyOp23
 70
     1
102
RTVSPropertyOp24
 70
     1
102
RTVSPropertyOp25
 70
     1
102
RTVSPropertyOp26
 70
     1
102
RTVSPropertyOp27
 70
     1
  0
ENDSEC
  0
EOF
