  0
SECTION
  2
HEADER
  9
$ACADVER
  1
AC1018
  9
$ACADMAINTVER
 70
   104
  9
$DWGCODEPAGE
  3
ANSI_932
  9
$AUTHOR
  1
pyxis04
  9
$LASTSAVEDBY
  1
pyxis04
  9
$INSBASE
 10
0.0
 20
0.0
 30
0.0
  9
$EXTMIN
 10
171873.1
 20
134869.1
 30
0.0
  9
$EXTMAX
 10
201573.2
 20
155869.2
 30
0.0
  9
$LIMMIN
 10
113974.262998
 20
72620.262998
  9
$LIMMAX
 10
259472.037002
 20
218118.037002
  9
$ORTHOMODE
 70
     0
  9
$REGENMODE
 70
     1
  9
$FILLMODE
 70
     1
  9
$QTEXTMODE
 70
     0
  9
$MIRRTEXT
 70
     0
  9
$LTSCALE
 40
1.0
  9
$ATTMODE
 70
     1
  9
$TEXTSIZE
 40
225.0
  9
$TRACEWID
 40
1.0
  9
$TEXTSTYLE
  7
Standard
  9
$CLAYER
  8
A221_記入文字
  9
$CELTYPE
  6
Continuous
  9
$CECOLOR
 62
     7
  9
$CELTSCALE
 40
50.0
  9
$DISPSILH
 70
     0
  9
$DIMSCALE
 40
1.0
  9
$DIMASZ
 40
2.5
  9
$DIMEXO
 40
0.625
  9
$DIMDLI
 40
3.75
  9
$DIMRND
 40
0.0
  9
$DIMDLE
 40
0.0
  9
$DIMEXE
 40
1.25
  9
$DIMTP
 40
0.0
  9
$DIMTM
 40
0.0
  9
$DIMTXT
 40
2.5
  9
$DIMCEN
 40
2.5
  9
$DIMTSZ
 40
0.0
  9
$DIMTOL
 70
     0
  9
$DIMLIM
 70
     0
  9
$DIMTIH
 70
     0
  9
$DIMTOH
 70
     0
  9
$DIMSE1
 70
     0
  9
$DIMSE2
 70
     0
  9
$DIMTAD
 70
     1
  9
$DIMZIN
 70
     8
  9
$DIMBLK
  1

  9
$DIMASO
 70
     1
  9
$DIMSHO
 70
     1
  9
$DIMPOST
  1

  9
$DIMAPOST
  1

  9
$DIMALT
 70
     0
  9
$DIMALTD
 70
     3
  9
$DIMALTF
 40
0.03937
  9
$DIMLFAC
 40
1.0
  9
$DIMTOFL
 70
     1
  9
$DIMTVP
 40
0.0
  9
$DIMTIX
 70
     0
  9
$DIMSOXD
 70
     0
  9
$DIMSAH
 70
     0
  9
$DIMBLK1
  1

  9
$DIMBLK2
  1

  9
$DIMSTYLE
  2
ISO-25
  9
$DIMCLRD
 70
     0
  9
$DIMCLRE
 70
     0
  9
$DIMCLRT
 70
     0
  9
$DIMTFAC
 40
1.0
  9
$DIMGAP
 40
0.625
  9
$DIMJUST
 70
     0
  9
$DIMSD1
 70
     0
  9
$DIMSD2
 70
     0
  9
$DIMTOLJ
 70
     0
  9
$DIMTZIN
 70
     8
  9
$DIMALTZ
 70
     0
  9
$DIMALTTZ
 70
     0
  9
$DIMUPT
 70
     0
  9
$DIMDEC
 70
     2
  9
$DIMTDEC
 70
     2
  9
$DIMALTU
 70
     2
  9
$DIMALTTD
 70
     3
  9
$DIMTXSTY
  7
Standard
  9
$DIMAUNIT
 70
     0
  9
$DIMADEC
 70
     0
  9
$DIMALTRND
 40
0.0
  9
$DIMAZIN
 70
     0
  9
$DIMDSEP
 70
    44
  9
$DIMATFIT
 70
     3
  9
$DIMFRAC
 70
     0
  9
$DIMLDRBLK
  1

  9
$DIMLUNIT
 70
     2
  9
$DIMLWD
 70
    -2
  9
$DIMLWE
 70
    -2
  9
$DIMTMOVE
 70
     0
  9
$LUNITS
 70
     2
  9
$LUPREC
 70
     6
  9
$SKETCHINC
 40
1.0
  9
$FILLETRAD
 40
0.0
  9
$AUNITS
 70
     0
  9
$AUPREC
 70
     8
  9
$MENU
  1
.
  9
$ELEVATION
 40
0.0
  9
$PELEVATION
 40
0.0
  9
$THICKNESS
 40
0.0
  9
$LIMCHECK
 70
     0
  9
$CHAMFERA
 40
0.0
  9
$CHAMFERB
 40
0.0
  9
$CHAMFERC
 40
0.0
  9
$CHAMFERD
 40
0.0
  9
$SKPOLY
 70
     0
  9
$TDCREATE
 40
2454145.195247280
  9
$TDUCREATE
 40
2454144.820247280
  9
$TDUPDATE
 40
2454145.196122512
  9
$TDUUPDATE
 40
2454144.821122512
  9
$TDINDWG
 40
0.0008796991
  9
$TDUSRTIMER
 40
0.0008778472
  9
$USRTIMER
 70
     1
  9
$ANGBASE
 50
0.0
  9
$ANGDIR
 70
     0
  9
$PDMODE
 70
     0
  9
$PDSIZE
 40
0.0
  9
$PLINEWID
 40
0.0
  9
$SPLFRAME
 70
     0
  9
$SPLINETYPE
 70
     6
  9
$SPLINESEGS
 70
     8
  9
$HANDSEED
  5
B4B3
  9
$SURFTAB1
 70
     6
  9
$SURFTAB2
 70
     6
  9
$SURFTYPE
 70
     6
  9
$SURFU
 70
     6
  9
$SURFV
 70
     6
  9
$UCSBASE
  2

  9
$UCSNAME
  2

  9
$UCSORG
 10
0.0
 20
0.0
 30
0.0
  9
$UCSXDIR
 10
1.0
 20
0.0
 30
0.0
  9
$UCSYDIR
 10
0.0
 20
1.0
 30
0.0
  9
$UCSORTHOREF
  2

  9
$UCSORTHOVIEW
 70
     0
  9
$UCSORGTOP
 10
0.0
 20
0.0
 30
0.0
  9
$UCSORGBOTTOM
 10
0.0
 20
0.0
 30
0.0
  9
$UCSORGLEFT
 10
0.0
 20
0.0
 30
0.0
  9
$UCSORGRIGHT
 10
0.0
 20
0.0
 30
0.0
  9
$UCSORGFRONT
 10
0.0
 20
0.0
 30
0.0
  9
$UCSORGBACK
 10
0.0
 20
0.0
 30
0.0
  9
$PUCSBASE
  2

  9
$PUCSNAME
  2

  9
$PUCSORG
 10
0.0
 20
0.0
 30
0.0
  9
$PUCSXDIR
 10
1.0
 20
0.0
 30
0.0
  9
$PUCSYDIR
 10
0.0
 20
1.0
 30
0.0
  9
$PUCSORTHOREF
  2

  9
$PUCSORTHOVIEW
 70
     0
  9
$PUCSORGTOP
 10
0.0
 20
0.0
 30
0.0
  9
$PUCSORGBOTTOM
 10
0.0
 20
0.0
 30
0.0
  9
$PUCSORGLEFT
 10
0.0
 20
0.0
 30
0.0
  9
$PUCSORGRIGHT
 10
0.0
 20
0.0
 30
0.0
  9
$PUCSORGFRONT
 10
0.0
 20
0.0
 30
0.0
  9
$PUCSORGBACK
 10
0.0
 20
0.0
 30
0.0
  9
$USERI1
 70
     0
  9
$USERI2
 70
     0
  9
$USERI3
 70
     0
  9
$USERI4
 70
     0
  9
$USERI5
 70
     0
  9
$USERR1
 40
0.0
  9
$USERR2
 40
0.0
  9
$USERR3
 40
0.0
  9
$USERR4
 40
0.0
  9
$USERR5
 40
0.0
  9
$WORLDVIEW
 70
     1
  9
$SHADEDGE
 70
     3
  9
$SHADEDIF
 70
    70
  9
$TILEMODE
 70
     1
  9
$MAXACTVP
 70
    64
  9
$PINSBASE
 10
0.0
 20
0.0
 30
0.0
  9
$PLIMCHECK
 70
     0
  9
$PEXTMIN
 10
25.7
 20
19.5
 30
0.0
  9
$PEXTMAX
 10
231.3
 20
175.5
 30
0.0
  9
$PLIMMIN
 10
-20.0
 20
-7.5
  9
$PLIMMAX
 10
277.0
 20
202.5
  9
$UNITMODE
 70
     0
  9
$VISRETAIN
 70
     1
  9
$PLINEGEN
 70
     0
  9
$PSLTSCALE
 70
     0
  9
$TREEDEPTH
 70
  3020
  9
$CMLSTYLE
  2
Standard
  9
$CMLJUST
 70
     0
  9
$CMLSCALE
 40
20.0
  9
$PROXYGRAPHICS
 70
     1
  9
$MEASUREMENT
 70
     1
  9
$CELWEIGHT
370
    13
  9
$ENDCAPS
280
     0
  9
$JOINSTYLE
280
     0
  9
$LWDISPLAY
290
     1
  9
$INSUNITS
 70
     4
  9
$HYPERLINKBASE
  1

  9
$STYLESHEET
  1

  9
$XEDIT
290
     1
  9
$CEPSNTYPE
380
     0
  9
$PSTYLEMODE
290
     1
  9
$FINGERPRINTGUID
  2
{73F69A9F-69DA-44EC-A006-4BFB6D39889B}
  9
$VERSIONGUID
  2
{387A601E-E697-4F95-A263-71BCBFF6BFF5}
  9
$EXTNAMES
290
     1
  9
$PSVPSCALE
 40
0.0
  9
$OLESTARTUP
290
     0
  9
$SORTENTS
280
   127
  9
$INDEXCTL
280
     0
  9
$HIDETEXT
280
     1
  9
$XCLIPFRAME
290
     0
  9
$HALOGAP
280
     0
  9
$OBSCOLOR
 70
   257
  9
$OBSLTYPE
280
     0
  9
$INTERSECTIONDISPLAY
280
     0
  9
$INTERSECTIONCOLOR
 70
   257
  9
$DIMASSOC
280
     1
  9
$PROJECTNAME
  1

  0
ENDSEC
  0
SECTION
  2
CLASSES
  0
CLASS
  1
ACDBDICTIONARYWDFLT
  2
AcDbDictionaryWithDefault
  3
ObjectDBX Classes
 90
        0
 91
        1
280
     0
281
     0
  0
CLASS
  1
DICTIONARYVAR
  2
AcDbDictionaryVar
  3
ObjectDBX Classes
 90
        0
 91
        3
280
     0
281
     0
  0
CLASS
  1
TABLESTYLE
  2
AcDbTableStyle
  3
ObjectDBX Classes
 90
     4095
 91
        1
280
     0
281
     0
  0
CLASS
  1
MATERIAL
  2
AcDbMaterial
  3
ObjectDBX Classes
 90
     1153
 91
        3
280
     0
281
     0
  0
CLASS
  1
VISUALSTYLE
  2
AcDbVisualStyle
  3
ObjectDBX Classes
 90
     4095
 91
        3
280
     0
281
     0
  0
CLASS
  1
SCALE
  2
AcDbScale
  3
ObjectDBX Classes
 90
     1153
 91
       17
280
     0
281
     0
  0
CLASS
  1
MLEADERSTYLE
  2
AcDbMLeaderStyle
  3
ACDB_MLEADERSTYLE_CLASS
 90
     4095
 91
        0
280
     0
281
     0
  0
CLASS
  1
CELLSTYLEMAP
  2
AcDbCellStyleMap
  3
ObjectDBX Classes
 90
     1152
 91
        1
280
     0
281
     0
  0
ENDSEC
  0
SECTION
  2
TABLES
  0
TABLE
  2
VPORT
  5
B460
330
0
100
AcDbSymbolTable
 70
     2
  0
VPORT
  5
4B
330
B460
100
AcDbSymbolTableRecord
100
AcDbViewportTableRecord
  2
*ACTIVE
 70
     0
 10
0.0
 20
0.0
 11
1.0
 21
1.0
 12
186723.137725
 22
145369.154865
 13
0.0
 23
0.0
 14
100.0
 24
100.0
 15
100.0
 25
100.0
 16
0.0
 26
0.0
 36
1.0
 17
0.0
 27
0.0
 37
0.0
 40
21840.0
 41
3.442559
 42
50.0
 43
0.0
 44
0.0
 50
0.0
 51
0.0
 71
     0
 72
   100
 73
     1
 74
     0
 75
     0
 76
     0
 77
     0
 78
     1
281
     0
 65
     1
110
0.0
120
0.0
130
0.0
111
1.0
121
0.0
131
0.0
112
0.0
122
1.0
132
0.0
 79
     0
146
0.0
  0
ENDTAB
  0
TABLE
  2
LTYPE
  5
B45B
330
0
100
AcDbSymbolTable
 70
    13
  0
LTYPE
  5
B45C
330
B45B
100
AcDbSymbolTableRecord
100
AcDbLinetypeTableRecord
  2
ByBlock
 70
     0
  3

 72
    65
 73
     0
 40
0.0
  0
LTYPE
  5
B45D
330
B45B
100
AcDbSymbolTableRecord
100
AcDbLinetypeTableRecord
  2
ByLayer
 70
     0
  3

 72
    65
 73
     0
 40
0.0
  0
LTYPE
  5
B44A
330
B45B
100
AcDbSymbolTableRecord
100
AcDbLinetypeTableRecord
  2
Continuous
 70
     0
  3
Solid line
 72
    65
 73
     0
 40
0.0
  0
LTYPE
  5
442B
330
B45B
100
AcDbSymbolTableRecord
100
AcDbLinetypeTableRecord
  2
4_CENTER2
 70
     0
  3

 72
    65
 73
     4
 40
1.88
 49
1.4
 74
     0
 49
-0.16
 74
     0
 49
0.16
 74
     0
 49
-0.16
 74
     0
  0
LTYPE
  5
442D
330
B45B
100
AcDbSymbolTableRecord
100
AcDbLinetypeTableRecord
  2
7_CENTER
 70
     0
  3

 72
    65
 73
     4
 40
6.68
 49
6.2
 74
     0
 49
-0.16
 74
     0
 49
0.16
 74
     0
 49
-0.16
 74
     0
  0
LTYPE
  5
4510
330
B45B
100
AcDbSymbolTableRecord
100
AcDbLinetypeTableRecord
  2
2_HIDDEN2
 70
     0
  3

 72
    65
 73
     2
 40
0.34
 49
0.24
 74
     0
 49
-0.1
 74
     0
  0
LTYPE
  5
454A
330
B45B
100
AcDbSymbolTableRecord
100
AcDbLinetypeTableRecord
  2
1_HIDDEN
 70
     0
  3

 72
    65
 73
     2
 40
0.1
 49
0.0
 74
     0
 49
-0.1
 74
     0
  0
LTYPE
  5
455C
330
B45B
100
AcDbSymbolTableRecord
100
AcDbLinetypeTableRecord
  2
6_PHANTOM
 70
     0
  3

 72
    65
 73
     6
 40
4.9
 49
4.2
 74
     0
 49
-0.14
 74
     0
 49
0.14
 74
     0
 49
-0.14
 74
     0
 49
0.14
 74
     0
 49
-0.14
 74
     0
  0
LTYPE
  5
456E
330
B45B
100
AcDbSymbolTableRecord
100
AcDbLinetypeTableRecord
  2
3_DASHED
 70
     0
  3

 72
    65
 73
     2
 40
0.58
 49
0.48
 74
     0
 49
-0.1
 74
     0
  0
LTYPE
  5
4D7E
330
B45B
100
AcDbSymbolTableRecord
100
AcDbLinetypeTableRecord
  2
CENTER
 70
     0
  3

 72
    65
 73
     4
 40
50.8
 49
31.75
 74
     0
 49
-6.35
 74
     0
 49
6.35
 74
     0
 49
-6.35
 74
     0
  0
LTYPE
  5
B498
330
B45B
100
AcDbSymbolTableRecord
100
AcDbLinetypeTableRecord
  2
DGN Style 1
 70
     0
  3
Dgn Style 1
 72
    65
 73
     2
 40
0.6
 49
0.0
 74
     0
 49
-0.6
 74
     0
  0
LTYPE
  5
B499
330
B45B
100
AcDbSymbolTableRecord
100
AcDbLinetypeTableRecord
  2
DGN Style 2
 70
     0
  3
Dgn Style 2
 72
    65
 73
     2
 40
1.0
 49
0.6
 74
     0
 49
-0.4
 74
     0
  0
LTYPE
  5
B49A
330
B45B
100
AcDbSymbolTableRecord
100
AcDbLinetypeTableRecord
  2
DGN Style 6
 70
     0
  3
Dgn Style 6
 72
    65
 73
     6
 40
1.9
 49
0.0
 74
     0
 49
-0.4
 74
     0
 49
0.7
 74
     0
 49
-0.4
 74
     0
 49
0.0
 74
     0
 49
-0.4
 74
     0
  0
LTYPE
  5
B49B
330
B45B
100
AcDbSymbolTableRecord
100
AcDbLinetypeTableRecord
  2
DGN Style 4
 70
     0
  3
Dgn Style 4
 72
    65
 73
     4
 40
1.6
 49
0.8
 74
     0
 49
-0.4
 74
     0
 49
0.0
 74
     0
 49
-0.4
 74
     0
  0
LTYPE
  5
B49C
330
B45B
100
AcDbSymbolTableRecord
100
AcDbLinetypeTableRecord
  2
DGN Style 3
 70
     0
  3
Dgn Style 3
 72
    65
 73
     2
 40
1.4
 49
1.0
 74
     0
 49
-0.4
 74
     0
  0
ENDTAB
  0
TABLE
  2
LAYER
  5
B455
102
{ACAD_XDICTIONARY
360
B456
102
}
330
0
100
AcDbSymbolTable
 70
   136
  0
LAYER
  5
B43D
330
B455
100
AcDbSymbolTableRecord
100
AcDbLayerTableRecord
  2
0
 70
     0
 62
     7
  6
Continuous
370
    -3
390
B43E
  0
LAYER
  5
53C2
330
B455
100
AcDbSymbolTableRecord
100
AcDbLayerTableRecord
  2
A231_壁：種別
 70
     0
 62
     7
  6
Continuous
370
     9
390
B43E
  0
LAYER
  5
9708
330
B455
100
AcDbSymbolTableRecord
100
AcDbLayerTableRecord
  2
枠
 70
     0
 62
     7
  6
Continuous
290
     0
370
     9
390
B43E
  0
LAYER
  5
9982
330
B455
100
AcDbSymbolTableRecord
100
AcDbLayerTableRecord
  2
1階座席
 70
     0
 62
     3
  6
Continuous
370
     9
390
B43E
  0
LAYER
  5
9B25
330
B455
100
AcDbSymbolTableRecord
100
AcDbLayerTableRecord
  2
3-0通芯
 70
     0
 62
     7
  6
Continuous
370
     9
390
B43E
  0
LAYER
  5
9DCA
330
B455
100
AcDbSymbolTableRecord
100
AcDbLayerTableRecord
  2
2階座席
 70
     0
 62
     5
  6
Continuous
370
     9
390
B43E
  0
LAYER
  5
4D86
330
B455
100
AcDbSymbolTableRecord
100
AcDbLayerTableRecord
  2
A242_記号２
 70
     0
 62
     7
  6
Continuous
370
     9
390
B43E
  0
LAYER
  5
4D87
330
B455
100
AcDbSymbolTableRecord
100
AcDbLayerTableRecord
  2
A670_細点線
 70
     0
 62
     7
  6
DGN Style 1
370
     9
390
B43E
  0
LAYER
  5
4D88
330
B455
100
AcDbSymbolTableRecord
100
AcDbLayerTableRecord
  2
A661_中破線
 70
     0
 62
     7
  6
DGN Style 2
370
    13
390
B43E
  0
LAYER
  5
4D89
330
B455
100
AcDbSymbolTableRecord
100
AcDbLayerTableRecord
  2
A622_シャッター
 70
     0
 62
     7
  6
DGN Style 6
370
    13
390
B43E
  0
LAYER
  5
4D8A
330
B455
100
AcDbSymbolTableRecord
100
AcDbLayerTableRecord
  2
A854_衛生設備_記号
 70
     0
 62
   250
  6
Continuous
370
    13
390
B43E
  0
LAYER
  5
4D8B
330
B455
100
AcDbSymbolTableRecord
100
AcDbLayerTableRecord
  2
A322_ハッチング点線
 70
     0
 62
     7
  6
DGN Style 1
370
     9
390
B43E
  0
LAYER
  5
4D8C
330
B455
100
AcDbSymbolTableRecord
100
AcDbLayerTableRecord
  2
A743_駐車場
 70
     0
 62
     7
  6
Continuous
370
     9
390
B43E
  0
LAYER
  5
4D8D
330
B455
100
AcDbSymbolTableRecord
100
AcDbLayerTableRecord
  2
A740_外構
 70
     0
 62
     7
  6
Continuous
370
     9
390
B43E
  0
LAYER
  5
4D8E
330
B455
100
AcDbSymbolTableRecord
100
AcDbLayerTableRecord
  2
A823_サイン
 70
     0
 62
     7
  6
Continuous
370
     9
390
B43E
  0
LAYER
  5
4D8F
330
B455
100
AcDbSymbolTableRecord
100
AcDbLayerTableRecord
  2
A856_消防設備
 70
     0
 62
     7
  6
DGN Style 6
370
    13
390
B43E
  0
LAYER
  5
4D90
330
B455
100
AcDbSymbolTableRecord
100
AcDbLayerTableRecord
  2
A571_床ピット
 70
     0
 62
     7
  6
Continuous
370
     9
390
B43E
  0
LAYER
  5
4D91
330
B455
100
AcDbSymbolTableRecord
100
AcDbLayerTableRecord
  2
C132_ＧＬ
 70
     0
 62
     7
  6
DGN Style 4
370
     9
390
B43E
  0
LAYER
  5
4D92
330
B455
100
AcDbSymbolTableRecord
100
AcDbLayerTableRecord
  2
A343_基礎
 70
     0
 62
     7
  6
Continuous
370
     9
390
B43E
  0
LAYER
  5
4D93
330
B455
100
AcDbSymbolTableRecord
100
AcDbLayerTableRecord
  2
A344_樋
 70
     0
 62
     7
  6
Continuous
370
     9
390
B43E
  0
LAYER
  5
4D95
330
B455
100
AcDbSymbolTableRecord
100
AcDbLayerTableRecord
  2
A711_自敷地境界線
 70
     0
 62
     7
  6
DGN Style 6
370
    30
390
B43E
  0
LAYER
  5
4D96
330
B455
100
AcDbSymbolTableRecord
100
AcDbLayerTableRecord
  2
A733_工作物
 70
     0
 62
     7
  6
Continuous
370
     9
390
B43E
  0
LAYER
  5
4D97
330
B455
100
AcDbSymbolTableRecord
100
AcDbLayerTableRecord
  2
A732_舗装
 70
     0
 62
     7
  6
Continuous
370
     9
390
B43E
  0
LAYER
  5
4D98
330
B455
100
AcDbSymbolTableRecord
100
AcDbLayerTableRecord
  2
A741_擁壁
 70
     0
 62
     7
  6
Continuous
370
     9
390
B43E
  0
LAYER
  5
4D99
330
B455
100
AcDbSymbolTableRecord
100
AcDbLayerTableRecord
  2
A742_解体建物
 70
     0
 62
     7
  6
Continuous
370
     9
390
B43E
  0
LAYER
  5
4D9A
330
B455
100
AcDbSymbolTableRecord
100
AcDbLayerTableRecord
  2
A650_細実線
 70
     0
 62
    30
  6
Continuous
370
     9
390
B43E
  0
LAYER
  5
4D9B
330
B455
100
AcDbSymbolTableRecord
100
AcDbLayerTableRecord
  2
A651_中実線
 70
     0
 62
     7
  6
Continuous
370
    13
390
B43E
  0
LAYER
  5
4D9C
330
B455
100
AcDbSymbolTableRecord
100
AcDbLayerTableRecord
  2
A652_太実線
 70
     0
 62
     7
  6
Continuous
370
    30
390
B43E
  0
LAYER
  5
4D9D
330
B455
100
AcDbSymbolTableRecord
100
AcDbLayerTableRecord
  2
A660_細破線
 70
     0
 62
     7
  6
DGN Style 2
370
     9
390
B43E
  0
LAYER
  5
4D9E
330
B455
100
AcDbSymbolTableRecord
100
AcDbLayerTableRecord
  2
A662_太破線
 70
     0
 62
     7
  6
DGN Style 2
370
    30
390
B43E
  0
LAYER
  5
4D9F
330
B455
100
AcDbSymbolTableRecord
100
AcDbLayerTableRecord
  2
A671_中点線
 70
     0
 62
     7
  6
DGN Style 1
370
    13
390
B43E
  0
LAYER
  5
4DA0
330
B455
100
AcDbSymbolTableRecord
100
AcDbLayerTableRecord
  2
A672_太点線
 70
     0
 62
     7
  6
DGN Style 1
370
    30
390
B43E
  0
LAYER
  5
4DA1
330
B455
100
AcDbSymbolTableRecord
100
AcDbLayerTableRecord
  2
A680_細鎖線
 70
     0
 62
     7
  6
DGN Style 6
370
     9
390
B43E
  0
LAYER
  5
4DA2
330
B455
100
AcDbSymbolTableRecord
100
AcDbLayerTableRecord
  2
A681_中鎖線
 70
     0
 62
     7
  6
DGN Style 6
370
    13
390
B43E
  0
LAYER
  5
4DA3
330
B455
100
AcDbSymbolTableRecord
100
AcDbLayerTableRecord
  2
A682_太鎖線
 70
     0
 62
     7
  6
DGN Style 6
370
    30
390
B43E
  0
LAYER
  5
4DA4
330
B455
100
AcDbSymbolTableRecord
100
AcDbLayerTableRecord
  2
A244_記号中線
 70
     0
 62
     7
  6
Continuous
370
    13
390
B43E
  0
LAYER
  5
4DA5
330
B455
100
AcDbSymbolTableRecord
100
AcDbLayerTableRecord
  2
A245_記号太線
 70
     0
 62
     7
  6
Continuous
370
    30
390
B43E
  0
LAYER
  5
4DA6
330
B455
100
AcDbSymbolTableRecord
100
AcDbLayerTableRecord
  2
A246_記号点線
 70
     0
 62
     7
  6
DGN Style 1
370
     9
390
B43E
  0
LAYER
  5
4DA7
330
B455
100
AcDbSymbolTableRecord
100
AcDbLayerTableRecord
  2
A247_記号破線
 70
     0
 62
     7
  6
DGN Style 2
370
     9
390
B43E
  0
LAYER
  5
4DA8
330
B455
100
AcDbSymbolTableRecord
100
AcDbLayerTableRecord
  2
A323_ハッチング破線
 70
     0
 62
     7
  6
DGN Style 2
370
     9
390
B43E
  0
LAYER
  5
4DA9
330
B455
100
AcDbSymbolTableRecord
100
AcDbLayerTableRecord
  2
A714_各種制限線
 70
     0
 62
     7
  6
DGN Style 6
370
     9
390
B43E
  0
LAYER
  5
4DAA
330
B455
100
AcDbSymbolTableRecord
100
AcDbLayerTableRecord
  2
A565_目地点線
 70
     0
 62
     7
  6
DGN Style 1
370
     9
390
B43E
  0
LAYER
  5
4DAB
330
B455
100
AcDbSymbolTableRecord
100
AcDbLayerTableRecord
  2
A566_目地破線
 70
     0
 62
     7
  6
DGN Style 2
370
     9
390
B43E
  0
LAYER
  5
4DAC
330
B455
100
AcDbSymbolTableRecord
100
AcDbLayerTableRecord
  2
A347_防水
 70
     0
 62
     7
  6
DGN Style 6
370
    13
390
B43E
  0
LAYER
  5
4DAD
330
B455
100
AcDbSymbolTableRecord
100
AcDbLayerTableRecord
  2
A222_引出線
 70
     0
 62
     7
  6
Continuous
370
     9
390
B43E
  0
LAYER
  5
4DAE
330
B455
100
AcDbSymbolTableRecord
100
AcDbLayerTableRecord
  2
A712_他敷地境界線
 70
     0
 62
     7
  6
DGN Style 6
370
     9
390
B43E
  0
LAYER
  5
4DAF
330
B455
100
AcDbSymbolTableRecord
100
AcDbLayerTableRecord
  2
A614_カーテン実線
 70
     0
 62
     7
  6
Continuous
370
     9
390
B43E
  0
LAYER
  5
4DB0
330
B455
100
AcDbSymbolTableRecord
100
AcDbLayerTableRecord
  2
A842_搬送機破線
 70
     0
 62
     7
  6
DGN Style 2
370
     9
390
B43E
  0
LAYER
  5
4DB1
330
B455
100
AcDbSymbolTableRecord
100
AcDbLayerTableRecord
  2
C131_通芯
 70
     0
 62
     7
  6
DGN Style 4
370
     9
390
B43E
  0
LAYER
  5
4DB2
330
B455
100
AcDbSymbolTableRecord
100
AcDbLayerTableRecord
  2
C151_壁芯
 70
     0
 62
     7
  6
DGN Style 4
370
     9
390
B43E
  0
LAYER
  5
4DB3
330
B455
100
AcDbSymbolTableRecord
100
AcDbLayerTableRecord
  2
C135_捨芯
 70
     0
 62
     7
  6
DGN Style 4
290
     0
370
     9
390
B43E
  0
LAYER
  5
4999
330
B455
100
AcDbSymbolTableRecord
100
AcDbLayerTableRecord
  2
A221_記入文字
 70
     0
 62
     7
  6
Continuous
370
     9
390
B43E
  0
LAYER
  5
4C79
330
B455
100
AcDbSymbolTableRecord
100
AcDbLayerTableRecord
  2
A341_床ピット
 70
     0
 62
   201
  6
Continuous
370
    13
390
B43E
  0
LAYER
  5
4C7B
330
B455
100
AcDbSymbolTableRecord
100
AcDbLayerTableRecord
  2
C111_図枠
 70
     0
 62
     7
  6
Continuous
370
     9
390
B43E
  0
LAYER
  5
4C7D
330
B455
100
AcDbSymbolTableRecord
100
AcDbLayerTableRecord
  2
C121_図面名称
 70
     0
 62
     7
  6
Continuous
370
    53
390
B43E
  0
LAYER
  5
4C7F
330
B455
100
AcDbSymbolTableRecord
100
AcDbLayerTableRecord
  2
C115_OFF
 70
     0
 62
     7
  6
Continuous
290
     0
370
     9
390
B43E
  0
LAYER
  5
4C83
330
B455
100
AcDbSymbolTableRecord
100
AcDbLayerTableRecord
  2
C132_FL
 70
     0
 62
     7
  6
Continuous
370
    40
390
B43E
  0
LAYER
  5
4C87
330
B455
100
AcDbSymbolTableRecord
100
AcDbLayerTableRecord
  2
C133_雑芯
 70
     0
 62
     7
  6
DGN Style 4
370
     9
390
B43E
  0
LAYER
  5
4C89
330
B455
100
AcDbSymbolTableRecord
100
AcDbLayerTableRecord
  2
C134_雑芯２
 70
     0
 62
     7
  6
DGN Style 4
370
     9
390
B43E
  0
LAYER
  5
4C8D
330
B455
100
AcDbSymbolTableRecord
100
AcDbLayerTableRecord
  2
C136_雑芯３
 70
     0
 62
     7
  6
DGN Style 4
370
     9
390
B43E
  0
LAYER
  5
4C8F
330
B455
100
AcDbSymbolTableRecord
100
AcDbLayerTableRecord
  2
C137_雑芯４
 70
     0
 62
   254
  6
DGN Style 4
370
     9
390
B43E
  0
LAYER
  5
4C91
330
B455
100
AcDbSymbolTableRecord
100
AcDbLayerTableRecord
  2
C138_雑芯５
 70
     0
 62
    40
  6
DGN Style 4
370
     9
390
B43E
  0
LAYER
  5
4459
330
B455
100
AcDbSymbolTableRecord
100
AcDbLayerTableRecord
  2
C161_通心寸法
 70
     0
 62
     7
  6
Continuous
370
     9
390
B43E
  0
LAYER
  5
445D
330
B455
100
AcDbSymbolTableRecord
100
AcDbLayerTableRecord
  2
C162_その他寸法
 70
     0
 62
     7
  6
Continuous
370
     9
390
B43E
  0
LAYER
  5
4C95
330
B455
100
AcDbSymbolTableRecord
100
AcDbLayerTableRecord
  2
A211_室名
 70
     0
 62
     7
  6
Continuous
370
     9
390
B43E
  0
LAYER
  5
4C97
330
B455
100
AcDbSymbolTableRecord
100
AcDbLayerTableRecord
  2
A241_方位
 70
     0
 62
     7
  6
Continuous
370
     9
390
B43E
  0
LAYER
  5
4C99
330
B455
100
AcDbSymbolTableRecord
100
AcDbLayerTableRecord
  2
A242_記号
 70
     0
 62
     7
  6
Continuous
370
     9
390
B43E
  0
LAYER
  5
4C9B
330
B455
100
AcDbSymbolTableRecord
100
AcDbLayerTableRecord
  2
A243_建具記号
 70
     0
 62
     7
  6
Continuous
370
     9
390
B43E
  0
LAYER
  5
4C9D
330
B455
100
AcDbSymbolTableRecord
100
AcDbLayerTableRecord
  2
A245_雲マーク
 70
     0
 62
     7
  6
Continuous
370
    40
390
B43E
  0
LAYER
  5
4C9F
330
B455
100
AcDbSymbolTableRecord
100
AcDbLayerTableRecord
  2
A311_吹抜線
 70
     0
 62
     7
  6
DGN Style 4
370
     9
390
B43E
  0
LAYER
  5
4CA1
330
B455
100
AcDbSymbolTableRecord
100
AcDbLayerTableRecord
  2
A321_ハッチング
 70
     0
 62
     7
  6
Continuous
370
     9
390
B43E
  0
LAYER
  5
4CA3
330
B455
100
AcDbSymbolTableRecord
100
AcDbLayerTableRecord
  2
A342_屋根・庇
 70
     0
 62
     7
  6
Continuous
370
     9
390
B43E
  0
LAYER
  5
4CA5
330
B455
100
AcDbSymbolTableRecord
100
AcDbLayerTableRecord
  2
A343_機械基礎
 70
     0
 62
     7
  6
Continuous
370
     9
390
B43E
  0
LAYER
  5
4CA7
330
B455
100
AcDbSymbolTableRecord
100
AcDbLayerTableRecord
  2
A361_ＯＦＦ
 70
     0
 62
     7
  6
Continuous
370
     9
390
B43E
  0
LAYER
  5
4CA9
330
B455
100
AcDbSymbolTableRecord
100
AcDbLayerTableRecord
  2
A411_柱：ＲＣ
 70
     0
 62
     7
  6
DGN Style 2
370
     9
390
B43E
  0
LAYER
  5
4CAB
330
B455
100
AcDbSymbolTableRecord
100
AcDbLayerTableRecord
  2
A412_柱：Ｓ
 70
     0
 62
     7
  6
Continuous
370
    30
390
B43E
  0
LAYER
  5
4CAD
330
B455
100
AcDbSymbolTableRecord
100
AcDbLayerTableRecord
  2
A421_壁：ＲＣ
 70
     0
 62
     7
  6
Continuous
370
    30
390
B43E
  0
LAYER
  5
4CAF
330
B455
100
AcDbSymbolTableRecord
100
AcDbLayerTableRecord
  2
A422_壁：ＡＬＣ
 70
     0
 62
     7
  6
Continuous
370
    13
390
B43E
  0
LAYER
  5
4CB1
330
B455
100
AcDbSymbolTableRecord
100
AcDbLayerTableRecord
  2
A431_梁
 70
     0
 62
     7
  6
Continuous
370
     9
390
B43E
  0
LAYER
  5
4CB3
330
B455
100
AcDbSymbolTableRecord
100
AcDbLayerTableRecord
  2
A441_壁：ＬＧＳ
 70
     0
 62
     7
  6
Continuous
370
    13
390
B43E
  0
LAYER
  5
4CB5
330
B455
100
AcDbSymbolTableRecord
100
AcDbLayerTableRecord
  2
A442_壁：木軸
 70
     0
 62
     7
  6
Continuous
370
    13
390
B43E
  0
LAYER
  5
4CB7
330
B455
100
AcDbSymbolTableRecord
100
AcDbLayerTableRecord
  2
A444_壁：下地鉄骨、間柱
 70
     0
 62
     7
  6
Continuous
370
     9
390
B43E
  0
LAYER
  5
4CB9
330
B455
100
AcDbSymbolTableRecord
100
AcDbLayerTableRecord
  2
A521_壁：仕上
 70
     0
 62
     7
  6
Continuous
370
    30
390
B43E
  0
LAYER
  5
4CBB
330
B455
100
AcDbSymbolTableRecord
100
AcDbLayerTableRecord
  2
R003_防火区画
 70
     0
 62
     7
  6
Continuous
370
    70
390
B43E
  0
LAYER
  5
4CBD
330
B455
100
AcDbSymbolTableRecord
100
AcDbLayerTableRecord
  2
R004_防煙区画
 70
     0
 62
     7
  6
Continuous
370
    70
390
B43E
  0
LAYER
  5
4CBF
330
B455
100
AcDbSymbolTableRecord
100
AcDbLayerTableRecord
  2
A522_壁：仕上
 70
     0
 62
     7
  6
Continuous
370
    30
390
B43E
  0
LAYER
  5
4CC1
330
B455
100
AcDbSymbolTableRecord
100
AcDbLayerTableRecord
  2
A523_壁：仕上
 70
     0
 62
     7
  6
Continuous
370
    30
390
B43E
  0
LAYER
  5
4CC3
330
B455
100
AcDbSymbolTableRecord
100
AcDbLayerTableRecord
  2
A524_壁：仕上
 70
     0
 62
     7
  6
Continuous
370
    30
390
B43E
  0
LAYER
  5
4CC5
330
B455
100
AcDbSymbolTableRecord
100
AcDbLayerTableRecord
  2
A525_壁：仕上
 70
     0
 62
     7
  6
Continuous
370
    30
390
B43E
  0
LAYER
  5
4CC7
330
B455
100
AcDbSymbolTableRecord
100
AcDbLayerTableRecord
  2
A531_パーティション
 70
     0
 62
     7
  6
Continuous
370
    13
390
B43E
  0
LAYER
  5
4CC9
330
B455
100
AcDbSymbolTableRecord
100
AcDbLayerTableRecord
  2
A551_階段
 70
     0
 62
     7
  6
Continuous
370
     9
390
B43E
  0
LAYER
  5
4CCB
330
B455
100
AcDbSymbolTableRecord
100
AcDbLayerTableRecord
  2
A561_耐火被覆
 70
     0
 62
     7
  6
Continuous
370
     9
390
B43E
  0
LAYER
  5
4CCD
330
B455
100
AcDbSymbolTableRecord
100
AcDbLayerTableRecord
  2
A562_断熱材
 70
     0
 62
     7
  6
Continuous
370
     9
390
B43E
  0
LAYER
  5
4CCF
330
B455
100
AcDbSymbolTableRecord
100
AcDbLayerTableRecord
  2
A563_手摺
 70
     0
 62
     7
  6
Continuous
370
     9
390
B43E
  0
LAYER
  5
4CD1
330
B455
100
AcDbSymbolTableRecord
100
AcDbLayerTableRecord
  2
A564_目地
 70
     0
 62
     7
  6
Continuous
370
     9
390
B43E
  0
LAYER
  5
4CD3
330
B455
100
AcDbSymbolTableRecord
100
AcDbLayerTableRecord
  2
A565_側溝
 70
     0
 62
     7
  6
Continuous
370
     9
390
B43E
  0
LAYER
  5
4CD5
330
B455
100
AcDbSymbolTableRecord
100
AcDbLayerTableRecord
  2
A566_樋
 70
     0
 62
     7
  6
Continuous
370
     9
390
B43E
  0
LAYER
  5
4CD7
330
B455
100
AcDbSymbolTableRecord
100
AcDbLayerTableRecord
  2
A568_EXP．J
 70
     0
 62
     7
  6
Continuous
370
     9
390
B43E
  0
LAYER
  5
4CD9
330
B455
100
AcDbSymbolTableRecord
100
AcDbLayerTableRecord
  2
A569_雑金物
 70
     0
 62
     7
  6
Continuous
370
     9
390
B43E
  0
LAYER
  5
4CDB
330
B455
100
AcDbSymbolTableRecord
100
AcDbLayerTableRecord
  2
A611_窓
 70
     0
 62
     7
  6
Continuous
370
     9
390
B43E
  0
LAYER
  5
4CDD
330
B455
100
AcDbSymbolTableRecord
100
AcDbLayerTableRecord
  2
A621_扉枠
 70
     0
 62
     7
  6
Continuous
370
    30
390
B43E
  0
LAYER
  5
4CDF
330
B455
100
AcDbSymbolTableRecord
100
AcDbLayerTableRecord
  2
A624_沓摺
 70
     0
 62
     7
  6
Continuous
370
     9
390
B43E
  0
LAYER
  5
4CE1
330
B455
100
AcDbSymbolTableRecord
100
AcDbLayerTableRecord
  2
A622_扉
 70
     0
 62
     7
  6
Continuous
370
    13
390
B43E
  0
LAYER
  5
4CE3
330
B455
100
AcDbSymbolTableRecord
100
AcDbLayerTableRecord
  2
A725_等高線
 70
     0
 62
     7
  6
Continuous
370
     9
390
B43E
  0
LAYER
  5
4CE5
330
B455
100
AcDbSymbolTableRecord
100
AcDbLayerTableRecord
  2
A731_門･塀
 70
     0
 62
     7
  6
Continuous
370
     9
390
B43E
  0
LAYER
  5
4CE7
330
B455
100
AcDbSymbolTableRecord
100
AcDbLayerTableRecord
  2
A741_植栽
 70
     0
 62
     7
  6
Continuous
370
     9
390
B43E
  0
LAYER
  5
4CE9
330
B455
100
AcDbSymbolTableRecord
100
AcDbLayerTableRecord
  2
A811_造作家具
 70
     0
 62
     7
  6
Continuous
370
     9
390
B43E
  0
LAYER
  5
4CEB
330
B455
100
AcDbSymbolTableRecord
100
AcDbLayerTableRecord
  2
A822_別途：家具
 70
     0
 62
     7
  6
DGN Style 1
370
     9
390
B43E
  0
LAYER
  5
4CED
330
B455
100
AcDbSymbolTableRecord
100
AcDbLayerTableRecord
  2
A831_衛生機器
 70
     0
 62
     7
  6
Continuous
370
     9
390
B43E
  0
LAYER
  5
4CEF
330
B455
100
AcDbSymbolTableRecord
100
AcDbLayerTableRecord
  2
A841_ＥＬＶ・ＥＳＣ
 70
     0
 62
     7
  6
Continuous
370
     9
390
B43E
  0
LAYER
  5
4CF1
330
B455
100
AcDbSymbolTableRecord
100
AcDbLayerTableRecord
  2
A851_電気設備_実形
 70
     0
 62
     7
  6
Continuous
370
     9
390
B43E
  0
LAYER
  5
4CF3
330
B455
100
AcDbSymbolTableRecord
100
AcDbLayerTableRecord
  2
A855_空調設備_実形
 70
     0
 62
    67
  6
Continuous
370
     9
390
B43E
  0
LAYER
  5
4CF5
330
B455
100
AcDbSymbolTableRecord
100
AcDbLayerTableRecord
  2
R001_申請用文字
 70
     0
 62
     7
  6
Continuous
370
     9
390
B43E
  0
LAYER
  5
4CF7
330
B455
100
AcDbSymbolTableRecord
100
AcDbLayerTableRecord
  2
R002_1F延焼の恐れのある部分
 70
     0
 62
     7
  6
DGN Style 4
370
     9
390
B43E
  0
LAYER
  5
4CF9
330
B455
100
AcDbSymbolTableRecord
100
AcDbLayerTableRecord
  2
R012_2F延焼の恐れのある部分
 70
     0
 62
     7
  6
DGN Style 4
370
     9
390
B43E
  0
LAYER
  5
4CFB
330
B455
100
AcDbSymbolTableRecord
100
AcDbLayerTableRecord
  2
A362_ON
 70
     0
 62
     7
  6
Continuous
370
     9
390
B43E
  0
LAYER
  5
4CFD
330
B455
100
AcDbSymbolTableRecord
100
AcDbLayerTableRecord
  2
A425_石・タイル
 70
     0
 62
     7
  6
Continuous
370
    13
390
B43E
  0
LAYER
  5
4CFF
330
B455
100
AcDbSymbolTableRecord
100
AcDbLayerTableRecord
  2
A570_樹脂類
 70
     0
 62
     7
  6
Continuous
370
     9
390
B43E
  0
LAYER
  5
4D01
330
B455
100
AcDbSymbolTableRecord
100
AcDbLayerTableRecord
  2
A571_シーリング
 70
     0
 62
     7
  6
Continuous
370
     9
390
B43E
  0
LAYER
  5
4D03
330
B455
100
AcDbSymbolTableRecord
100
AcDbLayerTableRecord
  2
A860_車両
 70
     0
 62
     7
  6
DGN Style 2
370
     9
390
B43E
  0
LAYER
  5
4D05
330
B455
100
AcDbSymbolTableRecord
100
AcDbLayerTableRecord
  2
A331_見上げ線
 70
     0
 62
     7
  6
DGN Style 2
370
     9
390
B43E
  0
LAYER
  5
4D07
330
B455
100
AcDbSymbolTableRecord
100
AcDbLayerTableRecord
  2
A613_カーテンボックス
 70
     0
 62
     7
  6
Continuous
370
     9
390
B43E
  0
LAYER
  5
4D09
330
B455
100
AcDbSymbolTableRecord
100
AcDbLayerTableRecord
  2
A346_見え掛り線
 70
     0
 62
     7
  6
Continuous
370
     9
390
B43E
  0
LAYER
  5
4D0B
330
B455
100
AcDbSymbolTableRecord
100
AcDbLayerTableRecord
  2
A430_地業
 70
     0
 62
    35
  6
Continuous
370
     9
390
B43E
  0
LAYER
  5
4D0D
330
B455
100
AcDbSymbolTableRecord
100
AcDbLayerTableRecord
  2
A711_境界線
 70
     0
 62
     7
  6
Continuous
370
     9
390
B43E
  0
LAYER
  5
4D0F
330
B455
100
AcDbSymbolTableRecord
100
AcDbLayerTableRecord
  2
A735_建物の外周線
 70
     0
 62
     7
  6
Continuous
370
    30
390
B43E
  0
LAYER
  5
4D11
330
B455
100
AcDbSymbolTableRecord
100
AcDbLayerTableRecord
  2
A736_既存建物
 70
     0
 62
     4
  6
DGN Style 3
370
     9
390
B43E
  0
LAYER
  5
4D13
330
B455
100
AcDbSymbolTableRecord
100
AcDbLayerTableRecord
  2
A722_周辺道路
 70
     0
 62
     8
  6
Continuous
370
     9
390
B43E
  0
LAYER
  5
4D15
330
B455
100
AcDbSymbolTableRecord
100
AcDbLayerTableRecord
  2
A723_周辺建物
 70
     0
 62
   201
  6
Continuous
370
     9
390
B43E
  0
LAYER
  5
4D17
330
B455
100
AcDbSymbolTableRecord
100
AcDbLayerTableRecord
  2
A345_既存部分
 70
     0
 62
     8
  6
DGN Style 2
370
     9
390
B43E
  0
LAYER
  5
4D19
330
B455
100
AcDbSymbolTableRecord
100
AcDbLayerTableRecord
  2
A312_面積算定線
 70
     0
 62
     7
  6
Continuous
370
    40
390
B43E
  0
LAYER
  5
4D1B
330
B455
100
AcDbSymbolTableRecord
100
AcDbLayerTableRecord
  2
A853_衛生設備_実形
 70
     0
 62
     7
  6
Continuous
370
     9
390
B43E
  0
LAYER
  5
4D1E
330
B455
100
AcDbSymbolTableRecord
100
AcDbLayerTableRecord
  2
A721_道路中心線
 70
     0
 62
     7
  6
Continuous
370
     9
390
B43E
  0
LAYER
  5
4D20
330
B455
100
AcDbSymbolTableRecord
100
AcDbLayerTableRecord
  2
A713_斜線制限
 70
     0
 62
     7
  6
Continuous
370
     9
390
B43E
  0
LAYER
  5
4D22
330
B455
100
AcDbSymbolTableRecord
100
AcDbLayerTableRecord
  2
A733_ストリートファニチャ
 70
     0
 62
     7
  6
Continuous
370
     9
390
B43E
  0
LAYER
  5
4D24
330
B455
100
AcDbSymbolTableRecord
100
AcDbLayerTableRecord
  2
A732_ペイブメント
 70
     0
 62
     7
  6
Continuous
370
     9
390
B43E
  0
ENDTAB
  0
TABLE
  2
STYLE
  5
B458
330
0
100
AcDbSymbolTable
 70
     3
  0
STYLE
  5
B459
330
B458
100
AcDbSymbolTableRecord
100
AcDbTextStyleTableRecord
  2
Standard
 70
     0
 40
0.0
 41
1.0
 50
0.0
 71
     0
 42
225.0
  3
txt
  4

  0
STYLE
  5
B49D
330
B458
100
AcDbSymbolTableRecord
100
AcDbTextStyleTableRecord
  2
Style-HGSｺﾞｼｯｸM
 70
     0
 40
0.0
 41
1.0
 50
0.0
 71
     0
 42
225.0
  3

  4

1001
ACAD
1000
HGSGothicM
1071
    32823
  0
STYLE
  5
B49F
330
B458
100
AcDbSymbolTableRecord
100
AcDbTextStyleTableRecord
  2
Style-HG明朝B
 70
     0
 40
0.0
 41
1.0
 50
0.0
 71
     0
 42
225.0
  3

  4

1001
ACAD
1000
HGMinchoB
1071
    32790
  0
ENDTAB
  0
TABLE
  2
VIEW
  5
B45E
330
0
100
AcDbSymbolTable
 70
     0
  0
ENDTAB
  0
TABLE
  2
UCS
  5
B45F
330
0
100
AcDbSymbolTable
 70
     0
  0
ENDTAB
  0
TABLE
  2
APPID
  5
B464
330
0
100
AcDbSymbolTable
 70
     2
  0
APPID
  5
B465
330
B464
100
AcDbSymbolTableRecord
100
AcDbRegAppTableRecord
  2
ACAD
 70
     0
  0
APPID
  5
B44E
330
B464
100
AcDbSymbolTableRecord
100
AcDbRegAppTableRecord
  2
ACAD_PSEXT
 70
     0
  0
ENDTAB
  0
TABLE
  2
DIMSTYLE
  5
B466
330
0
100
AcDbSymbolTable
 70
     1
100
AcDbDimStyleTable
 71
     1
340
B467
  0
DIMSTYLE
105
B467
330
B466
100
AcDbSymbolTableRecord
100
AcDbDimStyleTableRecord
  2
ISO-25
 70
     0
 41
2.5
 42
0.625
 43
3.75
 44
1.25
 73
     0
 74
     0
 77
     1
 78
     8
140
2.5
141
2.5
143
0.03937
147
0.625
171
     3
172
     1
271
     2
272
     2
274
     3
278
    44
283
     0
284
     8
340
B459
  0
ENDTAB
  0
TABLE
  2
BLOCK_RECORD
  5
B43A
330
0
100
AcDbSymbolTable
 70
     0
  0
BLOCK_RECORD
  5
B43B
330
B43A
100
AcDbSymbolTableRecord
100
AcDbBlockTableRecord
  2
*Model_Space
340
B44C
  0
BLOCK_RECORD
  5
B44F
330
B43A
100
AcDbSymbolTableRecord
100
AcDbBlockTableRecord
  2
*Paper_Space
340
B452
  0
ENDTAB
  0
ENDSEC
  0
SECTION
  2
BLOCKS
  0
BLOCK
  5
B43C
330
B43B
100
AcDbEntity
  8
0
100
AcDbBlockBegin
  2
*Model_Space
 70
     0
 10
0.0
 20
0.0
 30
0.0
  3
*Model_Space
  1

  0
ENDBLK
  5
B44B
330
B43B
100
AcDbEntity
  8
0
100
AcDbBlockEnd
  0
BLOCK
  5
B450
330
B44F
100
AcDbEntity
 67
     1
  8
0
100
AcDbBlockBegin
  2
*Paper_Space
 70
     0
 10
0.0
 20
0.0
 30
0.0
  3
*Paper_Space
  1

  0
ENDBLK
  5
B451
330
B44F
100
AcDbEntity
 67
     1
  8
0
100
AcDbBlockEnd
  0
ENDSEC
  0
SECTION
  2
ENTITIES
  0
LINE
  5
AF4F
330
B43B
100
AcDbEntity
  8
3-0通芯
  6
Continuous
 62
     7
370
    13
100
AcDbLine
 10
177626.357394
 20
148964.66246
 30
0.0
 11
177626.357394
 21
146650.16246
 31
0.0
  0
LINE
  5
AF50
330
B43B
100
AcDbEntity
  8
3-0通芯
  6
Continuous
 62
     7
370
    13
100
AcDbLine
 10
190757.49968
 20
151147.965066
 30
0.0
 11
186223.99968
 21
151147.965066
 31
0.0
  0
TEXT
  5
AF53
330
B43B
100
AcDbEntity
  8
1階座席
  6
Continuous
 62
     7
370
    13
100
AcDbText
 10
185565.867003
 20
151027.368084
 30
0.0
 40
225.0
  1
10
  7
Style-HGSｺﾞｼｯｸM
 11
185565.867003
 21
151252.368084
 31
0.0
100
AcDbText
 73
     3
  0
TEXT
  5
AF54
330
B43B
100
AcDbEntity
  8
1階座席
  6
Continuous
 62
     7
370
    13
100
AcDbText
 10
177407.27744
 20
146037.368192
 30
0.0
 40
225.0
  1
5.6
  7
Style-HGSｺﾞｼｯｸM
 11
177407.27744
 21
146262.368192
 31
0.0
100
AcDbText
 73
     3
  0
LWPOLYLINE
  5
AF55
330
B43B
100
AcDbEntity
  8
3-0通芯
  6
Continuous
 62
     7
370
    13
100
AcDbPolyline
 90
        3
 70
   128
 43
0.0
 10
177826.357394
 20
148664.66246
 10
177626.357394
 20
148964.66246
 10
177426.357394
 20
148664.66246
  0
LWPOLYLINE
  5
AF56
330
B43B
100
AcDbEntity
  8
3-0通芯
  6
Continuous
 62
     7
370
    13
100
AcDbPolyline
 90
        3
 70
   128
 43
0.0
 10
177826.357394
 20
143635.66246
 10
177626.357394
 20
143335.66246
 10
177426.357394
 20
143635.66246
  0
LWPOLYLINE
  5
AF57
330
B43B
100
AcDbEntity
  8
3-0通芯
  6
Continuous
 62
     7
370
    13
100
AcDbPolyline
 90
        3
 70
   128
 43
0.0
 10
190457.49968
 20
151347.965066
 10
190757.49968
 20
151147.965066
 10
190457.49968
 20
150947.965066
  0
LWPOLYLINE
  5
AF58
330
B43B
100
AcDbEntity
  8
3-0通芯
  6
Continuous
 62
     7
370
    13
100
AcDbPolyline
 90
        3
 70
   128
 43
0.0
 10
180990.49968
 20
151347.965066
 10
180690.49968
 20
151147.965066
 10
180990.49968
 20
150947.965066
  0
LINE
  5
AF59
330
B43B
100
AcDbEntity
  8
3-0通芯
  6
Continuous
 62
     7
370
    13
100
AcDbLine
 10
177626.357394
 20
145650.16246
 30
0.0
 11
177626.357394
 21
143335.66246
 31
0.0
  0
LINE
  5
AF5A
330
B43B
100
AcDbEntity
  8
3-0通芯
  6
Continuous
 62
     7
370
    13
100
AcDbLine
 10
185223.99968
 20
151147.965066
 30
0.0
 11
180690.49968
 21
151147.965066
 31
0.0
  0
TEXT
  5
AF5B
330
B43B
100
AcDbEntity
  8
1階座席
  6
Continuous
 62
     7
370
     9
100
AcDbText
 10
183607.619459
 20
141910.265516
 30
0.0
 40
225.0
  1
舞台下手
  7
Style-HGSｺﾞｼｯｸM
 11
183607.619459
 21
142135.265516
 31
0.0
100
AcDbText
 73
     3
  0
TEXT
  5
AF5C
330
B43B
100
AcDbEntity
  8
1階座席
  6
Continuous
 62
     7
370
     9
100
AcDbText
 10
187708.646879
 20
147921.436911
 30
0.0
 40
225.0
  1
鏡
  7
Style-HGSｺﾞｼｯｸM
 11
187708.646879
 21
148146.436911
 31
0.0
100
AcDbText
 73
     3
  0
TEXT
  5
AF5D
330
B43B
100
AcDbEntity
  8
1階座席
  6
Continuous
 62
     7
370
     9
100
AcDbText
 10
188541.614662
 20
147921.436911
 30
0.0
 40
225.0
  1
鏡
  7
Style-HGSｺﾞｼｯｸM
 11
188541.614662
 21
148146.436911
 31
0.0
100
AcDbText
 73
     3
  0
TEXT
  5
AF5E
330
B43B
100
AcDbEntity
  8
1階座席
  6
Continuous
 62
     7
370
     9
100
AcDbText
 10
189374.582444
 20
147921.436911
 30
0.0
 40
225.0
  1
鏡
  7
Style-HGSｺﾞｼｯｸM
 11
189374.582444
 21
148146.436911
 31
0.0
100
AcDbText
 73
     3
  0
TEXT
  5
AF5F
330
B43B
100
AcDbEntity
  8
1階座席
  6
Continuous
 62
     7
370
     9
100
AcDbText
 10
190207.550227
 20
147921.436911
 30
0.0
 40
225.0
  1
鏡
  7
Style-HGSｺﾞｼｯｸM
 11
190207.550227
 21
148146.436911
 31
0.0
100
AcDbText
 73
     3
  0
TEXT
  5
AF60
330
B43B
100
AcDbEntity
  8
1階座席
  6
Continuous
 62
     7
370
     9
100
AcDbText
 10
187946.479675
 20
147347.779457
 30
0.0
 40
225.0
  1
化粧台カウンター
  7
Style-HGSｺﾞｼｯｸM
 11
187946.479675
 21
147572.779457
 31
0.0
100
AcDbText
 73
     3
  0
TEXT
  5
AF61
330
B43B
100
AcDbEntity
  8
1階座席
  6
Continuous
 62
     7
370
     9
100
AcDbText
 10
189528.000439
 20
142754.007603
 30
0.0
 40
225.0
  1
舞台裏通路
  7
Style-HGSｺﾞｼｯｸM
 11
189528.000439
 21
142979.007603
 31
0.0
100
AcDbText
 73
     3
  0
LINE
  5
AF62
330
B43B
100
AcDbEntity
  8
2階座席
  6
DGN Style 2
 62
     7
370
     9
100
AcDbLine
 10
192023.137725
 20
136007.721385
 30
0.0
 11
191023.137725
 21
136007.721385
 31
0.0
  0
TEXT
  5
AF63
330
B43B
100
AcDbEntity
  8
1階座席
  6
Continuous
 62
     7
370
     9
100
AcDbText
 10
191289.541313
 20
135535.093994
 30
0.0
 40
325.0
  1
1
  7
Style-HGSｺﾞｼｯｸM
 11
191289.541313
 21
135860.093994
 31
0.0
100
AcDbText
 73
     3
  0
TEXT
  5
AF64
330
B43B
100
AcDbEntity
  8
1階座席
  6
Continuous
 62
     7
370
     9
100
AcDbText
 10
192245.088625
 20
136076.240977
 30
0.0
 40
275.0
  1
SC=1/100(A4)
 41
1.090909
  7
Style-HGSｺﾞｼｯｸM
 11
192245.088625
 21
136351.240977
 31
0.0
100
AcDbText
 73
     3
  0
TEXT
  5
AF65
330
B43B
100
AcDbEntity
  8
1階座席
  6
Continuous
 62
     7
370
     9
100
AcDbText
 10
183305.870717
 20
135721.154096
 30
0.0
 40
375.0
  1
大ホール控室（西控室）
 41
0.8
  7
Style-HGSｺﾞｼｯｸM
 11
183305.870717
 21
136096.154096
 31
0.0
100
AcDbText
 73
     3
  0
TEXT
  5
AF66
330
B43B
100
AcDbEntity
  8
1階座席
  6
Continuous
 62
     7
370
     9
100
AcDbText
 10
192396.241395
 20
135425.98923
 30
0.0
 40
325.0
  1
56
  7
Style-HGSｺﾞｼｯｸM
 11
192396.241395
 21
135750.98923
 31
0.0
100
AcDbText
 73
     3
  0
ARC
  5
AF67
330
B43B
100
AcDbEntity
  8
A733_ストリートファニチャ
 62
     7
370
     9
100
AcDbCircle
 10
192596.058709
 20
137869.66246
 30
0.0
 40
4023.588897000001
100
AcDbArc
 50
103.949676
 51
113.736701
  0
ARC
  5
AF68
330
B43B
100
AcDbEntity
  8
A733_ストリートファニチャ
 62
     7
370
     9
100
AcDbCircle
 10
197968.048878
 20
115625.66246
 30
0.0
 40
26907.0
100
AcDbArc
 50
102.849085
 51
103.632834
  0
ARC
  5
AF69
330
B43B
100
AcDbEntity
  8
A733_ストリートファニチャ
 62
     7
370
     9
100
AcDbCircle
 10
192596.058709
 20
137869.66246
 30
0.0
 40
4023.588897000001
100
AcDbArc
 50
103.949676
 51
113.736701
  0
LINE
  5
AF6A
330
B43B
100
AcDbEntity
  8
A733_ストリートファニチャ
 62
     7
370
     9
100
AcDbLine
 10
184161.99968
 20
148999.66246
 30
0.0
 11
184606.99968
 21
148999.66246
 31
0.0
  0
LINE
  5
AF6B
330
B43B
100
AcDbEntity
  8
A733_ストリートファニチャ
 62
     7
370
     9
100
AcDbLine
 10
180590.49968
 20
143208.66246
 30
0.0
 11
180520.49968
 21
143208.66246
 31
0.0
  0
LINE
  5
AF6C
330
B43B
100
AcDbEntity
  8
A733_ストリートファニチャ
 62
     7
370
     9
100
AcDbLine
 10
180590.49968
 20
142008.66246
 30
0.0
 11
180520.49968
 21
142008.66246
 31
0.0
  0
LINE
  5
AF6D
330
B43B
100
AcDbEntity
  8
A733_ストリートファニチャ
 62
     7
370
     9
100
AcDbLine
 10
180590.49968
 20
145073.66246
 30
0.0
 11
180520.49968
 21
145073.66246
 31
0.0
  0
LINE
  5
AF6E
330
B43B
100
AcDbEntity
  8
A733_ストリートファニチャ
 62
     7
370
     9
100
AcDbLine
 10
180590.49968
 20
143873.66246
 30
0.0
 11
180520.49968
 21
143873.66246
 31
0.0
  0
LINE
  5
AF6F
330
B43B
100
AcDbEntity
  8
A733_ストリートファニチャ
 62
     7
370
     9
100
AcDbLine
 10
180590.49968
 20
145773.66246
 30
0.0
 11
180590.49968
 21
146903.66246
 31
0.0
  0
LINE
  5
AF70
330
B43B
100
AcDbEntity
  8
A733_ストリートファニチャ
 62
     7
370
     9
100
AcDbLine
 10
180590.49968
 20
146938.66246
 30
0.0
 11
180520.49968
 21
146938.66246
 31
0.0
  0
LINE
  5
AF71
330
B43B
100
AcDbEntity
  8
A733_ストリートファニチャ
 62
     7
370
     9
100
AcDbLine
 10
180590.49968
 20
145738.66246
 30
0.0
 11
180520.49968
 21
145738.66246
 31
0.0
  0
LINE
  5
AF72
330
B43B
100
AcDbEntity
  8
A733_ストリートファニチャ
 62
     7
370
     9
100
AcDbLine
 10
182886.99968
 20
149064.66246
 30
0.0
 11
184016.99968
 21
149064.66246
 31
0.0
  0
LINE
  5
AF73
330
B43B
100
AcDbEntity
  8
A733_ストリートファニチャ
 62
     7
370
     9
100
AcDbLine
 10
182886.99968
 20
149134.66246
 30
0.0
 11
184016.99968
 21
149134.66246
 31
0.0
  0
LINE
  5
AF74
330
B43B
100
AcDbEntity
  8
A733_ストリートファニチャ
 62
     7
370
     9
100
AcDbLine
 10
184051.99968
 20
149064.66246
 30
0.0
 11
184051.99968
 21
149134.66246
 31
0.0
  0
LINE
  5
AF75
330
B43B
100
AcDbEntity
  8
A733_ストリートファニチャ
 62
     7
370
     9
100
AcDbLine
 10
182851.99968
 20
149064.66246
 30
0.0
 11
182851.99968
 21
149134.66246
 31
0.0
  0
LINE
  5
AF76
330
B43B
100
AcDbEntity
  8
A733_ストリートファニチャ
 62
     7
370
     9
100
AcDbLine
 10
184751.99968
 20
149064.66246
 30
0.0
 11
185881.99968
 21
149064.66246
 31
0.0
  0
LINE
  5
AF77
330
B43B
100
AcDbEntity
  8
A733_ストリートファニチャ
 62
     7
370
     9
100
AcDbLine
 10
184751.99968
 20
149134.66246
 30
0.0
 11
185881.99968
 21
149134.66246
 31
0.0
  0
LINE
  5
AF78
330
B43B
100
AcDbEntity
  8
A733_ストリートファニチャ
 62
     7
370
     9
100
AcDbLine
 10
185916.99968
 20
149064.66246
 30
0.0
 11
185916.99968
 21
149134.66246
 31
0.0
  0
LINE
  5
AF79
330
B43B
100
AcDbEntity
  8
A733_ストリートファニチャ
 62
     7
370
     9
100
AcDbLine
 10
184716.99968
 20
149064.66246
 30
0.0
 11
184716.99968
 21
149134.66246
 31
0.0
  0
LINE
  5
AF7A
330
B43B
100
AcDbEntity
  8
A733_ストリートファニチャ
 62
     7
370
     9
100
AcDbLine
 10
180590.49968
 20
143173.66246
 30
0.0
 11
180590.49968
 21
142043.66246
 31
0.0
  0
LINE
  5
AF7B
330
B43B
100
AcDbEntity
  8
A733_ストリートファニチャ
 62
     7
370
     9
100
AcDbLine
 10
180520.49968
 20
143173.66246
 30
0.0
 11
180520.49968
 21
142043.66246
 31
0.0
  0
LINE
  5
AF7C
330
B43B
100
AcDbEntity
  8
A733_ストリートファニチャ
 62
     7
370
     9
100
AcDbLine
 10
180565.49968
 20
143171.16246
 30
0.0
 11
180565.49968
 21
143204.66246
 31
0.0
  0
LINE
  5
AF7D
330
B43B
100
AcDbEntity
  8
A733_ストリートファニチャ
 62
     7
370
     9
100
AcDbLine
 10
180583.49968
 20
143171.16246
 30
0.0
 11
180583.49968
 21
143204.66246
 31
0.0
  0
LINE
  5
AF7E
330
B43B
100
AcDbEntity
  8
A733_ストリートファニチャ
 62
     7
370
     9
100
AcDbLine
 10
180583.49968
 20
143183.16246
 30
0.0
 11
180565.49968
 21
143183.16246
 31
0.0
  0
LINE
  5
AF7F
330
B43B
100
AcDbEntity
  8
A733_ストリートファニチャ
 62
     7
370
     9
100
AcDbLine
 10
180583.49968
 20
143194.66246
 30
0.0
 11
180565.49968
 21
143194.66246
 31
0.0
  0
LINE
  5
AF80
330
B43B
100
AcDbEntity
  8
A733_ストリートファニチャ
 62
     7
370
     9
100
AcDbLine
 10
180574.49968
 20
142617.66246
 30
0.0
 11
180574.49968
 21
143177.16246
 31
0.0
  0
LINE
  5
AF81
330
B43B
100
AcDbEntity
  8
A733_ストリートファニチャ
 62
     7
370
     9
100
AcDbLine
 10
180537.49968
 20
142040.16246
 30
0.0
 11
180537.49968
 21
142599.66246
 31
0.0
  0
LINE
  5
AF82
330
B43B
100
AcDbEntity
  8
A733_ストリートファニチャ
 62
     7
370
     9
100
AcDbLine
 10
180546.49968
 20
142034.16246
 30
0.0
 11
180528.49968
 21
142034.16246
 31
0.0
  0
LINE
  5
AF83
330
B43B
100
AcDbEntity
  8
A733_ストリートファニチャ
 62
     7
370
     9
100
AcDbLine
 10
180546.49968
 20
142022.66246
 30
0.0
 11
180528.49968
 21
142022.66246
 31
0.0
  0
LINE
  5
AF84
330
B43B
100
AcDbEntity
  8
A733_ストリートファニチャ
 62
     7
370
     9
100
AcDbLine
 10
180546.49968
 20
142046.16246
 30
0.0
 11
180546.49968
 21
142012.66246
 31
0.0
  0
LINE
  5
AF85
330
B43B
100
AcDbEntity
  8
A733_ストリートファニチャ
 62
     7
370
     9
100
AcDbLine
 10
180528.49968
 20
142046.16246
 30
0.0
 11
180528.49968
 21
142012.66246
 31
0.0
  0
LINE
  5
AF86
330
B43B
100
AcDbEntity
  8
A733_ストリートファニチャ
 62
     7
370
     9
100
AcDbLine
 10
180528.49968
 20
142623.66246
 30
0.0
 11
180555.99968
 21
142623.66246
 31
0.0
  0
LINE
  5
AF87
330
B43B
100
AcDbEntity
  8
A733_ストリートファニチャ
 62
     7
370
     9
100
AcDbLine
 10
180565.49968
 20
142611.66246
 30
0.0
 11
180583.49968
 21
142611.66246
 31
0.0
  0
LINE
  5
AF88
330
B43B
100
AcDbEntity
  8
A733_ストリートファニチャ
 62
     7
370
     9
100
AcDbLine
 10
180528.49968
 20
142593.66246
 30
0.0
 11
180528.49968
 21
142623.66246
 31
0.0
  0
LINE
  5
AF89
330
B43B
100
AcDbEntity
  8
A733_ストリートファニチャ
 62
     7
370
     9
100
AcDbLine
 10
180546.49968
 20
142605.66246
 30
0.0
 11
180528.49968
 21
142605.66246
 31
0.0
  0
LINE
  5
AF8A
330
B43B
100
AcDbEntity
  8
A733_ストリートファニチャ
 62
     7
370
     9
100
AcDbLine
 10
180583.49968
 20
142593.66246
 30
0.0
 11
180565.49968
 21
142593.66246
 31
0.0
  0
LINE
  5
AF8B
330
B43B
100
AcDbEntity
  8
A733_ストリートファニチャ
 62
     7
370
     9
100
AcDbLine
 10
180546.49968
 20
142593.66246
 30
0.0
 11
180546.49968
 21
142623.66246
 31
0.0
  0
LINE
  5
AF8C
330
B43B
100
AcDbEntity
  8
A733_ストリートファニチャ
 62
     7
370
     9
100
AcDbLine
 10
180555.99968
 20
142623.66246
 30
0.0
 11
180555.99968
 21
142608.66246
 31
0.0
  0
LINE
  5
AF8D
330
B43B
100
AcDbEntity
  8
A733_ストリートファニチャ
 62
     7
370
     9
100
AcDbLine
 10
180565.49968
 20
142623.66246
 30
0.0
 11
180565.49968
 21
142593.66246
 31
0.0
  0
LINE
  5
AF8E
330
B43B
100
AcDbEntity
  8
A733_ストリートファニチャ
 62
     7
370
     9
100
AcDbLine
 10
180583.49968
 20
142623.66246
 30
0.0
 11
180583.49968
 21
142593.66246
 31
0.0
  0
LINE
  5
AF8F
330
B43B
100
AcDbEntity
  8
A733_ストリートファニチャ
 62
     7
370
     9
100
AcDbLine
 10
180590.49968
 20
145038.66246
 30
0.0
 11
180590.49968
 21
143908.66246
 31
0.0
  0
LINE
  5
AF90
330
B43B
100
AcDbEntity
  8
A733_ストリートファニチャ
 62
     7
370
     9
100
AcDbLine
 10
180520.49968
 20
145038.66246
 30
0.0
 11
180520.49968
 21
143908.66246
 31
0.0
  0
LINE
  5
AF91
330
B43B
100
AcDbEntity
  8
A733_ストリートファニチャ
 62
     7
370
     9
100
AcDbLine
 10
180565.49968
 20
145036.16246
 30
0.0
 11
180565.49968
 21
145069.66246
 31
0.0
  0
LINE
  5
AF92
330
B43B
100
AcDbEntity
  8
A733_ストリートファニチャ
 62
     7
370
     9
100
AcDbLine
 10
180583.49968
 20
145036.16246
 30
0.0
 11
180583.49968
 21
145069.66246
 31
0.0
  0
LINE
  5
AF93
330
B43B
100
AcDbEntity
  8
A733_ストリートファニチャ
 62
     7
370
     9
100
AcDbLine
 10
180583.49968
 20
145048.16246
 30
0.0
 11
180565.49968
 21
145048.16246
 31
0.0
  0
LINE
  5
AF94
330
B43B
100
AcDbEntity
  8
A733_ストリートファニチャ
 62
     7
370
     9
100
AcDbLine
 10
180583.49968
 20
145059.66246
 30
0.0
 11
180565.49968
 21
145059.66246
 31
0.0
  0
LINE
  5
AF95
330
B43B
100
AcDbEntity
  8
A733_ストリートファニチャ
 62
     7
370
     9
100
AcDbLine
 10
180574.49968
 20
144482.66246
 30
0.0
 11
180574.49968
 21
145042.16246
 31
0.0
  0
LINE
  5
AF96
330
B43B
100
AcDbEntity
  8
A733_ストリートファニチャ
 62
     7
370
     9
100
AcDbLine
 10
180537.49968
 20
143905.16246
 30
0.0
 11
180537.49968
 21
144464.66246
 31
0.0
  0
LINE
  5
AF97
330
B43B
100
AcDbEntity
  8
A733_ストリートファニチャ
 62
     7
370
     9
100
AcDbLine
 10
180546.49968
 20
143899.16246
 30
0.0
 11
180528.49968
 21
143899.16246
 31
0.0
  0
LINE
  5
AF98
330
B43B
100
AcDbEntity
  8
A733_ストリートファニチャ
 62
     7
370
     9
100
AcDbLine
 10
180546.49968
 20
143887.66246
 30
0.0
 11
180528.49968
 21
143887.66246
 31
0.0
  0
LINE
  5
AF99
330
B43B
100
AcDbEntity
  8
A733_ストリートファニチャ
 62
     7
370
     9
100
AcDbLine
 10
180546.49968
 20
143911.16246
 30
0.0
 11
180546.49968
 21
143877.66246
 31
0.0
  0
LINE
  5
AF9A
330
B43B
100
AcDbEntity
  8
A733_ストリートファニチャ
 62
     7
370
     9
100
AcDbLine
 10
180528.49968
 20
143911.16246
 30
0.0
 11
180528.49968
 21
143877.66246
 31
0.0
  0
LINE
  5
AF9B
330
B43B
100
AcDbEntity
  8
A733_ストリートファニチャ
 62
     7
370
     9
100
AcDbLine
 10
180528.49968
 20
144488.66246
 30
0.0
 11
180555.99968
 21
144488.66246
 31
0.0
  0
LINE
  5
AF9C
330
B43B
100
AcDbEntity
  8
A733_ストリートファニチャ
 62
     7
370
     9
100
AcDbLine
 10
180565.49968
 20
144476.66246
 30
0.0
 11
180583.49968
 21
144476.66246
 31
0.0
  0
LINE
  5
AF9D
330
B43B
100
AcDbEntity
  8
A733_ストリートファニチャ
 62
     7
370
     9
100
AcDbLine
 10
180528.49968
 20
144458.66246
 30
0.0
 11
180528.49968
 21
144488.66246
 31
0.0
  0
LINE
  5
AF9E
330
B43B
100
AcDbEntity
  8
A733_ストリートファニチャ
 62
     7
370
     9
100
AcDbLine
 10
180546.49968
 20
144470.66246
 30
0.0
 11
180528.49968
 21
144470.66246
 31
0.0
  0
LINE
  5
AF9F
330
B43B
100
AcDbEntity
  8
A733_ストリートファニチャ
 62
     7
370
     9
100
AcDbLine
 10
180583.49968
 20
144458.66246
 30
0.0
 11
180565.49968
 21
144458.66246
 31
0.0
  0
LINE
  5
AFA0
330
B43B
100
AcDbEntity
  8
A733_ストリートファニチャ
 62
     7
370
     9
100
AcDbLine
 10
180546.49968
 20
144458.66246
 30
0.0
 11
180546.49968
 21
144488.66246
 31
0.0
  0
LINE
  5
AFA1
330
B43B
100
AcDbEntity
  8
A733_ストリートファニチャ
 62
     7
370
     9
100
AcDbLine
 10
180555.99968
 20
144488.66246
 30
0.0
 11
180555.99968
 21
144473.66246
 31
0.0
  0
LINE
  5
AFA2
330
B43B
100
AcDbEntity
  8
A733_ストリートファニチャ
 62
     7
370
     9
100
AcDbLine
 10
180565.49968
 20
144488.66246
 30
0.0
 11
180565.49968
 21
144458.66246
 31
0.0
  0
LINE
  5
AFA3
330
B43B
100
AcDbEntity
  8
A733_ストリートファニチャ
 62
     7
370
     9
100
AcDbLine
 10
180583.49968
 20
144488.66246
 30
0.0
 11
180583.49968
 21
144458.66246
 31
0.0
  0
LINE
  5
AFA4
330
B43B
100
AcDbEntity
  8
A733_ストリートファニチャ
 62
     7
370
     9
100
AcDbLine
 10
180565.49968
 20
146901.16246
 30
0.0
 11
180565.49968
 21
146934.66246
 31
0.0
  0
LINE
  5
AFA5
330
B43B
100
AcDbEntity
  8
A733_ストリートファニチャ
 62
     7
370
     9
100
AcDbLine
 10
180583.49968
 20
146901.16246
 30
0.0
 11
180583.49968
 21
146934.66246
 31
0.0
  0
LINE
  5
AFA6
330
B43B
100
AcDbEntity
  8
A733_ストリートファニチャ
 62
     7
370
     9
100
AcDbLine
 10
180583.49968
 20
146913.16246
 30
0.0
 11
180565.49968
 21
146913.16246
 31
0.0
  0
LINE
  5
AFA7
330
B43B
100
AcDbEntity
  8
A733_ストリートファニチャ
 62
     7
370
     9
100
AcDbLine
 10
180583.49968
 20
146924.66246
 30
0.0
 11
180565.49968
 21
146924.66246
 31
0.0
  0
LINE
  5
AFA8
330
B43B
100
AcDbEntity
  8
A733_ストリートファニチャ
 62
     7
370
     9
100
AcDbLine
 10
180574.49968
 20
146347.66246
 30
0.0
 11
180574.49968
 21
146907.16246
 31
0.0
  0
LINE
  5
AFA9
330
B43B
100
AcDbEntity
  8
A733_ストリートファニチャ
 62
     7
370
     9
100
AcDbLine
 10
180537.49968
 20
145770.16246
 30
0.0
 11
180537.49968
 21
146329.66246
 31
0.0
  0
LINE
  5
AFAA
330
B43B
100
AcDbEntity
  8
A733_ストリートファニチャ
 62
     7
370
     9
100
AcDbLine
 10
180546.49968
 20
145764.16246
 30
0.0
 11
180528.49968
 21
145764.16246
 31
0.0
  0
LINE
  5
AFAB
330
B43B
100
AcDbEntity
  8
A733_ストリートファニチャ
 62
     7
370
     9
100
AcDbLine
 10
180546.49968
 20
145752.66246
 30
0.0
 11
180528.49968
 21
145752.66246
 31
0.0
  0
LINE
  5
AFAC
330
B43B
100
AcDbEntity
  8
A733_ストリートファニチャ
 62
     7
370
     9
100
AcDbLine
 10
180546.49968
 20
145776.16246
 30
0.0
 11
180546.49968
 21
145742.66246
 31
0.0
  0
LINE
  5
AFAD
330
B43B
100
AcDbEntity
  8
A733_ストリートファニチャ
 62
     7
370
     9
100
AcDbLine
 10
180528.49968
 20
145776.16246
 30
0.0
 11
180528.49968
 21
145742.66246
 31
0.0
  0
LINE
  5
AFAE
330
B43B
100
AcDbEntity
  8
A733_ストリートファニチャ
 62
     7
370
     9
100
AcDbLine
 10
180528.49968
 20
146353.66246
 30
0.0
 11
180555.99968
 21
146353.66246
 31
0.0
  0
LINE
  5
AFAF
330
B43B
100
AcDbEntity
  8
A733_ストリートファニチャ
 62
     7
370
     9
100
AcDbLine
 10
180565.49968
 20
146341.66246
 30
0.0
 11
180583.49968
 21
146341.66246
 31
0.0
  0
LINE
  5
AFB0
330
B43B
100
AcDbEntity
  8
A733_ストリートファニチャ
 62
     7
370
     9
100
AcDbLine
 10
180528.49968
 20
146323.66246
 30
0.0
 11
180528.49968
 21
146353.66246
 31
0.0
  0
LINE
  5
AFB1
330
B43B
100
AcDbEntity
  8
A733_ストリートファニチャ
 62
     7
370
     9
100
AcDbLine
 10
180546.49968
 20
146335.66246
 30
0.0
 11
180528.49968
 21
146335.66246
 31
0.0
  0
LINE
  5
AFB2
330
B43B
100
AcDbEntity
  8
A733_ストリートファニチャ
 62
     7
370
     9
100
AcDbLine
 10
180583.49968
 20
146323.66246
 30
0.0
 11
180565.49968
 21
146323.66246
 31
0.0
  0
LINE
  5
AFB3
330
B43B
100
AcDbEntity
  8
A733_ストリートファニチャ
 62
     7
370
     9
100
AcDbLine
 10
180546.49968
 20
146323.66246
 30
0.0
 11
180546.49968
 21
146353.66246
 31
0.0
  0
LINE
  5
AFB4
330
B43B
100
AcDbEntity
  8
A733_ストリートファニチャ
 62
     7
370
     9
100
AcDbLine
 10
180555.99968
 20
146353.66246
 30
0.0
 11
180555.99968
 21
146338.66246
 31
0.0
  0
LINE
  5
AFB5
330
B43B
100
AcDbEntity
  8
A733_ストリートファニチャ
 62
     7
370
     9
100
AcDbLine
 10
180565.49968
 20
146353.66246
 30
0.0
 11
180565.49968
 21
146323.66246
 31
0.0
  0
LINE
  5
AFB6
330
B43B
100
AcDbEntity
  8
A733_ストリートファニチャ
 62
     7
370
     9
100
AcDbLine
 10
180583.49968
 20
146353.66246
 30
0.0
 11
180583.49968
 21
146323.66246
 31
0.0
  0
LINE
  5
AFB7
330
B43B
100
AcDbEntity
  8
A733_ストリートファニチャ
 62
     7
370
     9
100
AcDbLine
 10
184014.49968
 20
149089.66246
 30
0.0
 11
184047.99968
 21
149089.66246
 31
0.0
  0
LINE
  5
AFB8
330
B43B
100
AcDbEntity
  8
A733_ストリートファニチャ
 62
     7
370
     9
100
AcDbLine
 10
184014.49968
 20
149071.66246
 30
0.0
 11
184047.99968
 21
149071.66246
 31
0.0
  0
LINE
  5
AFB9
330
B43B
100
AcDbEntity
  8
A733_ストリートファニチャ
 62
     7
370
     9
100
AcDbLine
 10
184026.49968
 20
149071.66246
 30
0.0
 11
184026.49968
 21
149089.66246
 31
0.0
  0
LINE
  5
AFBA
330
B43B
100
AcDbEntity
  8
A733_ストリートファニチャ
 62
     7
370
     9
100
AcDbLine
 10
184037.99968
 20
149071.66246
 30
0.0
 11
184037.99968
 21
149089.66246
 31
0.0
  0
LINE
  5
AFBB
330
B43B
100
AcDbEntity
  8
A733_ストリートファニチャ
 62
     7
370
     9
100
AcDbLine
 10
183460.99968
 20
149080.66246
 30
0.0
 11
184020.49968
 21
149080.66246
 31
0.0
  0
LINE
  5
AFBC
330
B43B
100
AcDbEntity
  8
A733_ストリートファニチャ
 62
     7
370
     9
100
AcDbLine
 10
182883.49968
 20
149117.66246
 30
0.0
 11
183442.99968
 21
149117.66246
 31
0.0
  0
LINE
  5
AFBD
330
B43B
100
AcDbEntity
  8
A733_ストリートファニチャ
 62
     7
370
     9
100
AcDbLine
 10
182877.49968
 20
149108.66246
 30
0.0
 11
182877.49968
 21
149126.66246
 31
0.0
  0
LINE
  5
AFBE
330
B43B
100
AcDbEntity
  8
A733_ストリートファニチャ
 62
     7
370
     9
100
AcDbLine
 10
182865.99968
 20
149108.66246
 30
0.0
 11
182865.99968
 21
149126.66246
 31
0.0
  0
LINE
  5
AFBF
330
B43B
100
AcDbEntity
  8
A733_ストリートファニチャ
 62
     7
370
     9
100
AcDbLine
 10
182889.49968
 20
149108.66246
 30
0.0
 11
182855.99968
 21
149108.66246
 31
0.0
  0
LINE
  5
AFC0
330
B43B
100
AcDbEntity
  8
A733_ストリートファニチャ
 62
     7
370
     9
100
AcDbLine
 10
182889.49968
 20
149126.66246
 30
0.0
 11
182855.99968
 21
149126.66246
 31
0.0
  0
LINE
  5
AFC1
330
B43B
100
AcDbEntity
  8
A733_ストリートファニチャ
 62
     7
370
     9
100
AcDbLine
 10
183466.99968
 20
149126.66246
 30
0.0
 11
183466.99968
 21
149099.16246
 31
0.0
  0
LINE
  5
AFC2
330
B43B
100
AcDbEntity
  8
A733_ストリートファニチャ
 62
     7
370
     9
100
AcDbLine
 10
183454.99968
 20
149089.66246
 30
0.0
 11
183454.99968
 21
149071.66246
 31
0.0
  0
LINE
  5
AFC3
330
B43B
100
AcDbEntity
  8
A733_ストリートファニチャ
 62
     7
370
     9
100
AcDbLine
 10
183436.99968
 20
149126.66246
 30
0.0
 11
183466.99968
 21
149126.66246
 31
0.0
  0
LINE
  5
AFC4
330
B43B
100
AcDbEntity
  8
A733_ストリートファニチャ
 62
     7
370
     9
100
AcDbLine
 10
183448.99968
 20
149108.66246
 30
0.0
 11
183448.99968
 21
149126.66246
 31
0.0
  0
LINE
  5
AFC5
330
B43B
100
AcDbEntity
  8
A733_ストリートファニチャ
 62
     7
370
     9
100
AcDbLine
 10
183436.99968
 20
149071.66246
 30
0.0
 11
183436.99968
 21
149089.66246
 31
0.0
  0
LINE
  5
AFC6
330
B43B
100
AcDbEntity
  8
A733_ストリートファニチャ
 62
     7
370
     9
100
AcDbLine
 10
183436.99968
 20
149108.66246
 30
0.0
 11
183466.99968
 21
149108.66246
 31
0.0
  0
LINE
  5
AFC7
330
B43B
100
AcDbEntity
  8
A733_ストリートファニチャ
 62
     7
370
     9
100
AcDbLine
 10
183466.99968
 20
149099.16246
 30
0.0
 11
183451.99968
 21
149099.16246
 31
0.0
  0
LINE
  5
AFC8
330
B43B
100
AcDbEntity
  8
A733_ストリートファニチャ
 62
     7
370
     9
100
AcDbLine
 10
183466.99968
 20
149089.66246
 30
0.0
 11
183436.99968
 21
149089.66246
 31
0.0
  0
LINE
  5
AFC9
330
B43B
100
AcDbEntity
  8
A733_ストリートファニチャ
 62
     7
370
     9
100
AcDbLine
 10
183466.99968
 20
149071.66246
 30
0.0
 11
183436.99968
 21
149071.66246
 31
0.0
  0
LINE
  5
AFCA
330
B43B
100
AcDbEntity
  8
A733_ストリートファニチャ
 62
     7
370
     9
100
AcDbLine
 10
185879.49968
 20
149089.66246
 30
0.0
 11
185912.99968
 21
149089.66246
 31
0.0
  0
LINE
  5
AFCB
330
B43B
100
AcDbEntity
  8
A733_ストリートファニチャ
 62
     7
370
     9
100
AcDbLine
 10
185879.49968
 20
149071.66246
 30
0.0
 11
185912.99968
 21
149071.66246
 31
0.0
  0
LINE
  5
AFCC
330
B43B
100
AcDbEntity
  8
A733_ストリートファニチャ
 62
     7
370
     9
100
AcDbLine
 10
185891.49968
 20
149071.66246
 30
0.0
 11
185891.49968
 21
149089.66246
 31
0.0
  0
LINE
  5
AFCD
330
B43B
100
AcDbEntity
  8
A733_ストリートファニチャ
 62
     7
370
     9
100
AcDbLine
 10
185902.99968
 20
149071.66246
 30
0.0
 11
185902.99968
 21
149089.66246
 31
0.0
  0
LINE
  5
AFCE
330
B43B
100
AcDbEntity
  8
A733_ストリートファニチャ
 62
     7
370
     9
100
AcDbLine
 10
185325.99968
 20
149080.66246
 30
0.0
 11
185885.49968
 21
149080.66246
 31
0.0
  0
LINE
  5
AFCF
330
B43B
100
AcDbEntity
  8
A733_ストリートファニチャ
 62
     7
370
     9
100
AcDbLine
 10
184748.49968
 20
149117.66246
 30
0.0
 11
185307.99968
 21
149117.66246
 31
0.0
  0
LINE
  5
AFD0
330
B43B
100
AcDbEntity
  8
A733_ストリートファニチャ
 62
     7
370
     9
100
AcDbLine
 10
184742.49968
 20
149108.66246
 30
0.0
 11
184742.49968
 21
149126.66246
 31
0.0
  0
LINE
  5
AFD1
330
B43B
100
AcDbEntity
  8
A733_ストリートファニチャ
 62
     7
370
     9
100
AcDbLine
 10
184730.99968
 20
149108.66246
 30
0.0
 11
184730.99968
 21
149126.66246
 31
0.0
  0
LINE
  5
AFD2
330
B43B
100
AcDbEntity
  8
A733_ストリートファニチャ
 62
     7
370
     9
100
AcDbLine
 10
184754.49968
 20
149108.66246
 30
0.0
 11
184720.99968
 21
149108.66246
 31
0.0
  0
LINE
  5
AFD3
330
B43B
100
AcDbEntity
  8
A733_ストリートファニチャ
 62
     7
370
     9
100
AcDbLine
 10
184754.49968
 20
149126.66246
 30
0.0
 11
184720.99968
 21
149126.66246
 31
0.0
  0
LINE
  5
AFD4
330
B43B
100
AcDbEntity
  8
A733_ストリートファニチャ
 62
     7
370
     9
100
AcDbLine
 10
185331.99968
 20
149126.66246
 30
0.0
 11
185331.99968
 21
149099.16246
 31
0.0
  0
LINE
  5
AFD5
330
B43B
100
AcDbEntity
  8
A733_ストリートファニチャ
 62
     7
370
     9
100
AcDbLine
 10
185319.99968
 20
149089.66246
 30
0.0
 11
185319.99968
 21
149071.66246
 31
0.0
  0
LINE
  5
AFD6
330
B43B
100
AcDbEntity
  8
A733_ストリートファニチャ
 62
     7
370
     9
100
AcDbLine
 10
185301.99968
 20
149126.66246
 30
0.0
 11
185331.99968
 21
149126.66246
 31
0.0
  0
LINE
  5
AFD7
330
B43B
100
AcDbEntity
  8
A733_ストリートファニチャ
 62
     7
370
     9
100
AcDbLine
 10
185313.99968
 20
149108.66246
 30
0.0
 11
185313.99968
 21
149126.66246
 31
0.0
  0
LINE
  5
AFD8
330
B43B
100
AcDbEntity
  8
A733_ストリートファニチャ
 62
     7
370
     9
100
AcDbLine
 10
185301.99968
 20
149071.66246
 30
0.0
 11
185301.99968
 21
149089.66246
 31
0.0
  0
LINE
  5
AFD9
330
B43B
100
AcDbEntity
  8
A733_ストリートファニチャ
 62
     7
370
     9
100
AcDbLine
 10
185301.99968
 20
149108.66246
 30
0.0
 11
185331.99968
 21
149108.66246
 31
0.0
  0
LINE
  5
AFDA
330
B43B
100
AcDbEntity
  8
A733_ストリートファニチャ
 62
     7
370
     9
100
AcDbLine
 10
185331.99968
 20
149099.16246
 30
0.0
 11
185316.99968
 21
149099.16246
 31
0.0
  0
LINE
  5
AFDB
330
B43B
100
AcDbEntity
  8
A733_ストリートファニチャ
 62
     7
370
     9
100
AcDbLine
 10
185331.99968
 20
149089.66246
 30
0.0
 11
185301.99968
 21
149089.66246
 31
0.0
  0
LINE
  5
AFDC
330
B43B
100
AcDbEntity
  8
A733_ストリートファニチャ
 62
     7
370
     9
100
AcDbLine
 10
185331.99968
 20
149071.66246
 30
0.0
 11
185301.99968
 21
149071.66246
 31
0.0
  0
LINE
  5
AFDD
330
B43B
100
AcDbEntity
  8
A733_ストリートファニチャ
 62
     7
370
     9
100
AcDbLine
 10
188448.49968
 20
149209.66246
 30
0.0
 11
188448.49968
 21
148809.66246
 31
0.0
  0
ARC
  5
AFDE
330
B43B
100
AcDbEntity
  8
A733_ストリートファニチャ
 62
     7
370
     9
100
AcDbCircle
 10
188323.49968
 20
149209.66246
 30
0.0
 40
125.0
100
AcDbArc
 50
0.0
 51
90.0
  0
LINE
  5
AFDF
330
B43B
100
AcDbEntity
  8
A733_ストリートファニチャ
 62
     7
370
     9
100
AcDbLine
 10
185966.99968
 20
149334.66246
 30
0.0
 11
185966.99968
 21
149159.66246
 31
0.0
  0
LINE
  5
AFE0
330
B43B
100
AcDbEntity
  8
A733_ストリートファニチャ
 62
     7
370
     9
100
AcDbLine
 10
188323.49968
 20
149334.66246
 30
0.0
 11
185966.99968
 21
149334.66246
 31
0.0
  0
LINE
  5
AFE1
330
B43B
100
AcDbEntity
  8
A733_ストリートファニチャ
 62
     7
370
     9
100
AcDbLine
 10
188448.49968
 20
148809.66246
 30
0.0
 11
191127.49968
 21
148809.66246
 31
0.0
  0
LINE
  5
AFE2
330
B43B
100
AcDbEntity
  8
A733_ストリートファニチャ
 62
     7
370
     9
100
AcDbLine
 10
184666.99968
 20
149334.66246
 30
0.0
 11
184666.99968
 21
149159.66246
 31
0.0
  0
LINE
  5
AFE3
330
B43B
100
AcDbEntity
  8
A733_ストリートファニチャ
 62
     7
370
     9
100
AcDbLine
 10
184666.99968
 20
149334.66246
 30
0.0
 11
184101.99968
 21
149334.66246
 31
0.0
  0
LINE
  5
AFE4
330
B43B
100
AcDbEntity
  8
A733_ストリートファニチャ
 62
     7
370
     9
100
AcDbLine
 10
184101.99968
 20
149334.66246
 30
0.0
 11
184101.99968
 21
149159.66246
 31
0.0
  0
ARC
  5
AFE5
330
B43B
100
AcDbEntity
  8
A733_ストリートファニチャ
 62
     7
370
     9
100
AcDbCircle
 10
180445.49968
 20
149209.66246
 30
0.0
 40
125.0
100
AcDbArc
 50
90.0
 51
180.0
  0
LINE
  5
AFE6
330
B43B
100
AcDbEntity
  8
A733_ストリートファニチャ
 62
     7
370
     9
100
AcDbLine
 10
180320.49968
 20
146988.66246
 30
0.0
 11
180495.49968
 21
146988.66246
 31
0.0
  0
LINE
  5
AFE7
330
B43B
100
AcDbEntity
  8
A733_ストリートファニチャ
 62
     7
370
     9
100
AcDbLine
 10
180320.49968
 20
149209.66246
 30
0.0
 11
180320.49968
 21
146988.66246
 31
0.0
  0
LINE
  5
AFE8
330
B43B
100
AcDbEntity
  8
A733_ストリートファニチャ
 62
     7
370
     9
100
AcDbLine
 10
182801.99968
 20
149334.66246
 30
0.0
 11
182801.99968
 21
149159.66246
 31
0.0
  0
LINE
  5
AFE9
330
B43B
100
AcDbEntity
  8
A733_ストリートファニチャ
 62
     7
370
     9
100
AcDbLine
 10
182801.99968
 20
149334.66246
 30
0.0
 11
180445.49968
 21
149334.66246
 31
0.0
  0
LINE
  5
AFEA
330
B43B
100
AcDbEntity
  8
A733_ストリートファニチャ
 62
     7
370
     9
100
AcDbLine
 10
180320.49968
 20
145688.66246
 30
0.0
 11
180495.49968
 21
145688.66246
 31
0.0
  0
LINE
  5
AFEB
330
B43B
100
AcDbEntity
  8
A733_ストリートファニチャ
 62
     7
370
     9
100
AcDbLine
 10
180320.49968
 20
145688.66246
 30
0.0
 11
180320.49968
 21
145123.66246
 31
0.0
  0
LINE
  5
AFEC
330
B43B
100
AcDbEntity
  8
A733_ストリートファニチャ
 62
     7
370
     9
100
AcDbLine
 10
180320.49968
 20
145123.66246
 30
0.0
 11
180495.49968
 21
145123.66246
 31
0.0
  0
LINE
  5
AFED
330
B43B
100
AcDbEntity
  8
A733_ストリートファニチャ
 62
     7
370
     9
100
AcDbLine
 10
180320.49968
 20
143258.66246
 30
0.0
 11
180495.49968
 21
143258.66246
 31
0.0
  0
LINE
  5
AFEE
330
B43B
100
AcDbEntity
  8
A733_ストリートファニチャ
 62
     7
370
     9
100
AcDbLine
 10
180320.49968
 20
143823.66246
 30
0.0
 11
180320.49968
 21
143258.66246
 31
0.0
  0
LINE
  5
AFEF
330
B43B
100
AcDbEntity
  8
A733_ストリートファニチャ
 62
     7
370
     9
100
AcDbLine
 10
180320.49968
 20
143823.66246
 30
0.0
 11
180495.49968
 21
143823.66246
 31
0.0
  0
LINE
  5
AFF0
330
B43B
100
AcDbEntity
  8
A733_ストリートファニチャ
 62
     7
370
     9
100
AcDbLine
 10
180320.49968
 20
141958.66246
 30
0.0
 11
180495.49968
 21
141958.66246
 31
0.0
  0
LINE
  5
AFF1
330
B43B
100
AcDbEntity
  8
A733_ストリートファニチャ
 62
     7
370
     9
100
AcDbLine
 10
180320.49968
 20
141958.66246
 30
0.0
 11
180320.49968
 21
141552.875607
 31
0.0
  0
LINE
  5
AFF2
330
B43B
100
AcDbEntity
  8
A733_ストリートファニチャ
 62
     7
370
     9
100
AcDbLine
 10
185941.99968
 20
149134.66246
 30
0.0
 11
185901.99968
 21
149134.66246
 31
0.0
  0
LINE
  5
AFF3
330
B43B
100
AcDbEntity
  8
A733_ストリートファニチャ
 62
     7
370
     9
100
AcDbLine
 10
185901.99968
 20
149064.66246
 30
0.0
 11
185941.99968
 21
149064.66246
 31
0.0
  0
LINE
  5
AFF4
330
B43B
100
AcDbEntity
  8
A733_ストリートファニチャ
 62
     7
370
     9
100
AcDbLine
 10
185941.99968
 20
149134.66246
 30
0.0
 11
185941.99968
 21
149125.66246
 31
0.0
  0
LINE
  5
AFF5
330
B43B
100
AcDbEntity
  8
A733_ストリートファニチャ
 62
     7
370
     9
100
AcDbLine
 10
185941.99968
 20
149064.66246
 30
0.0
 11
185941.99968
 21
149073.66246
 31
0.0
  0
LINE
  5
AFF6
330
B43B
100
AcDbEntity
  8
A733_ストリートファニチャ
 62
     7
370
     9
100
AcDbLine
 10
184076.99968
 20
149134.66246
 30
0.0
 11
184036.99968
 21
149134.66246
 31
0.0
  0
LINE
  5
AFF7
330
B43B
100
AcDbEntity
  8
A733_ストリートファニチャ
 62
     7
370
     9
100
AcDbLine
 10
184036.99968
 20
149064.66246
 30
0.0
 11
184076.99968
 21
149064.66246
 31
0.0
  0
LINE
  5
AFF8
330
B43B
100
AcDbEntity
  8
A733_ストリートファニチャ
 62
     7
370
     9
100
AcDbLine
 10
184076.99968
 20
149134.66246
 30
0.0
 11
184076.99968
 21
149125.66246
 31
0.0
  0
LINE
  5
AFF9
330
B43B
100
AcDbEntity
  8
A733_ストリートファニチャ
 62
     7
370
     9
100
AcDbLine
 10
184076.99968
 20
149064.66246
 30
0.0
 11
184076.99968
 21
149073.66246
 31
0.0
  0
LINE
  5
AFFA
330
B43B
100
AcDbEntity
  8
A733_ストリートファニチャ
 62
     7
370
     9
100
AcDbLine
 10
182866.99968
 20
149064.66246
 30
0.0
 11
182826.99968
 21
149064.66246
 31
0.0
  0
LINE
  5
AFFB
330
B43B
100
AcDbEntity
  8
A733_ストリートファニチャ
 62
     7
370
     9
100
AcDbLine
 10
182826.99968
 20
149064.66246
 30
0.0
 11
182826.99968
 21
149073.66246
 31
0.0
  0
LINE
  5
AFFC
330
B43B
100
AcDbEntity
  8
A733_ストリートファニチャ
 62
     7
370
     9
100
AcDbLine
 10
182826.99968
 20
149134.66246
 30
0.0
 11
182826.99968
 21
149125.66246
 31
0.0
  0
LINE
  5
AFFD
330
B43B
100
AcDbEntity
  8
A733_ストリートファニチャ
 62
     7
370
     9
100
AcDbLine
 10
182866.99968
 20
149134.66246
 30
0.0
 11
182826.99968
 21
149134.66246
 31
0.0
  0
LINE
  5
AFFE
330
B43B
100
AcDbEntity
  8
A733_ストリートファニチャ
 62
     7
370
     9
100
AcDbLine
 10
184731.99968
 20
149064.66246
 30
0.0
 11
184691.99968
 21
149064.66246
 31
0.0
  0
LINE
  5
AFFF
330
B43B
100
AcDbEntity
  8
A733_ストリートファニチャ
 62
     7
370
     9
100
AcDbLine
 10
184691.99968
 20
149064.66246
 30
0.0
 11
184691.99968
 21
149073.66246
 31
0.0
  0
LINE
  5
B000
330
B43B
100
AcDbEntity
  8
A733_ストリートファニチャ
 62
     7
370
     9
100
AcDbLine
 10
184691.99968
 20
149134.66246
 30
0.0
 11
184691.99968
 21
149125.66246
 31
0.0
  0
LINE
  5
B001
330
B43B
100
AcDbEntity
  8
A733_ストリートファニチャ
 62
     7
370
     9
100
AcDbLine
 10
184731.99968
 20
149134.66246
 30
0.0
 11
184691.99968
 21
149134.66246
 31
0.0
  0
LINE
  5
B002
330
B43B
100
AcDbEntity
  8
A733_ストリートファニチャ
 62
     7
370
     9
100
AcDbLine
 10
180590.49968
 20
142023.66246
 30
0.0
 11
180590.49968
 21
141983.66246
 31
0.0
  0
LINE
  5
B003
330
B43B
100
AcDbEntity
  8
A733_ストリートファニチャ
 62
     7
370
     9
100
AcDbLine
 10
180590.49968
 20
141983.66246
 30
0.0
 11
180581.49968
 21
141983.66246
 31
0.0
  0
LINE
  5
B004
330
B43B
100
AcDbEntity
  8
A733_ストリートファニチャ
 62
     7
370
     9
100
AcDbLine
 10
180520.49968
 20
141983.66246
 30
0.0
 11
180529.49968
 21
141983.66246
 31
0.0
  0
LINE
  5
B005
330
B43B
100
AcDbEntity
  8
A733_ストリートファニチャ
 62
     7
370
     9
100
AcDbLine
 10
180520.49968
 20
142023.66246
 30
0.0
 11
180520.49968
 21
141983.66246
 31
0.0
  0
LINE
  5
B006
330
B43B
100
AcDbEntity
  8
A733_ストリートファニチャ
 62
     7
370
     9
100
AcDbLine
 10
180590.49968
 20
143888.66246
 30
0.0
 11
180590.49968
 21
143848.66246
 31
0.0
  0
LINE
  5
B007
330
B43B
100
AcDbEntity
  8
A733_ストリートファニチャ
 62
     7
370
     9
100
AcDbLine
 10
180590.49968
 20
143848.66246
 30
0.0
 11
180581.49968
 21
143848.66246
 31
0.0
  0
LINE
  5
B008
330
B43B
100
AcDbEntity
  8
A733_ストリートファニチャ
 62
     7
370
     9
100
AcDbLine
 10
180520.49968
 20
143848.66246
 30
0.0
 11
180529.49968
 21
143848.66246
 31
0.0
  0
LINE
  5
B009
330
B43B
100
AcDbEntity
  8
A733_ストリートファニチャ
 62
     7
370
     9
100
AcDbLine
 10
180520.49968
 20
143888.66246
 30
0.0
 11
180520.49968
 21
143848.66246
 31
0.0
  0
LINE
  5
B00A
330
B43B
100
AcDbEntity
  8
A733_ストリートファニチャ
 62
     7
370
     9
100
AcDbLine
 10
180590.49968
 20
145753.66246
 30
0.0
 11
180590.49968
 21
145713.66246
 31
0.0
  0
LINE
  5
B00B
330
B43B
100
AcDbEntity
  8
A733_ストリートファニチャ
 62
     7
370
     9
100
AcDbLine
 10
180590.49968
 20
145713.66246
 30
0.0
 11
180581.49968
 21
145713.66246
 31
0.0
  0
LINE
  5
B00C
330
B43B
100
AcDbEntity
  8
A733_ストリートファニチャ
 62
     7
370
     9
100
AcDbLine
 10
180520.49968
 20
145713.66246
 30
0.0
 11
180529.49968
 21
145713.66246
 31
0.0
  0
LINE
  5
B00D
330
B43B
100
AcDbEntity
  8
A733_ストリートファニチャ
 62
     7
370
     9
100
AcDbLine
 10
180520.49968
 20
145753.66246
 30
0.0
 11
180520.49968
 21
145713.66246
 31
0.0
  0
LINE
  5
B00E
330
B43B
100
AcDbEntity
  8
A733_ストリートファニチャ
 62
     7
370
     9
100
AcDbLine
 10
180590.49968
 20
143233.66246
 30
0.0
 11
180581.49968
 21
143233.66246
 31
0.0
  0
LINE
  5
B00F
330
B43B
100
AcDbEntity
  8
A733_ストリートファニチャ
 62
     7
370
     9
100
AcDbLine
 10
180520.49968
 20
143233.66246
 30
0.0
 11
180529.49968
 21
143233.66246
 31
0.0
  0
LINE
  5
B010
330
B43B
100
AcDbEntity
  8
A733_ストリートファニチャ
 62
     7
370
     9
100
AcDbLine
 10
180590.49968
 20
143193.66246
 30
0.0
 11
180590.49968
 21
143233.66246
 31
0.0
  0
LINE
  5
B011
330
B43B
100
AcDbEntity
  8
A733_ストリートファニチャ
 62
     7
370
     9
100
AcDbLine
 10
180520.49968
 20
143233.66246
 30
0.0
 11
180520.49968
 21
143193.66246
 31
0.0
  0
LINE
  5
B012
330
B43B
100
AcDbEntity
  8
A733_ストリートファニチャ
 62
     7
370
     9
100
AcDbLine
 10
180590.49968
 20
145098.66246
 30
0.0
 11
180581.49968
 21
145098.66246
 31
0.0
  0
LINE
  5
B013
330
B43B
100
AcDbEntity
  8
A733_ストリートファニチャ
 62
     7
370
     9
100
AcDbLine
 10
180520.49968
 20
145098.66246
 30
0.0
 11
180529.49968
 21
145098.66246
 31
0.0
  0
LINE
  5
B014
330
B43B
100
AcDbEntity
  8
A733_ストリートファニチャ
 62
     7
370
     9
100
AcDbLine
 10
180590.49968
 20
145058.66246
 30
0.0
 11
180590.49968
 21
145098.66246
 31
0.0
  0
LINE
  5
B015
330
B43B
100
AcDbEntity
  8
A733_ストリートファニチャ
 62
     7
370
     9
100
AcDbLine
 10
180520.49968
 20
145098.66246
 30
0.0
 11
180520.49968
 21
145058.66246
 31
0.0
  0
LINE
  5
B016
330
B43B
100
AcDbEntity
  8
A733_ストリートファニチャ
 62
     7
370
     9
100
AcDbLine
 10
180590.49968
 20
146963.66246
 30
0.0
 11
180581.49968
 21
146963.66246
 31
0.0
  0
LINE
  5
B017
330
B43B
100
AcDbEntity
  8
A733_ストリートファニチャ
 62
     7
370
     9
100
AcDbLine
 10
180520.49968
 20
146963.66246
 30
0.0
 11
180529.49968
 21
146963.66246
 31
0.0
  0
LINE
  5
B018
330
B43B
100
AcDbEntity
  8
A733_ストリートファニチャ
 62
     7
370
     9
100
AcDbLine
 10
180590.49968
 20
146923.66246
 30
0.0
 11
180590.49968
 21
146963.66246
 31
0.0
  0
LINE
  5
B019
330
B43B
100
AcDbEntity
  8
A733_ストリートファニチャ
 62
     7
370
     9
100
AcDbLine
 10
180520.49968
 20
146963.66246
 30
0.0
 11
180520.49968
 21
146923.66246
 31
0.0
  0
LINE
  5
B01A
330
B43B
100
AcDbEntity
  8
A733_ストリートファニチャ
 62
     7
370
     9
100
AcDbLine
 10
180495.49968
 20
141958.66246
 30
0.0
 11
180495.49968
 21
141898.66246
 31
0.0
  0
LINE
  5
B01B
330
B43B
100
AcDbEntity
  8
A733_ストリートファニチャ
 62
     7
370
     9
100
AcDbLine
 10
180495.49968
 20
143258.66246
 30
0.0
 11
180495.49968
 21
143318.66246
 31
0.0
  0
LINE
  5
B01C
330
B43B
100
AcDbEntity
  8
A733_ストリートファニチャ
 62
     7
370
     9
100
AcDbLine
 10
180495.49968
 20
143823.66246
 30
0.0
 11
180495.49968
 21
143763.66246
 31
0.0
  0
LINE
  5
B01D
330
B43B
100
AcDbEntity
  8
A733_ストリートファニチャ
 62
     7
370
     9
100
AcDbLine
 10
180495.49968
 20
145123.66246
 30
0.0
 11
180495.49968
 21
145183.66246
 31
0.0
  0
LINE
  5
B01E
330
B43B
100
AcDbEntity
  8
A733_ストリートファニチャ
 62
     7
370
     9
100
AcDbLine
 10
180495.49968
 20
145688.66246
 30
0.0
 11
180495.49968
 21
145628.66246
 31
0.0
  0
LINE
  5
B01F
330
B43B
100
AcDbEntity
  8
A733_ストリートファニチャ
 62
     7
370
     9
100
AcDbLine
 10
180495.49968
 20
146988.66246
 30
0.0
 11
180495.49968
 21
147048.66246
 31
0.0
  0
LINE
  5
B020
330
B43B
100
AcDbEntity
  8
A733_ストリートファニチャ
 62
     7
370
     9
100
AcDbLine
 10
182801.99968
 20
149159.66246
 30
0.0
 11
182741.99968
 21
149159.66246
 31
0.0
  0
LINE
  5
B021
330
B43B
100
AcDbEntity
  8
A733_ストリートファニチャ
 62
     7
370
     9
100
AcDbLine
 10
184101.99968
 20
149159.66246
 30
0.0
 11
184161.99968
 21
149159.66246
 31
0.0
  0
LINE
  5
B022
330
B43B
100
AcDbEntity
  8
A733_ストリートファニチャ
 62
     7
370
     9
100
AcDbLine
 10
184666.99968
 20
149159.66246
 30
0.0
 11
184606.99968
 21
149159.66246
 31
0.0
  0
LINE
  5
B023
330
B43B
100
AcDbEntity
  8
A733_ストリートファニチャ
 62
     7
370
     9
100
AcDbLine
 10
185966.99968
 20
149159.66246
 30
0.0
 11
186026.99968
 21
149159.66246
 31
0.0
  0
LINE
  5
B024
330
B43B
100
AcDbEntity
  8
A733_ストリートファニチャ
 62
     7
370
     9
100
AcDbLine
 10
188491.99968
 20
141779.66246
 30
0.0
 11
188971.99968
 21
141779.66246
 31
0.0
  0
LINE
  5
B025
330
B43B
100
AcDbEntity
  8
A733_ストリートファニチャ
 62
     7
370
     9
100
AcDbLine
 10
190976.99968
 20
141875.367037
 30
0.0
 11
191026.99968
 21
141925.367037
 31
0.0
  0
LINE
  5
B026
330
B43B
100
AcDbEntity
  8
A733_ストリートファニチャ
 62
     7
370
     9
100
AcDbLine
 10
191026.99968
 20
141925.367037
 30
0.0
 11
191226.99968
 21
141925.367037
 31
0.0
  0
LINE
  5
B027
330
B43B
100
AcDbEntity
  8
A733_ストリートファニチャ
 62
     7
370
     9
100
AcDbLine
 10
191226.99968
 20
141925.367037
 30
0.0
 11
191276.99968
 21
141875.367037
 31
0.0
  0
LINE
  5
B028
330
B43B
100
AcDbEntity
  8
A733_ストリートファニチャ
 62
     7
370
     9
100
AcDbLine
 10
190001.99968
 20
141779.66246
 30
0.0
 11
190976.99968
 21
141779.66246
 31
0.0
  0
LINE
  5
B029
330
B43B
100
AcDbEntity
  8
A733_ストリートファニチャ
 62
     7
370
     9
100
AcDbLine
 10
190976.99968
 20
141779.66246
 30
0.0
 11
190976.99968
 21
141875.367037
 31
0.0
  0
ARC
  5
B02A
330
B43B
100
AcDbEntity
  8
A733_ストリートファニチャ
 62
     7
370
     9
100
AcDbCircle
 10
197944.49968
 20
118457.766308
 30
0.0
 40
24039.99999997596
100
AcDbArc
 50
104.354796
 51
106.117365
  0
LINE
  5
B02B
330
B43B
100
AcDbEntity
  8
A733_ストリートファニチャ
 62
     7
370
     9
100
AcDbLine
 10
188246.99968
 20
143636.66246
 30
0.0
 11
188791.99968
 21
144363.66246
 31
0.0
  0
LINE
  5
B02C
330
B43B
100
AcDbEntity
  8
A733_ストリートファニチャ
 62
     7
370
     9
100
AcDbLine
 10
188791.99968
 20
143636.66246
 30
0.0
 11
188303.598717
 21
144288.16246
 31
0.0
  0
LINE
  5
B02D
330
B43B
100
AcDbEntity
  8
A733_ストリートファニチャ
 62
     7
370
     9
100
AcDbLine
 10
188791.99968
 20
144212.66246
 30
0.0
 11
188791.99968
 21
143636.66246
 31
0.0
  0
LINE
  5
B02E
330
B43B
100
AcDbEntity
  8
A733_ストリートファニチャ
 62
     7
370
     9
100
AcDbLine
 10
188446.99968
 20
143636.66246
 30
0.0
 11
188246.99968
 21
143636.66246
 31
0.0
  0
LINE
  5
B02F
330
B43B
100
AcDbEntity
  8
A733_ストリートファニチャ
 62
     7
370
     9
100
AcDbLine
 10
188791.99968
 20
143636.66246
 30
0.0
 11
188446.99968
 21
143636.66246
 31
0.0
  0
LINE
  5
B030
330
B43B
100
AcDbEntity
  8
A733_ストリートファニチャ
 62
     7
370
     9
100
AcDbLine
 10
188836.99968
 20
143591.66246
 30
0.0
 11
188491.99968
 21
143591.66246
 31
0.0
  0
LINE
  5
B031
330
B43B
100
AcDbEntity
  8
A733_ストリートファニチャ
 62
     7
370
     9
100
AcDbLine
 10
188836.99968
 20
143804.66246
 30
0.0
 11
188836.99968
 21
143591.66246
 31
0.0
  0
LINE
  5
B032
330
B43B
100
AcDbEntity
  8
A733_ストリートファニチャ
 62
     7
370
     9
100
AcDbLine
 10
188836.99968
 20
143804.66246
 30
0.0
 11
191984.367332
 21
143804.66246
 31
0.0
  0
LINE
  5
B033
330
B43B
100
AcDbEntity
  8
A733_ストリートファニチャ
 62
     7
370
     9
100
AcDbLine
 10
188791.99968
 20
144363.66246
 30
0.0
 11
188791.99968
 21
144212.66246
 31
0.0
  0
LINE
  5
B034
330
B43B
100
AcDbEntity
  8
A733_ストリートファニチャ
 62
     7
370
     9
100
AcDbLine
 10
188446.99968
 20
141614.66246
 30
0.0
 11
188446.99968
 21
141552.875607
 31
0.0
  0
LINE
  5
B035
330
B43B
100
AcDbEntity
  8
A733_ストリートファニチャ
 62
     7
370
     9
100
AcDbLine
 10
188446.99968
 20
141614.66246
 30
0.0
 11
188946.99968
 21
141614.66246
 31
0.0
  0
LINE
  5
B036
330
B43B
100
AcDbEntity
  8
A733_ストリートファニチャ
 62
     7
370
     9
100
AcDbLine
 10
188946.99968
 20
141614.66246
 30
0.0
 11
188946.99968
 21
141734.66246
 31
0.0
  0
LINE
  5
B037
330
B43B
100
AcDbEntity
  8
A733_ストリートファニチャ
 62
     7
370
     9
100
AcDbLine
 10
188446.99968
 20
141734.66246
 30
0.0
 11
188946.99968
 21
141734.66246
 31
0.0
  0
LINE
  5
B038
330
B43B
100
AcDbEntity
  8
A733_ストリートファニチャ
 62
     7
370
     9
100
AcDbLine
 10
190026.99968
 20
141614.66246
 30
0.0
 11
190026.99968
 21
141734.66246
 31
0.0
  0
LINE
  5
B039
330
B43B
100
AcDbEntity
  8
A733_ストリートファニチャ
 62
     7
370
     9
100
AcDbLine
 10
190026.99968
 20
141614.66246
 30
0.0
 11
190781.137432
 21
141614.66246
 31
0.0
  0
ARC
  5
B03A
330
B43B
100
AcDbEntity
  8
A733_ストリートファニチャ
 62
     7
370
     9
100
AcDbCircle
 10
191823.49968
 20
138064.524301
 30
0.0
 40
3699.999999996299
100
AcDbArc
 50
106.362858
 51
109.473179
  0
LINE
  5
B03B
330
B43B
100
AcDbEntity
  8
A733_ストリートファニチャ
 62
     7
370
     9
100
AcDbLine
 10
191984.367332
 20
144758.66246
 30
0.0
 11
191127.49968
 21
144758.66246
 31
0.0
  0
LINE
  5
B03C
330
B43B
100
AcDbEntity
  8
A733_ストリートファニチャ
 62
     7
370
     9
100
AcDbLine
 10
190792.49968
 20
144212.66246
 30
0.0
 11
190792.49968
 21
144363.66246
 31
0.0
  0
LINE
  5
B03D
330
B43B
100
AcDbEntity
  8
A733_ストリートファニチャ
 62
     7
370
     9
100
AcDbLine
 10
188791.99968
 20
144212.66246
 30
0.0
 11
190792.49968
 21
144212.66246
 31
0.0
  0
LINE
  5
B03E
330
B43B
100
AcDbEntity
  8
A733_ストリートファニチャ
 62
     7
370
     9
100
AcDbLine
 10
190792.49968
 20
143849.66246
 30
0.0
 11
191984.367332
 21
143849.66246
 31
0.0
  0
LINE
  5
B03F
330
B43B
100
AcDbEntity
  8
A733_ストリートファニチャ
 62
     7
370
     9
100
AcDbLine
 10
190792.49968
 20
144212.66246
 30
0.0
 11
190792.49968
 21
143849.66246
 31
0.0
  0
LINE
  5
B040
330
B43B
100
AcDbEntity
  8
A733_ストリートファニチャ
 62
     7
370
     9
100
AcDbLine
 10
191127.49968
 20
144758.66246
 30
0.0
 11
190792.49968
 21
144758.66246
 31
0.0
  0
LINE
  5
B041
330
B43B
100
AcDbEntity
  8
A733_ストリートファニチャ
 62
     7
370
     9
100
AcDbLine
 10
191984.367332
 20
144167.659624
 30
0.0
 11
190792.49968
 21
144758.66246
 31
0.0
  0
LINE
  5
B042
330
B43B
100
AcDbEntity
  8
A733_ストリートファニチャ
 62
     7
370
     9
100
AcDbLine
 10
190792.49968
 20
143849.66246
 30
0.0
 11
191984.367332
 21
144715.00407
 31
0.0
  0
LINE
  5
B043
330
B43B
100
AcDbEntity
  8
A733_ストリートファニチャ
 62
     7
370
     9
100
AcDbLine
 10
190792.49968
 20
148052.66246
 30
0.0
 11
191127.49968
 21
148052.66246
 31
0.0
  0
LINE
  5
B044
330
B43B
100
AcDbEntity
  8
A733_ストリートファニチャ
 62
     7
370
     9
100
AcDbLine
 10
190792.49968
 20
148052.66246
 30
0.0
 11
191127.49968
 21
148809.66246
 31
0.0
  0
LINE
  5
B045
330
B43B
100
AcDbEntity
  8
A733_ストリートファニチャ
 62
     7
370
     9
100
AcDbLine
 10
191127.49968
 20
148052.66246
 30
0.0
 11
190792.49968
 21
148809.66246
 31
0.0
  0
LINE
  5
B046
330
B43B
100
AcDbEntity
  8
A733_ストリートファニチャ
 62
     7
370
     9
100
AcDbLine
 10
190792.49968
 20
148809.66246
 30
0.0
 11
190792.49968
 21
148474.66246
 31
0.0
  0
LINE
  5
B047
330
B43B
100
AcDbEntity
  8
A733_ストリートファニチャ
 62
     7
370
     9
100
AcDbLine
 10
188448.49968
 20
148809.66246
 30
0.0
 11
188448.49968
 21
148474.66246
 31
0.0
  0
LINE
  5
B048
330
B43B
100
AcDbEntity
  8
A733_ストリートファニチャ
 62
     7
370
     9
100
AcDbLine
 10
188448.49968
 20
148474.66246
 30
0.0
 11
187731.99968
 21
149334.66246
 31
0.0
  0
LINE
  5
B049
330
B43B
100
AcDbEntity
  8
A733_ストリートファニチャ
 62
     7
370
     9
100
AcDbLine
 10
187731.99968
 20
148474.66246
 30
0.0
 11
188403.140575
 21
149306.007298
 31
0.0
  0
LINE
  5
B04A
330
B43B
100
AcDbEntity
  8
A733_ストリートファニチャ
 62
     7
370
     9
100
AcDbLine
 10
186026.99968
 20
149159.66246
 30
0.0
 11
186026.99968
 21
148999.66246
 31
0.0
  0
LINE
  5
B04B
330
B43B
100
AcDbEntity
  8
A733_ストリートファニチャ
 62
     7
370
     9
100
AcDbLine
 10
187731.99968
 20
148999.66246
 30
0.0
 11
187731.99968
 21
149334.66246
 31
0.0
  0
LINE
  5
B04C
330
B43B
100
AcDbEntity
  8
A733_ストリートファニチャ
 62
     7
370
     9
100
AcDbLine
 10
187731.99968
 20
148999.66246
 30
0.0
 11
186026.99968
 21
148999.66246
 31
0.0
  0
LINE
  5
B04D
330
B43B
100
AcDbEntity
  8
A733_ストリートファニチャ
 62
     7
370
     9
100
AcDbLine
 10
187731.99968
 20
148999.66246
 30
0.0
 11
187731.99968
 21
148474.66246
 31
0.0
  0
LINE
  5
B04E
330
B43B
100
AcDbEntity
  8
A733_ストリートファニチャ
 62
     7
370
     9
100
AcDbLine
 10
184161.99968
 20
149159.66246
 30
0.0
 11
184161.99968
 21
148999.66246
 31
0.0
  0
LINE
  5
B04F
330
B43B
100
AcDbEntity
  8
A733_ストリートファニチャ
 62
     7
370
     9
100
AcDbLine
 10
184606.99968
 20
149159.66246
 30
0.0
 11
184606.99968
 21
148999.66246
 31
0.0
  0
LINE
  5
B050
330
B43B
100
AcDbEntity
  8
A733_ストリートファニチャ
 62
     7
370
     9
100
AcDbLine
 10
182741.99968
 20
149159.66246
 30
0.0
 11
182741.99968
 21
148999.66246
 31
0.0
  0
LINE
  5
B051
330
B43B
100
AcDbEntity
  8
A733_ストリートファニチャ
 62
     7
370
     9
100
AcDbLine
 10
180495.49968
 20
141898.66246
 30
0.0
 11
180655.49968
 21
141898.66246
 31
0.0
  0
LINE
  5
B052
330
B43B
100
AcDbEntity
  8
A733_ストリートファニチャ
 62
     7
370
     9
100
AcDbLine
 10
180495.49968
 20
143318.66246
 30
0.0
 11
180655.49968
 21
143318.66246
 31
0.0
  0
LINE
  5
B053
330
B43B
100
AcDbEntity
  8
A733_ストリートファニチャ
 62
     7
370
     9
100
AcDbLine
 10
180655.49968
 20
143318.66246
 30
0.0
 11
180655.49968
 21
143763.66246
 31
0.0
  0
LINE
  5
B054
330
B43B
100
AcDbEntity
  8
A733_ストリートファニチャ
 62
     7
370
     9
100
AcDbLine
 10
180495.49968
 20
143763.66246
 30
0.0
 11
180655.49968
 21
143763.66246
 31
0.0
  0
LINE
  5
B055
330
B43B
100
AcDbEntity
  8
A733_ストリートファニチャ
 62
     7
370
     9
100
AcDbLine
 10
180495.49968
 20
145183.66246
 30
0.0
 11
180655.49968
 21
145183.66246
 31
0.0
  0
LINE
  5
B056
330
B43B
100
AcDbEntity
  8
A733_ストリートファニチャ
 62
     7
370
     9
100
AcDbLine
 10
180655.49968
 20
145183.66246
 30
0.0
 11
180655.49968
 21
145628.66246
 31
0.0
  0
LINE
  5
B057
330
B43B
100
AcDbEntity
  8
A733_ストリートファニチャ
 62
     7
370
     9
100
AcDbLine
 10
180495.49968
 20
145628.66246
 30
0.0
 11
180655.49968
 21
145628.66246
 31
0.0
  0
LINE
  5
B058
330
B43B
100
AcDbEntity
  8
A733_ストリートファニチャ
 62
     7
370
     9
100
AcDbLine
 10
180495.49968
 20
147048.66246
 30
0.0
 11
180655.49968
 21
147048.66246
 31
0.0
  0
LINE
  5
B059
330
B43B
100
AcDbEntity
  8
A733_ストリートファニチャ
 62
     7
370
     9
100
AcDbLine
 10
180655.49968
 20
148486.66246
 30
0.0
 11
180320.49968
 21
148486.66246
 31
0.0
  0
LINE
  5
B05A
330
B43B
100
AcDbEntity
  8
A733_ストリートファニチャ
 62
     7
370
     9
100
AcDbLine
 10
180655.49968
 20
148486.66246
 30
0.0
 11
180655.49968
 21
147048.66246
 31
0.0
  0
LINE
  5
B05B
330
B43B
100
AcDbEntity
  8
A733_ストリートファニチャ
 62
     7
370
     9
100
AcDbLine
 10
181168.49968
 20
148999.66246
 30
0.0
 11
181168.49968
 21
149334.66246
 31
0.0
  0
LINE
  5
B05C
330
B43B
100
AcDbEntity
  8
A733_ストリートファニチャ
 62
     7
370
     9
100
AcDbLine
 10
181168.49968
 20
148999.66246
 30
0.0
 11
182741.99968
 21
148999.66246
 31
0.0
  0
LINE
  5
B05D
330
B43B
100
AcDbEntity
  8
A733_ストリートファニチャ
 62
     7
370
     9
100
AcDbLine
 10
180320.49968
 20
148486.66246
 30
0.0
 11
181168.49968
 21
149334.66246
 31
0.0
  0
LINE
  5
B05E
330
B43B
100
AcDbEntity
  8
A733_ストリートファニチャ
 62
     7
370
     9
100
AcDbLine
 10
181168.49968
 20
148486.66246
 30
0.0
 11
180357.111332
 21
149298.050808
 31
0.0
  0
LINE
  5
B05F
330
B43B
100
AcDbEntity
  8
A733_ストリートファニチャ
 62
     7
370
     9
100
AcDbLine
 10
181168.49968
 20
148999.66246
 30
0.0
 11
181168.49968
 21
148486.66246
 31
0.0
  0
LINE
  5
B060
330
B43B
100
AcDbEntity
  8
A733_ストリートファニチャ
 62
     7
370
     9
100
AcDbLine
 10
180655.49968
 20
148486.66246
 30
0.0
 11
181168.49968
 21
148486.66246
 31
0.0
  0
LINE
  5
B061
330
B43B
100
AcDbEntity
  8
A733_ストリートファニチャ
 62
     7
370
     9
100
AcDbLine
 10
180655.49968
 20
148301.160277
 30
0.0
 11
180505.49968
 21
148451.160277
 31
0.0
  0
LINE
  5
B062
330
B43B
100
AcDbEntity
  8
A733_ストリートファニチャ
 62
     7
370
     9
100
AcDbLine
 10
180655.49968
 20
148089.028243
 30
0.0
 11
180505.49968
 21
148239.028243
 31
0.0
  0
LINE
  5
B063
330
B43B
100
AcDbEntity
  8
A733_ストリートファニチャ
 62
     7
370
     9
100
AcDbLine
 10
180655.49968
 20
147876.896208
 30
0.0
 11
180505.49968
 21
148026.896208
 31
0.0
  0
LINE
  5
B064
330
B43B
100
AcDbEntity
  8
A733_ストリートファニチャ
 62
     7
370
     9
100
AcDbLine
 10
180655.49968
 20
147664.764174
 30
0.0
 11
180505.49968
 21
147814.764174
 31
0.0
  0
LINE
  5
B065
330
B43B
100
AcDbEntity
  8
A733_ストリートファニチャ
 62
     7
370
     9
100
AcDbLine
 10
180655.49968
 20
147452.63214
 30
0.0
 11
180505.49968
 21
147602.63214
 31
0.0
  0
LINE
  5
B066
330
B43B
100
AcDbEntity
  8
A733_ストリートファニチャ
 62
     7
370
     9
100
AcDbLine
 10
180655.49968
 20
147240.500105
 30
0.0
 11
180505.49968
 21
147390.500105
 31
0.0
  0
LINE
  5
B067
330
B43B
100
AcDbEntity
  8
A733_ストリートファニチャ
 62
     7
370
     9
100
AcDbLine
 10
180655.49968
 20
145331.311796
 30
0.0
 11
180505.49968
 21
145481.311796
 31
0.0
  0
LINE
  5
B068
330
B43B
100
AcDbEntity
  8
A733_ストリートファニチャ
 62
     7
370
     9
100
AcDbLine
 10
180655.49968
 20
143634.255521
 30
0.0
 11
180505.49968
 21
143784.255521
 31
0.0
  0
LINE
  5
B069
330
B43B
100
AcDbEntity
  8
A733_ストリートファニチャ
 62
     7
370
     9
100
AcDbLine
 10
180655.49968
 20
143422.123487
 30
0.0
 11
180505.49968
 21
143572.123487
 31
0.0
  0
LINE
  5
B06A
330
B43B
100
AcDbEntity
  8
A733_ストリートファニチャ
 62
     7
370
     9
100
AcDbLine
 10
180655.49968
 20
141725.067212
 30
0.0
 11
180505.49968
 21
141875.067212
 31
0.0
  0
LINE
  5
B06B
330
B43B
100
AcDbEntity
  8
A733_ストリートファニチャ
 62
     7
370
     9
100
AcDbLine
 10
180615.559251
 20
141552.875607
 30
0.0
 11
180505.49968
 21
141662.935178
 31
0.0
  0
LINE
  5
B06C
330
B43B
100
AcDbEntity
  8
A733_ストリートファニチャ
 62
     7
370
     9
100
AcDbLine
 10
190942.49968
 20
148620.761995
 30
0.0
 11
190938.599215
 21
148624.66246
 31
0.0
  0
LINE
  5
B06D
330
B43B
100
AcDbEntity
  8
A733_ストリートファニチャ
 62
     7
370
     9
100
AcDbLine
 10
190942.49968
 20
148408.629961
 30
0.0
 11
190726.46718
 21
148624.66246
 31
0.0
  0
LINE
  5
B06E
330
B43B
100
AcDbEntity
  8
A733_ストリートファニチャ
 62
     7
370
     9
100
AcDbLine
 10
190942.49968
 20
148196.497926
 30
0.0
 11
190792.49968
 21
148346.497926
 31
0.0
  0
LINE
  5
B06F
330
B43B
100
AcDbEntity
  8
A733_ストリートファニチャ
 62
     7
370
     9
100
AcDbLine
 10
190664.335146
 20
148474.66246
 30
0.0
 11
190514.335146
 21
148624.66246
 31
0.0
  0
LINE
  5
B070
330
B43B
100
AcDbEntity
  8
A733_ストリートファニチャ
 62
     7
370
     9
100
AcDbLine
 10
190942.49968
 20
147984.365892
 30
0.0
 11
190792.49968
 21
148134.365892
 31
0.0
  0
LINE
  5
B071
330
B43B
100
AcDbEntity
  8
A733_ストリートファニチャ
 62
     7
370
     9
100
AcDbLine
 10
190452.203112
 20
148474.66246
 30
0.0
 11
190302.203112
 21
148624.66246
 31
0.0
  0
LINE
  5
B072
330
B43B
100
AcDbEntity
  8
A733_ストリートファニチャ
 62
     7
370
     9
100
AcDbLine
 10
190942.49968
 20
147772.233858
 30
0.0
 11
190792.49968
 21
147922.233858
 31
0.0
  0
LINE
  5
B073
330
B43B
100
AcDbEntity
  8
A733_ストリートファニチャ
 62
     7
370
     9
100
AcDbLine
 10
190240.071077
 20
148474.66246
 30
0.0
 11
190090.071077
 21
148624.66246
 31
0.0
  0
LINE
  5
B074
330
B43B
100
AcDbEntity
  8
A733_ストリートファニチャ
 62
     7
370
     9
100
AcDbLine
 10
190942.49968
 20
147560.101823
 30
0.0
 11
190792.49968
 21
147710.101823
 31
0.0
  0
LINE
  5
B075
330
B43B
100
AcDbEntity
  8
A733_ストリートファニチャ
 62
     7
370
     9
100
AcDbLine
 10
190027.939043
 20
148474.66246
 30
0.0
 11
189877.939043
 21
148624.66246
 31
0.0
  0
LINE
  5
B076
330
B43B
100
AcDbEntity
  8
A733_ストリートファニチャ
 62
     7
370
     9
100
AcDbLine
 10
190942.49968
 20
147347.969789
 30
0.0
 11
190792.49968
 21
147497.969789
 31
0.0
  0
LINE
  5
B077
330
B43B
100
AcDbEntity
  8
A733_ストリートファニチャ
 62
     7
370
     9
100
AcDbLine
 10
189815.807008
 20
148474.66246
 30
0.0
 11
189665.807008
 21
148624.66246
 31
0.0
  0
LINE
  5
B078
330
B43B
100
AcDbEntity
  8
A733_ストリートファニチャ
 62
     7
370
     9
100
AcDbLine
 10
190942.49968
 20
147135.837754
 30
0.0
 11
190792.49968
 21
147285.837754
 31
0.0
  0
LINE
  5
B079
330
B43B
100
AcDbEntity
  8
A733_ストリートファニチャ
 62
     7
370
     9
100
AcDbLine
 10
189603.674974
 20
148474.66246
 30
0.0
 11
189453.674974
 21
148624.66246
 31
0.0
  0
LINE
  5
B07A
330
B43B
100
AcDbEntity
  8
A733_ストリートファニチャ
 62
     7
370
     9
100
AcDbLine
 10
189391.54294
 20
148474.66246
 30
0.0
 11
189241.54294
 21
148624.66246
 31
0.0
  0
LINE
  5
B07B
330
B43B
100
AcDbEntity
  8
A733_ストリートファニチャ
 62
     7
370
     9
100
AcDbLine
 10
189179.410905
 20
148474.66246
 30
0.0
 11
189029.410905
 21
148624.66246
 31
0.0
  0
LINE
  5
B07C
330
B43B
100
AcDbEntity
  8
A733_ストリートファニチャ
 62
     7
370
     9
100
AcDbLine
 10
188967.278871
 20
148474.66246
 30
0.0
 11
188817.278871
 21
148624.66246
 31
0.0
  0
LINE
  5
B07D
330
B43B
100
AcDbEntity
  8
A733_ストリートファニチャ
 62
     7
370
     9
100
AcDbLine
 10
188755.146837
 20
148474.66246
 30
0.0
 11
188605.146837
 21
148624.66246
 31
0.0
  0
LINE
  5
B07E
330
B43B
100
AcDbEntity
  8
A733_ストリートファニチャ
 62
     7
370
     9
100
AcDbLine
 10
188543.014802
 20
148474.66246
 30
0.0
 11
188393.014802
 21
148624.66246
 31
0.0
  0
LINE
  5
B07F
330
B43B
100
AcDbEntity
  8
A733_ストリートファニチャ
 62
     7
370
     9
100
AcDbLine
 10
190942.49968
 20
145863.045548
 30
0.0
 11
190792.49968
 21
146013.045548
 31
0.0
  0
LINE
  5
B080
330
B43B
100
AcDbEntity
  8
A733_ストリートファニチャ
 62
     7
370
     9
100
AcDbLine
 10
190942.49968
 20
145650.913514
 30
0.0
 11
190792.49968
 21
145800.913514
 31
0.0
  0
LINE
  5
B081
330
B43B
100
AcDbEntity
  8
A733_ストリートファニチャ
 62
     7
370
     9
100
AcDbLine
 10
188118.750734
 20
148474.66246
 30
0.0
 11
187968.750734
 21
148624.66246
 31
0.0
  0
LINE
  5
B082
330
B43B
100
AcDbEntity
  8
A733_ストリートファニチャ
 62
     7
370
     9
100
AcDbLine
 10
187593.750734
 20
148999.66246
 30
0.0
 11
187443.750734
 21
149149.66246
 31
0.0
  0
LINE
  5
B083
330
B43B
100
AcDbEntity
  8
A733_ストリートファニチャ
 62
     7
370
     9
100
AcDbLine
 10
190942.49968
 20
145438.78148
 30
0.0
 11
190792.49968
 21
145588.78148
 31
0.0
  0
LINE
  5
B084
330
B43B
100
AcDbEntity
  8
A733_ストリートファニチャ
 62
     7
370
     9
100
AcDbLine
 10
187381.618699
 20
148999.66246
 30
0.0
 11
187231.618699
 21
149149.66246
 31
0.0
  0
LINE
  5
B085
330
B43B
100
AcDbEntity
  8
A733_ストリートファニチャ
 62
     7
370
     9
100
AcDbLine
 10
190942.49968
 20
145226.649445
 30
0.0
 11
190792.49968
 21
145376.649445
 31
0.0
  0
LINE
  5
B086
330
B43B
100
AcDbEntity
  8
A733_ストリートファニチャ
 62
     7
370
     9
100
AcDbLine
 10
187169.486665
 20
148999.66246
 30
0.0
 11
187019.486665
 21
149149.66246
 31
0.0
  0
LINE
  5
B087
330
B43B
100
AcDbEntity
  8
A733_ストリートファニチャ
 62
     7
370
     9
100
AcDbLine
 10
190942.49968
 20
145014.517411
 30
0.0
 11
190792.49968
 21
145164.517411
 31
0.0
  0
LINE
  5
B088
330
B43B
100
AcDbEntity
  8
A733_ストリートファニチャ
 62
     7
370
     9
100
AcDbLine
 10
186957.354631
 20
148999.66246
 30
0.0
 11
186807.354631
 21
149149.66246
 31
0.0
  0
LINE
  5
B089
330
B43B
100
AcDbEntity
  8
A733_ストリートファニチャ
 62
     7
370
     9
100
AcDbLine
 10
190942.49968
 20
144802.385377
 30
0.0
 11
190792.49968
 21
144952.385377
 31
0.0
  0
LINE
  5
B08A
330
B43B
100
AcDbEntity
  8
A733_ストリートファニチャ
 62
     7
370
     9
100
AcDbLine
 10
186745.222596
 20
148999.66246
 30
0.0
 11
186595.222596
 21
149149.66246
 31
0.0
  0
LINE
  5
B08B
330
B43B
100
AcDbEntity
  8
A733_ストリートファニチャ
 62
     7
370
     9
100
AcDbLine
 10
186533.090562
 20
148999.66246
 30
0.0
 11
186383.090562
 21
149149.66246
 31
0.0
  0
LINE
  5
B08C
330
B43B
100
AcDbEntity
  8
A733_ストリートファニチャ
 62
     7
370
     9
100
AcDbLine
 10
186320.958528
 20
148999.66246
 30
0.0
 11
186170.958528
 21
149149.66246
 31
0.0
  0
LINE
  5
B08D
330
B43B
100
AcDbEntity
  8
A733_ストリートファニチャ
 62
     7
370
     9
100
AcDbLine
 10
184411.770218
 20
148999.66246
 30
0.0
 11
184261.770218
 21
149149.66246
 31
0.0
  0
LINE
  5
B08E
330
B43B
100
AcDbEntity
  8
A733_ストリートファニチャ
 62
     7
370
     9
100
AcDbLine
 10
182714.713943
 20
148999.66246
 30
0.0
 11
182564.713943
 21
149149.66246
 31
0.0
  0
LINE
  5
B08F
330
B43B
100
AcDbEntity
  8
A733_ストリートファニチャ
 62
     7
370
     9
100
AcDbLine
 10
182502.581909
 20
148999.66246
 30
0.0
 11
182352.581909
 21
149149.66246
 31
0.0
  0
LINE
  5
B090
330
B43B
100
AcDbEntity
  8
A733_ストリートファニチャ
 62
     7
370
     9
100
AcDbLine
 10
182290.449875
 20
148999.66246
 30
0.0
 11
182140.449875
 21
149149.66246
 31
0.0
  0
LINE
  5
B091
330
B43B
100
AcDbEntity
  8
A733_ストリートファニチャ
 62
     7
370
     9
100
AcDbLine
 10
182078.31784
 20
148999.66246
 30
0.0
 11
181928.31784
 21
149149.66246
 31
0.0
  0
LINE
  5
B092
330
B43B
100
AcDbEntity
  8
A733_ストリートファニチャ
 62
     7
370
     9
100
AcDbLine
 10
181866.185806
 20
148999.66246
 30
0.0
 11
181716.185806
 21
149149.66246
 31
0.0
  0
LINE
  5
B093
330
B43B
100
AcDbEntity
  8
A733_ストリートファニチャ
 62
     7
370
     9
100
AcDbLine
 10
181654.053772
 20
148999.66246
 30
0.0
 11
181504.053772
 21
149149.66246
 31
0.0
  0
LINE
  5
B094
330
B43B
100
AcDbEntity
  8
A733_ストリートファニチャ
 62
     7
370
     9
100
AcDbLine
 10
181441.921737
 20
148999.66246
 30
0.0
 11
181291.921737
 21
149149.66246
 31
0.0
  0
LINE
  5
B095
330
B43B
100
AcDbEntity
  8
A733_ストリートファニチャ
 62
     7
370
     9
100
AcDbLine
 10
181229.789703
 20
148999.66246
 30
0.0
 11
181168.49968
 21
149060.952483
 31
0.0
  0
POINT
  5
B098
330
B43B
100
AcDbEntity
  8
A733_ストリートファニチャ
 62
     7
370
     9
100
AcDbPoint
 10
190792.49968
 20
145528.856468
 30
0.0
 50
-90.0
  0
LINE
  5
B099
330
B43B
100
AcDbEntity
  8
A733_ストリートファニチャ
 62
     7
370
     9
100
AcDbLine
 10
190942.49968
 20
144590.253342
 30
0.0
 11
190792.49968
 21
144740.253342
 31
0.0
  0
LINE
  5
B09A
330
B43B
100
AcDbEntity
  8
A733_ストリートファニチャ
 62
     7
370
     9
100
AcDbLine
 10
190942.49968
 20
144378.121308
 30
0.0
 11
190792.49968
 21
144528.121308
 31
0.0
  0
LINE
  5
B09B
330
B43B
100
AcDbEntity
  8
A733_ストリートファニチャ
 62
     7
370
     9
100
AcDbLine
 10
180655.49968
 20
141552.875607
 30
0.0
 11
180655.49968
 21
141898.66246
 31
0.0
  0
LINE
  5
B09C
330
B43B
100
AcDbEntity
  8
A733_ストリートファニチャ
 62
     7
370
     9
100
AcDbLine
 10
191001.99968
 20
141865.011698
 30
0.0
 11
191037.355019
 21
141900.367037
 31
0.0
  0
LINE
  5
B09D
330
B43B
100
AcDbEntity
  8
A733_ストリートファニチャ
 62
     7
370
     9
100
AcDbLine
 10
191037.355019
 20
141900.367037
 30
0.0
 11
191216.644341
 21
141900.367037
 31
0.0
  0
LINE
  5
B09E
330
B43B
100
AcDbEntity
  8
A733_ストリートファニチャ
 62
     7
370
     9
100
AcDbLine
 10
191216.644341
 20
141900.367037
 30
0.0
 11
191251.99968
 21
141865.011698
 31
0.0
  0
ARC
  5
B09F
330
B43B
100
AcDbEntity
  8
A733_ストリートファニチャ
 62
     7
370
     9
100
AcDbCircle
 10
197944.49968
 20
118457.766308
 30
0.0
 40
24264.99999997576
100
AcDbArc
 50
104.218874
 51
105.948814
  0
LINE
  5
B0A0
330
B43B
100
AcDbEntity
  8
A733_ストリートファニチャ
 62
     7
370
     9
100
AcDbLine
 10
191276.99968
 20
141788.747187
 30
0.0
 11
191276.99968
 21
141875.367037
 31
0.0
  0
LINE
  5
B0A1
330
B43B
100
AcDbEntity
  8
A733_ストリートファニチャ
 62
     7
370
     9
100
AcDbLine
 10
191251.99968
 20
141755.578303
 30
0.0
 11
191251.99968
 21
141865.011698
 31
0.0
  0
ARC
  5
B0A2
330
B43B
100
AcDbEntity
  8
A733_ストリートファニチャ
 62
     7
370
     9
100
AcDbCircle
 10
197944.49968
 20
118457.766308
 30
0.0
 40
24239.99999997576
100
AcDbArc
 50
104.233848
 51
106.027174
  0
LINE
  5
B0A3
330
B43B
100
AcDbEntity
  8
A733_ストリートファニチャ
 62
     7
370
     9
100
AcDbLine
 10
190026.99968
 20
141734.66246
 30
0.0
 11
191001.99968
 21
141734.66246
 31
0.0
  0
LINE
  5
B0A4
330
B43B
100
AcDbEntity
  8
A733_ストリートファニチャ
 62
     7
370
     9
100
AcDbLine
 10
191001.99968
 20
141734.66246
 30
0.0
 11
191001.99968
 21
141865.011698
 31
0.0
  0
ARC
  5
B0A5
330
B43B
100
AcDbEntity
  8
A733_ストリートファニチャ
 62
     7
370
     9
100
AcDbCircle
 10
191823.49968
 20
138064.524301
 30
0.0
 40
3724.999999996299
100
AcDbArc
 50
109.78377
 51
110.533029
  0
LINE
  5
B0A6
330
B43B
100
AcDbEntity
  8
A733_ストリートファニチャ
 62
     7
370
     9
100
AcDbLine
 10
188491.99968
 20
141569.66246
 30
0.0
 11
188491.99968
 21
141552.875607
 31
0.0
  0
LINE
  5
B0A7
330
B43B
100
AcDbEntity
  8
A733_ストリートファニチャ
 62
     7
370
     9
100
AcDbLine
 10
180590.49968
 20
143873.66246
 30
0.0
 11
180590.49968
 21
143833.66246
 31
0.0
  0
LINE
  5
B0A8
330
B43B
100
AcDbEntity
  8
A733_ストリートファニチャ
 62
     7
370
     9
100
AcDbLine
 10
180590.49968
 20
145073.66246
 30
0.0
 11
180590.49968
 21
145113.66246
 31
0.0
  0
LINE
  5
B0A9
330
B43B
100
AcDbEntity
  8
A733_ストリートファニチャ
 62
     7
370
     9
100
AcDbLine
 10
180590.49968
 20
145738.66246
 30
0.0
 11
180590.49968
 21
145698.66246
 31
0.0
  0
LINE
  5
B0AA
330
B43B
100
AcDbEntity
  8
A733_ストリートファニチャ
 62
     7
370
     9
100
AcDbLine
 10
180590.49968
 20
146938.66246
 30
0.0
 11
180590.49968
 21
146978.66246
 31
0.0
  0
LINE
  5
B0AB
330
B43B
100
AcDbEntity
  8
A733_ストリートファニチャ
 62
     7
370
     9
100
AcDbLine
 10
182851.99968
 20
149064.66246
 30
0.0
 11
182811.99968
 21
149064.66246
 31
0.0
  0
LINE
  5
B0AC
330
B43B
100
AcDbEntity
  8
A733_ストリートファニチャ
 62
     7
370
     9
100
AcDbLine
 10
184051.99968
 20
149064.66246
 30
0.0
 11
184091.99968
 21
149064.66246
 31
0.0
  0
LINE
  5
B0AD
330
B43B
100
AcDbEntity
  8
A733_ストリートファニチャ
 62
     7
370
     9
100
AcDbLine
 10
184716.99968
 20
149064.66246
 30
0.0
 11
184676.99968
 21
149064.66246
 31
0.0
  0
LINE
  5
B0AE
330
B43B
100
AcDbEntity
  8
A733_ストリートファニチャ
 62
     7
370
     9
100
AcDbLine
 10
185916.99968
 20
149064.66246
 30
0.0
 11
185956.99968
 21
149064.66246
 31
0.0
  0
LINE
  5
B0AF
330
B43B
100
AcDbEntity
  8
A733_ストリートファニチャ
 62
     7
370
     9
100
AcDbLine
 10
180655.49968
 20
148449.66246
 30
0.0
 11
181205.49968
 21
148449.66246
 31
0.0
  0
LINE
  5
B0B0
330
B43B
100
AcDbEntity
  8
A733_ストリートファニチャ
 62
     7
370
     9
100
AcDbLine
 10
181205.49968
 20
148449.66246
 30
0.0
 11
181205.49968
 21
148999.66246
 31
0.0
  0
POINT
  5
B0B1
330
B43B
100
AcDbEntity
  8
A733_ストリートファニチャ
 62
     7
370
     9
100
AcDbPoint
 10
181205.49968
 20
148149.66246
 30
0.0
 50
-90.0
  0
LINE
  5
B0B2
330
B43B
100
AcDbEntity
  8
A733_ストリートファニチャ
 62
     7
370
     9
100
AcDbLine
 10
181205.49968
 20
148149.66246
 30
0.0
 11
181205.49968
 21
148399.66246
 31
0.0
  0
LINE
  5
B0B3
330
B43B
100
AcDbEntity
  8
A733_ストリートファニチャ
 62
     7
370
     9
100
AcDbLine
 10
182821.99968
 20
149149.66246
 30
0.0
 11
182836.99968
 21
149149.66246
 31
0.0
  0
LINE
  5
B0B4
330
B43B
100
AcDbEntity
  8
A733_ストリートファニチャ
 62
     7
370
     9
100
AcDbLine
 10
182821.99968
 20
149134.66246
 30
0.0
 11
182821.99968
 21
149149.66246
 31
0.0
  0
LINE
  5
B0B5
330
B43B
100
AcDbEntity
  8
A733_ストリートファニチャ
 62
     7
370
     9
100
AcDbLine
 10
182821.99968
 20
149134.66246
 30
0.0
 11
182836.99968
 21
149134.66246
 31
0.0
  0
LINE
  5
B0B6
330
B43B
100
AcDbEntity
  8
A733_ストリートファニチャ
 62
     7
370
     9
100
AcDbLine
 10
182836.99968
 20
149134.66246
 30
0.0
 11
182836.99968
 21
149149.66246
 31
0.0
  0
LINE
  5
B0B7
330
B43B
100
AcDbEntity
  8
A733_ストリートファニチャ
 62
     7
370
     9
100
AcDbLine
 10
184081.99968
 20
149134.66246
 30
0.0
 11
184081.99968
 21
149149.66246
 31
0.0
  0
LINE
  5
B0B8
330
B43B
100
AcDbEntity
  8
A733_ストリートファニチャ
 62
     7
370
     9
100
AcDbLine
 10
184081.99968
 20
149134.66246
 30
0.0
 11
184066.99968
 21
149134.66246
 31
0.0
  0
LINE
  5
B0B9
330
B43B
100
AcDbEntity
  8
A733_ストリートファニチャ
 62
     7
370
     9
100
AcDbLine
 10
184066.99968
 20
149134.66246
 30
0.0
 11
184066.99968
 21
149149.66246
 31
0.0
  0
LINE
  5
B0BA
330
B43B
100
AcDbEntity
  8
A733_ストリートファニチャ
 62
     7
370
     9
100
AcDbLine
 10
184081.99968
 20
149149.66246
 30
0.0
 11
184066.99968
 21
149149.66246
 31
0.0
  0
LINE
  5
B0BB
330
B43B
100
AcDbEntity
  8
A733_ストリートファニチャ
 62
     7
370
     9
100
AcDbLine
 10
182856.99968
 20
149134.66246
 30
0.0
 11
182856.99968
 21
149454.66246
 31
0.0
  0
LINE
  5
B0BC
330
B43B
100
AcDbEntity
  8
A733_ストリートファニチャ
 62
     7
370
     9
100
AcDbLine
 10
184701.99968
 20
149414.66246
 30
0.0
 11
184066.99968
 21
149414.66246
 31
0.0
  0
LINE
  5
B0BD
330
B43B
100
AcDbEntity
  8
A733_ストリートファニチャ
 62
     7
370
     9
100
AcDbLine
 10
184046.99968
 20
149134.66246
 30
0.0
 11
184046.99968
 21
149454.66246
 31
0.0
  0
LINE
  5
B0BE
330
B43B
100
AcDbEntity
  8
A733_ストリートファニチャ
 62
     7
370
     9
100
AcDbLine
 10
182856.99968
 20
149454.66246
 30
0.0
 11
182656.99968
 21
149454.66246
 31
0.0
  0
LINE
  5
B0BF
330
B43B
100
AcDbEntity
  8
A733_ストリートファニチャ
 62
     7
370
     9
100
AcDbLine
 10
182656.99968
 20
149414.66246
 30
0.0
 11
182656.99968
 21
149454.66246
 31
0.0
  0
LINE
  5
B0C0
330
B43B
100
AcDbEntity
  8
A733_ストリートファニチャ
 62
     7
370
     9
100
AcDbLine
 10
184246.99968
 20
149414.66246
 30
0.0
 11
184246.99968
 21
149454.66246
 31
0.0
  0
LINE
  5
B0C1
330
B43B
100
AcDbEntity
  8
A733_ストリートファニチャ
 62
     7
370
     9
100
AcDbLine
 10
184246.99968
 20
149454.66246
 30
0.0
 11
184046.99968
 21
149454.66246
 31
0.0
  0
LINE
  5
B0C2
330
B43B
100
AcDbEntity
  8
A733_ストリートファニチャ
 62
     7
370
     9
100
AcDbLine
 10
182836.99968
 20
149149.66246
 30
0.0
 11
182836.99968
 21
149414.66246
 31
0.0
  0
LINE
  5
B0C3
330
B43B
100
AcDbEntity
  8
A733_ストリートファニチャ
 62
     7
370
     9
100
AcDbLine
 10
184066.99968
 20
149149.66246
 30
0.0
 11
184066.99968
 21
149414.66246
 31
0.0
  0
LINE
  5
B0C4
330
B43B
100
AcDbEntity
  8
A733_ストリートファニチャ
 62
     7
370
     9
100
AcDbLine
 10
184686.99968
 20
149149.66246
 30
0.0
 11
184701.99968
 21
149149.66246
 31
0.0
  0
LINE
  5
B0C5
330
B43B
100
AcDbEntity
  8
A733_ストリートファニチャ
 62
     7
370
     9
100
AcDbLine
 10
184686.99968
 20
149134.66246
 30
0.0
 11
184686.99968
 21
149149.66246
 31
0.0
  0
LINE
  5
B0C6
330
B43B
100
AcDbEntity
  8
A733_ストリートファニチャ
 62
     7
370
     9
100
AcDbLine
 10
184686.99968
 20
149134.66246
 30
0.0
 11
184701.99968
 21
149134.66246
 31
0.0
  0
LINE
  5
B0C7
330
B43B
100
AcDbEntity
  8
A733_ストリートファニチャ
 62
     7
370
     9
100
AcDbLine
 10
184701.99968
 20
149134.66246
 30
0.0
 11
184701.99968
 21
149149.66246
 31
0.0
  0
LINE
  5
B0C8
330
B43B
100
AcDbEntity
  8
A733_ストリートファニチャ
 62
     7
370
     9
100
AcDbLine
 10
185946.99968
 20
149134.66246
 30
0.0
 11
185946.99968
 21
149149.66246
 31
0.0
  0
LINE
  5
B0C9
330
B43B
100
AcDbEntity
  8
A733_ストリートファニチャ
 62
     7
370
     9
100
AcDbLine
 10
185946.99968
 20
149134.66246
 30
0.0
 11
185931.99968
 21
149134.66246
 31
0.0
  0
LINE
  5
B0CA
330
B43B
100
AcDbEntity
  8
A733_ストリートファニチャ
 62
     7
370
     9
100
AcDbLine
 10
185931.99968
 20
149134.66246
 30
0.0
 11
185931.99968
 21
149149.66246
 31
0.0
  0
LINE
  5
B0CB
330
B43B
100
AcDbEntity
  8
A733_ストリートファニチャ
 62
     7
370
     9
100
AcDbLine
 10
185946.99968
 20
149149.66246
 30
0.0
 11
185931.99968
 21
149149.66246
 31
0.0
  0
LINE
  5
B0CC
330
B43B
100
AcDbEntity
  8
A733_ストリートファニチャ
 62
     7
370
     9
100
AcDbLine
 10
184721.99968
 20
149134.66246
 30
0.0
 11
184721.99968
 21
149454.66246
 31
0.0
  0
LINE
  5
B0CD
330
B43B
100
AcDbEntity
  8
A733_ストリートファニチャ
 62
     7
370
     9
100
AcDbLine
 10
185911.99968
 20
149134.66246
 30
0.0
 11
185911.99968
 21
149454.66246
 31
0.0
  0
LINE
  5
B0CE
330
B43B
100
AcDbEntity
  8
A733_ストリートファニチャ
 62
     7
370
     9
100
AcDbLine
 10
184721.99968
 20
149454.66246
 30
0.0
 11
184521.99968
 21
149454.66246
 31
0.0
  0
LINE
  5
B0CF
330
B43B
100
AcDbEntity
  8
A733_ストリートファニチャ
 62
     7
370
     9
100
AcDbLine
 10
184701.99968
 20
149149.66246
 30
0.0
 11
184701.99968
 21
149414.66246
 31
0.0
  0
LINE
  5
B0D0
330
B43B
100
AcDbEntity
  8
A733_ストリートファニチャ
 62
     7
370
     9
100
AcDbLine
 10
185931.99968
 20
149149.66246
 30
0.0
 11
185931.99968
 21
149414.66246
 31
0.0
  0
LINE
  5
B0D1
330
B43B
100
AcDbEntity
  8
A733_ストリートファニチャ
 62
     7
370
     9
100
AcDbLine
 10
188323.49968
 20
149414.66246
 30
0.0
 11
185931.99968
 21
149414.66246
 31
0.0
  0
LINE
  5
B0D2
330
B43B
100
AcDbEntity
  8
A733_ストリートファニチャ
 62
     7
370
     9
100
AcDbLine
 10
186111.99968
 20
149414.66246
 30
0.0
 11
186111.99968
 21
149454.66246
 31
0.0
  0
LINE
  5
B0D3
330
B43B
100
AcDbEntity
  8
A733_ストリートファニチャ
 62
     7
370
     9
100
AcDbLine
 10
186111.99968
 20
149454.66246
 30
0.0
 11
185911.99968
 21
149454.66246
 31
0.0
  0
LINE
  5
B0D4
330
B43B
100
AcDbEntity
  8
A733_ストリートファニチャ
 62
     7
370
     9
100
AcDbLine
 10
184521.99968
 20
149414.66246
 30
0.0
 11
184521.99968
 21
149454.66246
 31
0.0
  0
LINE
  5
B0D5
330
B43B
100
AcDbEntity
  8
A733_ストリートファニチャ
 62
     7
370
     9
100
AcDbLine
 10
180200.49968
 20
145743.66246
 30
0.0
 11
180200.49968
 21
146933.66246
 31
0.0
  0
LINE
  5
B0D6
330
B43B
100
AcDbEntity
  8
A733_ストリートファニチャ
 62
     7
370
     9
100
AcDbLine
 10
180200.49968
 20
143878.66246
 30
0.0
 11
180200.49968
 21
145068.66246
 31
0.0
  0
LINE
  5
B0D7
330
B43B
100
AcDbEntity
  8
A733_ストリートファニチャ
 62
     7
370
     9
100
AcDbLine
 10
180505.49968
 20
143843.66246
 30
0.0
 11
180505.49968
 21
143858.66246
 31
0.0
  0
LINE
  5
B0D8
330
B43B
100
AcDbEntity
  8
A733_ストリートファニチャ
 62
     7
370
     9
100
AcDbLine
 10
180520.49968
 20
143843.66246
 30
0.0
 11
180505.49968
 21
143843.66246
 31
0.0
  0
LINE
  5
B0D9
330
B43B
100
AcDbEntity
  8
A733_ストリートファニチャ
 62
     7
370
     9
100
AcDbLine
 10
180520.49968
 20
143843.66246
 30
0.0
 11
180520.49968
 21
143858.66246
 31
0.0
  0
LINE
  5
B0DA
330
B43B
100
AcDbEntity
  8
A733_ストリートファニチャ
 62
     7
370
     9
100
AcDbLine
 10
180520.49968
 20
143858.66246
 30
0.0
 11
180505.49968
 21
143858.66246
 31
0.0
  0
LINE
  5
B0DB
330
B43B
100
AcDbEntity
  8
A733_ストリートファニチャ
 62
     7
370
     9
100
AcDbLine
 10
180520.49968
 20
145103.66246
 30
0.0
 11
180505.49968
 21
145103.66246
 31
0.0
  0
LINE
  5
B0DC
330
B43B
100
AcDbEntity
  8
A733_ストリートファニチャ
 62
     7
370
     9
100
AcDbLine
 10
180520.49968
 20
145103.66246
 30
0.0
 11
180520.49968
 21
145088.66246
 31
0.0
  0
LINE
  5
B0DD
330
B43B
100
AcDbEntity
  8
A733_ストリートファニチャ
 62
     7
370
     9
100
AcDbLine
 10
180520.49968
 20
145088.66246
 30
0.0
 11
180505.49968
 21
145088.66246
 31
0.0
  0
LINE
  5
B0DE
330
B43B
100
AcDbEntity
  8
A733_ストリートファニチャ
 62
     7
370
     9
100
AcDbLine
 10
180505.49968
 20
145103.66246
 30
0.0
 11
180505.49968
 21
145088.66246
 31
0.0
  0
LINE
  5
B0DF
330
B43B
100
AcDbEntity
  8
A733_ストリートファニチャ
 62
     7
370
     9
100
AcDbLine
 10
180520.49968
 20
143878.66246
 30
0.0
 11
180200.49968
 21
143878.66246
 31
0.0
  0
LINE
  5
B0E0
330
B43B
100
AcDbEntity
  8
A733_ストリートファニチャ
 62
     7
370
     9
100
AcDbLine
 10
180240.49968
 20
145723.66246
 30
0.0
 11
180240.49968
 21
145088.66246
 31
0.0
  0
LINE
  5
B0E1
330
B43B
100
AcDbEntity
  8
A733_ストリートファニチャ
 62
     7
370
     9
100
AcDbLine
 10
180520.49968
 20
145068.66246
 30
0.0
 11
180200.49968
 21
145068.66246
 31
0.0
  0
LINE
  5
B0E2
330
B43B
100
AcDbEntity
  8
A733_ストリートファニチャ
 62
     7
370
     9
100
AcDbLine
 10
180200.49968
 20
143878.66246
 30
0.0
 11
180200.49968
 21
143678.66246
 31
0.0
  0
LINE
  5
B0E3
330
B43B
100
AcDbEntity
  8
A733_ストリートファニチャ
 62
     7
370
     9
100
AcDbLine
 10
180240.49968
 20
143678.66246
 30
0.0
 11
180200.49968
 21
143678.66246
 31
0.0
  0
LINE
  5
B0E4
330
B43B
100
AcDbEntity
  8
A733_ストリートファニチャ
 62
     7
370
     9
100
AcDbLine
 10
180240.49968
 20
145268.66246
 30
0.0
 11
180200.49968
 21
145268.66246
 31
0.0
  0
LINE
  5
B0E5
330
B43B
100
AcDbEntity
  8
A733_ストリートファニチャ
 62
     7
370
     9
100
AcDbLine
 10
180200.49968
 20
145268.66246
 30
0.0
 11
180200.49968
 21
145068.66246
 31
0.0
  0
LINE
  5
B0E6
330
B43B
100
AcDbEntity
  8
A733_ストリートファニチャ
 62
     7
370
     9
100
AcDbLine
 10
180505.49968
 20
143858.66246
 30
0.0
 11
180240.49968
 21
143858.66246
 31
0.0
  0
LINE
  5
B0E7
330
B43B
100
AcDbEntity
  8
A733_ストリートファニチャ
 62
     7
370
     9
100
AcDbLine
 10
180505.49968
 20
145088.66246
 30
0.0
 11
180240.49968
 21
145088.66246
 31
0.0
  0
LINE
  5
B0E8
330
B43B
100
AcDbEntity
  8
A733_ストリートファニチャ
 62
     7
370
     9
100
AcDbLine
 10
180505.49968
 20
145708.66246
 30
0.0
 11
180505.49968
 21
145723.66246
 31
0.0
  0
LINE
  5
B0E9
330
B43B
100
AcDbEntity
  8
A733_ストリートファニチャ
 62
     7
370
     9
100
AcDbLine
 10
180520.49968
 20
145708.66246
 30
0.0
 11
180505.49968
 21
145708.66246
 31
0.0
  0
LINE
  5
B0EA
330
B43B
100
AcDbEntity
  8
A733_ストリートファニチャ
 62
     7
370
     9
100
AcDbLine
 10
180520.49968
 20
145708.66246
 30
0.0
 11
180520.49968
 21
145723.66246
 31
0.0
  0
LINE
  5
B0EB
330
B43B
100
AcDbEntity
  8
A733_ストリートファニチャ
 62
     7
370
     9
100
AcDbLine
 10
180520.49968
 20
145723.66246
 30
0.0
 11
180505.49968
 21
145723.66246
 31
0.0
  0
LINE
  5
B0EC
330
B43B
100
AcDbEntity
  8
A733_ストリートファニチャ
 62
     7
370
     9
100
AcDbLine
 10
180520.49968
 20
146968.66246
 30
0.0
 11
180505.49968
 21
146968.66246
 31
0.0
  0
LINE
  5
B0ED
330
B43B
100
AcDbEntity
  8
A733_ストリートファニチャ
 62
     7
370
     9
100
AcDbLine
 10
180520.49968
 20
146968.66246
 30
0.0
 11
180520.49968
 21
146953.66246
 31
0.0
  0
LINE
  5
B0EE
330
B43B
100
AcDbEntity
  8
A733_ストリートファニチャ
 62
     7
370
     9
100
AcDbLine
 10
180520.49968
 20
146953.66246
 30
0.0
 11
180505.49968
 21
146953.66246
 31
0.0
  0
LINE
  5
B0EF
330
B43B
100
AcDbEntity
  8
A733_ストリートファニチャ
 62
     7
370
     9
100
AcDbLine
 10
180505.49968
 20
146968.66246
 30
0.0
 11
180505.49968
 21
146953.66246
 31
0.0
  0
LINE
  5
B0F0
330
B43B
100
AcDbEntity
  8
A733_ストリートファニチャ
 62
     7
370
     9
100
AcDbLine
 10
180520.49968
 20
145743.66246
 30
0.0
 11
180200.49968
 21
145743.66246
 31
0.0
  0
LINE
  5
B0F1
330
B43B
100
AcDbEntity
  8
A733_ストリートファニチャ
 62
     7
370
     9
100
AcDbLine
 10
180520.49968
 20
146933.66246
 30
0.0
 11
180200.49968
 21
146933.66246
 31
0.0
  0
LINE
  5
B0F2
330
B43B
100
AcDbEntity
  8
A733_ストリートファニチャ
 62
     7
370
     9
100
AcDbLine
 10
180200.49968
 20
145743.66246
 30
0.0
 11
180200.49968
 21
145543.66246
 31
0.0
  0
LINE
  5
B0F3
330
B43B
100
AcDbEntity
  8
A733_ストリートファニチャ
 62
     7
370
     9
100
AcDbLine
 10
180505.49968
 20
145723.66246
 30
0.0
 11
180240.49968
 21
145723.66246
 31
0.0
  0
LINE
  5
B0F4
330
B43B
100
AcDbEntity
  8
A733_ストリートファニチャ
 62
     7
370
     9
100
AcDbLine
 10
180505.49968
 20
146953.66246
 30
0.0
 11
180240.49968
 21
146953.66246
 31
0.0
  0
LINE
  5
B0F5
330
B43B
100
AcDbEntity
  8
A733_ストリートファニチャ
 62
     7
370
     9
100
AcDbLine
 10
180240.49968
 20
145543.66246
 30
0.0
 11
180200.49968
 21
145543.66246
 31
0.0
  0
LINE
  5
B0F6
330
B43B
100
AcDbEntity
  8
A733_ストリートファニチャ
 62
     7
370
     9
100
AcDbLine
 10
180240.49968
 20
147133.66246
 30
0.0
 11
180200.49968
 21
147133.66246
 31
0.0
  0
LINE
  5
B0F7
330
B43B
100
AcDbEntity
  8
A733_ストリートファニチャ
 62
     7
370
     9
100
AcDbLine
 10
180200.49968
 20
147133.66246
 30
0.0
 11
180200.49968
 21
146933.66246
 31
0.0
  0
LINE
  5
B0F8
330
B43B
100
AcDbEntity
  8
A733_ストリートファニチャ
 62
     7
370
     9
100
AcDbLine
 10
182836.99968
 20
149414.66246
 30
0.0
 11
180445.49968
 21
149414.66246
 31
0.0
  0
LINE
  5
B0F9
330
B43B
100
AcDbEntity
  8
A733_ストリートファニチャ
 62
     7
370
     9
100
AcDbLine
 10
180240.49968
 20
149209.66246
 30
0.0
 11
180240.49968
 21
146953.66246
 31
0.0
  0
ARC
  5
B0FA
330
B43B
100
AcDbEntity
  8
A733_ストリートファニチャ
 62
     7
370
     9
100
AcDbCircle
 10
180445.49968
 20
149209.66246
 30
0.0
 40
205.0
100
AcDbArc
 50
90.0
 51
180.0
  0
LINE
  5
B0FB
330
B43B
100
AcDbEntity
  8
A733_ストリートファニチャ
 62
     7
370
     9
100
AcDbLine
 10
180200.49968
 20
142013.66246
 30
0.0
 11
180200.49968
 21
143203.66246
 31
0.0
  0
LINE
  5
B0FC
330
B43B
100
AcDbEntity
  8
A733_ストリートファニチャ
 62
     7
370
     9
100
AcDbLine
 10
180505.49968
 20
141978.66246
 30
0.0
 11
180505.49968
 21
141993.66246
 31
0.0
  0
LINE
  5
B0FD
330
B43B
100
AcDbEntity
  8
A733_ストリートファニチャ
 62
     7
370
     9
100
AcDbLine
 10
180520.49968
 20
141978.66246
 30
0.0
 11
180505.49968
 21
141978.66246
 31
0.0
  0
LINE
  5
B0FE
330
B43B
100
AcDbEntity
  8
A733_ストリートファニチャ
 62
     7
370
     9
100
AcDbLine
 10
180520.49968
 20
141978.66246
 30
0.0
 11
180520.49968
 21
141993.66246
 31
0.0
  0
LINE
  5
B0FF
330
B43B
100
AcDbEntity
  8
A733_ストリートファニチャ
 62
     7
370
     9
100
AcDbLine
 10
180520.49968
 20
141993.66246
 30
0.0
 11
180505.49968
 21
141993.66246
 31
0.0
  0
LINE
  5
B100
330
B43B
100
AcDbEntity
  8
A733_ストリートファニチャ
 62
     7
370
     9
100
AcDbLine
 10
180520.49968
 20
143238.66246
 30
0.0
 11
180505.49968
 21
143238.66246
 31
0.0
  0
LINE
  5
B101
330
B43B
100
AcDbEntity
  8
A733_ストリートファニチャ
 62
     7
370
     9
100
AcDbLine
 10
180520.49968
 20
143238.66246
 30
0.0
 11
180520.49968
 21
143223.66246
 31
0.0
  0
LINE
  5
B102
330
B43B
100
AcDbEntity
  8
A733_ストリートファニチャ
 62
     7
370
     9
100
AcDbLine
 10
180520.49968
 20
143223.66246
 30
0.0
 11
180505.49968
 21
143223.66246
 31
0.0
  0
LINE
  5
B103
330
B43B
100
AcDbEntity
  8
A733_ストリートファニチャ
 62
     7
370
     9
100
AcDbLine
 10
180505.49968
 20
143238.66246
 30
0.0
 11
180505.49968
 21
143223.66246
 31
0.0
  0
LINE
  5
B104
330
B43B
100
AcDbEntity
  8
A733_ストリートファニチャ
 62
     7
370
     9
100
AcDbLine
 10
180520.49968
 20
142013.66246
 30
0.0
 11
180200.49968
 21
142013.66246
 31
0.0
  0
LINE
  5
B105
330
B43B
100
AcDbEntity
  8
A733_ストリートファニチャ
 62
     7
370
     9
100
AcDbLine
 10
180520.49968
 20
143203.66246
 30
0.0
 11
180200.49968
 21
143203.66246
 31
0.0
  0
LINE
  5
B106
330
B43B
100
AcDbEntity
  8
A733_ストリートファニチャ
 62
     7
370
     9
100
AcDbLine
 10
180200.49968
 20
142013.66246
 30
0.0
 11
180200.49968
 21
141813.66246
 31
0.0
  0
LINE
  5
B107
330
B43B
100
AcDbEntity
  8
A733_ストリートファニチャ
 62
     7
370
     9
100
AcDbLine
 10
180240.49968
 20
141813.66246
 30
0.0
 11
180200.49968
 21
141813.66246
 31
0.0
  0
LINE
  5
B108
330
B43B
100
AcDbEntity
  8
A733_ストリートファニチャ
 62
     7
370
     9
100
AcDbLine
 10
180240.49968
 20
143403.66246
 30
0.0
 11
180200.49968
 21
143403.66246
 31
0.0
  0
LINE
  5
B109
330
B43B
100
AcDbEntity
  8
A733_ストリートファニチャ
 62
     7
370
     9
100
AcDbLine
 10
180200.49968
 20
143403.66246
 30
0.0
 11
180200.49968
 21
143203.66246
 31
0.0
  0
LINE
  5
B10A
330
B43B
100
AcDbEntity
  8
A733_ストリートファニチャ
 62
     7
370
     9
100
AcDbLine
 10
180505.49968
 20
141993.66246
 30
0.0
 11
180240.49968
 21
141993.66246
 31
0.0
  0
LINE
  5
B10B
330
B43B
100
AcDbEntity
  8
A733_ストリートファニチャ
 62
     7
370
     9
100
AcDbLine
 10
180240.49968
 20
143858.66246
 30
0.0
 11
180240.49968
 21
143223.66246
 31
0.0
  0
LINE
  5
B10C
330
B43B
100
AcDbEntity
  8
A733_ストリートファニチャ
 62
     7
370
     9
100
AcDbLine
 10
180505.49968
 20
143223.66246
 30
0.0
 11
180240.49968
 21
143223.66246
 31
0.0
  0
LINE
  5
B10D
330
B43B
100
AcDbEntity
  8
A733_ストリートファニチャ
 62
     7
370
     9
100
AcDbLine
 10
180240.49968
 20
141993.66246
 30
0.0
 11
180240.49968
 21
141552.875607
 31
0.0
  0
ARC
  5
B10E
330
B43B
100
AcDbEntity
  8
A733_ストリートファニチャ
 62
     7
370
     9
100
AcDbCircle
 10
188323.49968
 20
149209.66246
 30
0.0
 40
205.0
100
AcDbArc
 50
0.0
 51
90.0
  0
LINE
  5
B10F
330
B43B
100
AcDbEntity
  8
A733_ストリートファニチャ
 62
     7
370
     9
100
AcDbLine
 10
188528.49968
 20
149209.66246
 30
0.0
 11
188528.49968
 21
148889.66246
 31
0.0
  0
LINE
  5
B110
330
B43B
100
AcDbEntity
  8
A733_ストリートファニチャ
 62
     7
370
     9
100
AcDbLine
 10
187731.99968
 20
148474.66246
 30
0.0
 11
190792.49968
 21
148474.66246
 31
0.0
  0
LINE
  5
B111
330
B43B
100
AcDbEntity
  8
A733_ストリートファニチャ
 62
     7
370
     9
100
AcDbLine
 10
188330.882768
 20
148474.66246
 30
0.0
 11
188180.882768
 21
148624.66246
 31
0.0
  0
POINT
  5
B112
330
B43B
100
AcDbEntity
  8
A733_ストリートファニチャ
 62
     7
370
     9
100
AcDbPoint
 10
180946.291008
 20
147524.66246
 30
0.0
 50
-90.0
  0
POINT
  5
B113
330
B43B
100
AcDbEntity
  8
A733_ストリートファニチャ
 62
     7
370
     9
100
AcDbPoint
 10
180946.291008
 20
147602.16246
 30
0.0
 50
-90.0
  0
LINE
  5
B114
330
B43B
100
AcDbEntity
  8
A733_ストリートファニチャ
 62
     7
370
     9
100
AcDbLine
 10
180946.291008
 20
147524.66246
 30
0.0
 11
180946.291008
 21
147602.16246
 31
0.0
  0
LINE
  5
B115
330
B43B
100
AcDbEntity
  8
A733_ストリートファニチャ
 62
     7
370
     9
100
AcDbLine
 10
190792.49968
 20
147029.66246
 30
0.0
 11
191127.49968
 21
147029.66246
 31
0.0
  0
LINE
  5
B116
330
B43B
100
AcDbEntity
  8
A733_ストリートファニチャ
 62
     7
370
     9
100
AcDbLine
 10
190792.49968
 20
148474.66246
 30
0.0
 11
190792.49968
 21
147029.66246
 31
0.0
  0
LINE
  5
B117
330
B43B
100
AcDbEntity
  8
A733_ストリートファニチャ
 62
     7
370
     9
100
AcDbLine
 10
190792.49968
 20
146069.66246
 30
0.0
 11
190792.49968
 21
144363.66246
 31
0.0
  0
LINE
  5
B118
330
B43B
100
AcDbEntity
  8
A733_ストリートファニチャ
 62
     7
370
     9
100
AcDbLine
 10
190792.49968
 20
146069.66246
 30
0.0
 11
191127.49968
 21
146069.66246
 31
0.0
  0
LINE
  5
B119
330
B43B
100
AcDbEntity
  8
A733_ストリートファニチャ
 62
     7
370
     9
100
AcDbLine
 10
191127.49968
 20
146069.66246
 30
0.0
 11
191127.49968
 21
144758.66246
 31
0.0
  0
LINE
  5
B11A
330
B43B
100
AcDbEntity
  8
A733_ストリートファニチャ
 62
     7
370
     9
100
AcDbLine
 10
191179.49968
 20
146104.66246
 30
0.0
 11
191179.49968
 21
145804.66246
 31
0.0
  0
LINE
  5
B11B
330
B43B
100
AcDbEntity
  8
A733_ストリートファニチャ
 62
     7
370
     9
100
AcDbLine
 10
191127.49968
 20
145804.66246
 30
0.0
 11
191447.819682
 21
145804.66246
 31
0.0
  0
LINE
  5
B11C
330
B43B
100
AcDbEntity
  8
A733_ストリートファニチャ
 62
     7
370
     9
100
AcDbLine
 10
191127.49968
 20
145704.66246
 30
0.0
 11
191447.819682
 21
145704.66246
 31
0.0
  0
LINE
  5
B11D
330
B43B
100
AcDbEntity
  8
A733_ストリートファニチャ
 62
     7
370
     9
100
AcDbLine
 10
191179.49968
 20
146994.66246
 30
0.0
 11
191179.49968
 21
147134.66246
 31
0.0
  0
LINE
  5
B11E
330
B43B
100
AcDbEntity
  8
A733_ストリートファニチャ
 62
     7
370
     9
100
AcDbLine
 10
188528.49968
 20
148889.66246
 30
0.0
 11
191207.49968
 21
148889.66246
 31
0.0
  0
LINE
  5
B11F
330
B43B
100
AcDbEntity
  8
A733_ストリートファニチャ
 62
     7
370
     9
100
AcDbLine
 10
191304.49968
 20
145834.66246
 30
0.0
 11
191304.49968
 21
145804.66246
 31
0.0
  0
LINE
  5
B120
330
B43B
100
AcDbEntity
  8
A733_ストリートファニチャ
 62
     7
370
     9
100
AcDbLine
 10
191179.49968
 20
145834.66246
 30
0.0
 11
191304.49968
 21
145834.66246
 31
0.0
  0
LINE
  5
B121
330
B43B
100
AcDbEntity
  8
A733_ストリートファニチャ
 62
     7
370
     9
100
AcDbLine
 10
191231.99968
 20
145819.66246
 30
0.0
 11
191251.99968
 21
145819.66246
 31
0.0
  0
LINE
  5
B122
330
B43B
100
AcDbEntity
  8
A733_ストリートファニチャ
 62
     7
370
     9
100
AcDbLine
 10
191231.99968
 20
145819.66246
 30
0.0
 11
191231.99968
 21
145834.66246
 31
0.0
  0
LINE
  5
B123
330
B43B
100
AcDbEntity
  8
A733_ストリートファニチャ
 62
     7
370
     9
100
AcDbLine
 10
191251.99968
 20
145819.66246
 30
0.0
 11
191251.99968
 21
145834.66246
 31
0.0
  0
LINE
  5
B124
330
B43B
100
AcDbEntity
  8
A733_ストリートファニチャ
 62
     7
370
     9
100
AcDbLine
 10
191304.49968
 20
147104.66246
 30
0.0
 11
191304.49968
 21
147134.66246
 31
0.0
  0
LINE
  5
B125
330
B43B
100
AcDbEntity
  8
A733_ストリートファニチャ
 62
     7
370
     9
100
AcDbLine
 10
191179.49968
 20
147104.66246
 30
0.0
 11
191304.49968
 21
147104.66246
 31
0.0
  0
LINE
  5
B126
330
B43B
100
AcDbEntity
  8
A733_ストリートファニチャ
 62
     7
370
     9
100
AcDbLine
 10
191231.99968
 20
147119.66246
 30
0.0
 11
191251.99968
 21
147119.66246
 31
0.0
  0
LINE
  5
B127
330
B43B
100
AcDbEntity
  8
A733_ストリートファニチャ
 62
     7
370
     9
100
AcDbLine
 10
191231.99968
 20
147119.66246
 30
0.0
 11
191231.99968
 21
147104.66246
 31
0.0
  0
LINE
  5
B128
330
B43B
100
AcDbEntity
  8
A733_ストリートファニチャ
 62
     7
370
     9
100
AcDbLine
 10
191251.99968
 20
147119.66246
 30
0.0
 11
191251.99968
 21
147104.66246
 31
0.0
  0
LINE
  5
B129
330
B43B
100
AcDbEntity
  8
A733_ストリートファニチャ
 62
     7
370
     9
100
AcDbLine
 10
190792.49968
 20
144408.66246
 30
0.0
 11
188201.99968
 21
144408.66246
 31
0.0
  0
LINE
  5
B12A
330
B43B
100
AcDbEntity
  8
A733_ストリートファニチャ
 62
     7
370
     9
100
AcDbLine
 10
188246.99968
 20
144363.66246
 30
0.0
 11
190792.49968
 21
144363.66246
 31
0.0
  0
LINE
  5
B12B
330
B43B
100
AcDbEntity
  8
A733_ストリートファニチャ
 62
     7
370
     9
100
AcDbLine
 10
188201.99968
 20
143332.66246
 30
0.0
 11
188201.99968
 21
144408.66246
 31
0.0
  0
POINT
  5
B12C
330
B43B
100
AcDbEntity
  8
A733_ストリートファニチャ
 62
     7
370
     9
100
AcDbPoint
 10
180655.49968
 20
145406.16246
 30
0.0
 50
-90.0
  0
LINE
  5
B12D
330
B43B
100
AcDbEntity
  8
A733_ストリートファニチャ
 62
     7
370
     9
100
AcDbLine
 10
188266.99968
 20
142948.66246
 30
0.0
 11
188161.99968
 21
142948.66246
 31
0.0
  0
LINE
  5
B12E
330
B43B
100
AcDbEntity
  8
A733_ストリートファニチャ
 62
     7
370
     9
100
AcDbLine
 10
188161.99968
 20
142948.66246
 30
0.0
 11
188161.99968
 21
142873.66246
 31
0.0
  0
LINE
  5
B12F
330
B43B
100
AcDbEntity
  8
A733_ストリートファニチャ
 62
     7
370
     9
100
AcDbLine
 10
188371.99968
 20
142903.66246
 30
0.0
 11
188266.99968
 21
142903.66246
 31
0.0
  0
LINE
  5
B130
330
B43B
100
AcDbEntity
  8
A733_ストリートファニチャ
 62
     7
370
     9
100
AcDbLine
 10
188371.99968
 20
142903.66246
 30
0.0
 11
188371.99968
 21
142853.66246
 31
0.0
  0
LINE
  5
B131
330
B43B
100
AcDbEntity
  8
A733_ストリートファニチャ
 62
     7
370
     9
100
AcDbLine
 10
188371.99968
 20
142853.66246
 30
0.0
 11
188266.99968
 21
142853.66246
 31
0.0
  0
LINE
  5
B132
330
B43B
100
AcDbEntity
  8
A733_ストリートファニチャ
 62
     7
370
     9
100
AcDbLine
 10
188266.99968
 20
142948.66246
 30
0.0
 11
188266.99968
 21
141953.66246
 31
0.0
  0
LINE
  5
B133
330
B43B
100
AcDbEntity
  8
A733_ストリートファニチャ
 62
     7
370
     9
100
AcDbLine
 10
188221.99968
 20
142873.66246
 30
0.0
 11
188161.99968
 21
142873.66246
 31
0.0
  0
LINE
  5
B134
330
B43B
100
AcDbEntity
  8
A733_ストリートファニチャ
 62
     7
370
     9
100
AcDbLine
 10
188221.99968
 20
142873.66246
 30
0.0
 11
188221.99968
 21
142863.66246
 31
0.0
  0
LINE
  5
B135
330
B43B
100
AcDbEntity
  8
A733_ストリートファニチャ
 62
     7
370
     9
100
AcDbLine
 10
188266.99968
 20
142863.66246
 30
0.0
 11
188221.99968
 21
142863.66246
 31
0.0
  0
LINE
  5
B136
330
B43B
100
AcDbEntity
  8
A733_ストリートファニチャ
 62
     7
370
     9
100
AcDbLine
 10
188221.99968
 20
141933.66246
 30
0.0
 11
188161.99968
 21
141933.66246
 31
0.0
  0
LINE
  5
B137
330
B43B
100
AcDbEntity
  8
A733_ストリートファニチャ
 62
     7
370
     9
100
AcDbLine
 10
188221.99968
 20
141933.66246
 30
0.0
 11
188221.99968
 21
141943.66246
 31
0.0
  0
LINE
  5
B138
330
B43B
100
AcDbEntity
  8
A733_ストリートファニチャ
 62
     7
370
     9
100
AcDbLine
 10
188266.99968
 20
141858.66246
 30
0.0
 11
188266.99968
 21
141953.66246
 31
0.0
  0
LINE
  5
B139
330
B43B
100
AcDbEntity
  8
A733_ストリートファニチャ
 62
     7
370
     9
100
AcDbLine
 10
188266.99968
 20
141943.66246
 30
0.0
 11
188221.99968
 21
141943.66246
 31
0.0
  0
LINE
  5
B13A
330
B43B
100
AcDbEntity
  8
A733_ストリートファニチャ
 62
     7
370
     9
100
AcDbLine
 10
188371.99968
 20
141953.66246
 30
0.0
 11
188266.99968
 21
141953.66246
 31
0.0
  0
LINE
  5
B13B
330
B43B
100
AcDbEntity
  8
A733_ストリートファニチャ
 62
     7
370
     9
100
AcDbLine
 10
188371.99968
 20
141903.66246
 30
0.0
 11
188371.99968
 21
141953.66246
 31
0.0
  0
LINE
  5
B13C
330
B43B
100
AcDbEntity
  8
A733_ストリートファニチャ
 62
     7
370
     9
100
AcDbLine
 10
188371.99968
 20
141903.66246
 30
0.0
 11
188266.99968
 21
141903.66246
 31
0.0
  0
LINE
  5
B13D
330
B43B
100
AcDbEntity
  8
A733_ストリートファニチャ
 62
     7
370
     9
100
AcDbLine
 10
188161.99968
 20
141858.66246
 30
0.0
 11
188161.99968
 21
141933.66246
 31
0.0
  0
LINE
  5
B13E
330
B43B
100
AcDbEntity
  8
A733_ストリートファニチャ
 62
     7
370
     9
100
AcDbLine
 10
188266.99968
 20
141858.66246
 30
0.0
 11
188161.99968
 21
141858.66246
 31
0.0
  0
LINE
  5
B13F
330
B43B
100
AcDbEntity
  8
A733_ストリートファニチャ
 62
     7
370
     9
100
AcDbLine
 10
188221.99968
 20
142863.66246
 30
0.0
 11
188221.99968
 21
141943.66246
 31
0.0
  0
LINE
  5
B140
330
B43B
100
AcDbEntity
  8
A733_ストリートファニチャ
 62
     7
370
     9
100
AcDbLine
 10
188201.99968
 20
141933.66246
 30
0.0
 11
188201.99968
 21
142873.66246
 31
0.0
  0
LINE
  5
B141
330
B43B
100
AcDbEntity
  8
A733_ストリートファニチャ
 62
     7
370
     9
100
AcDbLine
 10
188401.99968
 20
141943.66246
 30
0.0
 11
188401.99968
 21
142863.66246
 31
0.0
  0
LINE
  5
B142
330
B43B
100
AcDbEntity
  8
A733_ストリートファニチャ
 62
     7
370
     9
100
AcDbLine
 10
188246.99968
 20
144363.66246
 30
0.0
 11
188246.99968
 21
142973.66246
 31
0.0
  0
LINE
  5
B143
330
B43B
100
AcDbEntity
  8
A733_ストリートファニチャ
 62
     7
370
     9
100
AcDbLine
 10
188446.99968
 20
142973.66246
 30
0.0
 11
188246.99968
 21
142973.66246
 31
0.0
  0
LINE
  5
B144
330
B43B
100
AcDbEntity
  8
A733_ストリートファニチャ
 62
     7
370
     9
100
AcDbLine
 10
188446.99968
 20
143636.66246
 30
0.0
 11
188446.99968
 21
142973.66246
 31
0.0
  0
LINE
  5
B145
330
B43B
100
AcDbEntity
  8
A733_ストリートファニチャ
 62
     7
370
     9
100
AcDbLine
 10
188246.99968
 20
141833.66246
 30
0.0
 11
188246.99968
 21
141552.875607
 31
0.0
  0
LINE
  5
B146
330
B43B
100
AcDbEntity
  8
A733_ストリートファニチャ
 62
     7
370
     9
100
AcDbLine
 10
188446.99968
 20
141833.66246
 30
0.0
 11
188246.99968
 21
141833.66246
 31
0.0
  0
LINE
  5
B147
330
B43B
100
AcDbEntity
  8
A733_ストリートファニチャ
 62
     7
370
     9
100
AcDbLine
 10
188446.99968
 20
141833.66246
 30
0.0
 11
188446.99968
 21
141734.66246
 31
0.0
  0
LINE
  5
B148
330
B43B
100
AcDbEntity
  8
A733_ストリートファニチャ
 62
     7
370
     9
100
AcDbLine
 10
188201.99968
 20
142948.66246
 30
0.0
 11
188201.99968
 21
143248.66246
 31
0.0
  0
LINE
  5
B149
330
B43B
100
AcDbEntity
  8
A733_ストリートファニチャ
 62
     7
370
     9
100
AcDbLine
 10
188491.99968
 20
141943.66246
 30
0.0
 11
188491.99968
 21
141779.66246
 31
0.0
  0
LINE
  5
B14A
330
B43B
100
AcDbEntity
  8
A733_ストリートファニチャ
 62
     7
370
     9
100
AcDbLine
 10
188491.99968
 20
141943.66246
 30
0.0
 11
188371.99968
 21
141943.66246
 31
0.0
  0
LINE
  5
B14B
330
B43B
100
AcDbEntity
  8
A733_ストリートファニチャ
 62
     7
370
     9
100
AcDbLine
 10
188491.99968
 20
143591.66246
 30
0.0
 11
188491.99968
 21
142863.66246
 31
0.0
  0
LINE
  5
B14C
330
B43B
100
AcDbEntity
  8
A733_ストリートファニチャ
 62
     7
370
     9
100
AcDbLine
 10
188491.99968
 20
142863.66246
 30
0.0
 11
188371.99968
 21
142863.66246
 31
0.0
  0
LINE
  5
B14D
330
B43B
100
AcDbEntity
  8
A733_ストリートファニチャ
 62
     7
370
     9
100
AcDbLine
 10
188201.99968
 20
141858.66246
 30
0.0
 11
188201.99968
 21
141552.875607
 31
0.0
  0
LINE
  5
B14E
330
B43B
100
AcDbEntity
  8
A733_ストリートファニチャ
 62
     7
370
     9
100
AcDbLine
 10
188186.99968
 20
141858.66246
 30
0.0
 11
188186.99968
 21
141552.875607
 31
0.0
  0
LINE
  5
B14F
330
B43B
100
AcDbEntity
  8
A733_ストリートファニチャ
 62
     7
370
     9
100
AcDbLine
 10
188186.99968
 20
142948.66246
 30
0.0
 11
188186.99968
 21
143248.66246
 31
0.0
  0
LINE
  5
B150
330
B43B
100
AcDbEntity
  8
A733_ストリートファニチャ
 62
     7
370
     9
100
AcDbLine
 10
185891.99968
 20
143258.16246
 30
0.0
 11
185891.99968
 21
143323.16246
 31
0.0
  0
LINE
  5
B151
330
B43B
100
AcDbEntity
  8
A733_ストリートファニチャ
 62
     7
370
     9
100
AcDbLine
 10
187831.99968
 20
143258.16246
 30
0.0
 11
187831.99968
 21
143323.16246
 31
0.0
  0
LINE
  5
B152
330
B43B
100
AcDbEntity
  8
A733_ストリートファニチャ
 62
     7
370
     9
100
AcDbLine
 10
188246.99968
 20
143323.16246
 30
0.0
 11
187831.99968
 21
143323.16246
 31
0.0
  0
LINE
  5
B153
330
B43B
100
AcDbEntity
  8
A733_ストリートファニチャ
 62
     7
370
     9
100
AcDbLine
 10
188246.99968
 20
143258.16246
 30
0.0
 11
187831.99968
 21
143258.16246
 31
0.0
  0
LINE
  5
B154
330
B43B
100
AcDbEntity
  8
A733_ストリートファニチャ
 62
     7
370
     9
100
AcDbLine
 10
185891.99968
 20
143258.16246
 30
0.0
 11
180655.49968
 21
143258.16246
 31
0.0
  0
LINE
  5
B155
330
B43B
100
AcDbEntity
  8
A733_ストリートファニチャ
 62
     7
370
     9
100
AcDbLine
 10
180655.49968
 20
143323.16246
 30
0.0
 11
180655.49968
 21
143258.16246
 31
0.0
  0
SOLID
  5
B156
330
B43B
100
AcDbEntity
  8
A733_ストリートファニチャ
 62
     7
370
     9
100
AcDbTrace
 10
-184161.99968
 20
148999.66246
 30
0.0
 11
-184606.99968
 21
149159.66246
 31
0.0
 12
-184606.99968
 22
148999.66246
 32
0.0
 13
-184606.99968
 23
148999.66246
 33
0.0
210
0.0
220
0.0
230
-1.0
  0
SOLID
  5
B157
330
B43B
100
AcDbEntity
  8
A733_ストリートファニチャ
 62
     7
370
     9
100
AcDbTrace
 10
184161.99968
 20
149159.66246
 30
0.0
 11
184101.99968
 21
149334.66246
 31
0.0
 12
184101.99968
 22
149159.66246
 32
0.0
 13
184101.99968
 23
149159.66246
 33
0.0
  0
SOLID
  5
B158
330
B43B
100
AcDbEntity
  8
A733_ストリートファニチャ
 62
     7
370
     9
100
AcDbTrace
 10
184666.99968
 20
149334.66246
 30
0.0
 11
184161.99968
 21
148999.66246
 31
0.0
 12
184161.99968
 22
149159.66246
 32
0.0
 13
184161.99968
 23
149159.66246
 33
0.0
  0
SOLID
  5
B159
330
B43B
100
AcDbEntity
  8
A733_ストリートファニチャ
 62
     7
370
     9
100
AcDbTrace
 10
-184666.99968
 20
149334.66246
 30
0.0
 11
-184101.99968
 21
149334.66246
 31
0.0
 12
-184161.99968
 22
149159.66246
 32
0.0
 13
-184161.99968
 23
149159.66246
 33
0.0
210
0.0
220
0.0
230
-1.0
  0
SOLID
  5
B15A
330
B43B
100
AcDbEntity
  8
A733_ストリートファニチャ
 62
     7
370
     9
100
AcDbTrace
 10
-184666.99968
 20
149334.66246
 30
0.0
 11
-184606.99968
 21
149159.66246
 31
0.0
 12
-184666.99968
 22
149159.66246
 32
0.0
 13
-184666.99968
 23
149159.66246
 33
0.0
210
0.0
220
0.0
230
-1.0
  0
SOLID
  5
B15B
330
B43B
100
AcDbEntity
  8
A733_ストリートファニチャ
 62
     7
370
     9
100
AcDbTrace
 10
-184161.99968
 20
148999.66246
 30
0.0
 11
-184666.99968
 21
149334.66246
 31
0.0
 12
-184606.99968
 22
149159.66246
 32
0.0
 13
-184606.99968
 23
149159.66246
 33
0.0
210
0.0
220
0.0
230
-1.0
  0
SOLID
  5
B15C
330
B43B
100
AcDbEntity
  8
A733_ストリートファニチャ
 62
     7
370
     9
100
AcDbTrace
 10
-180655.49968
 20
143318.66246
 30
0.0
 11
-180495.49968
 21
143763.66246
 31
0.0
 12
-180655.49968
 22
143763.66246
 32
0.0
 13
-180655.49968
 23
143763.66246
 33
0.0
210
0.0
220
0.0
230
-1.0
  0
SOLID
  5
B15D
330
B43B
100
AcDbEntity
  8
A733_ストリートファニチャ
 62
     7
370
     9
100
AcDbTrace
 10
-180495.49968
 20
143318.66246
 30
0.0
 11
-180320.49968
 21
143258.66246
 31
0.0
 12
-180495.49968
 22
143258.66246
 32
0.0
 13
-180495.49968
 23
143258.66246
 33
0.0
210
0.0
220
0.0
230
-1.0
  0
SOLID
  5
B15E
330
B43B
100
AcDbEntity
  8
A733_ストリートファニチャ
 62
     7
370
     9
100
AcDbTrace
 10
180320.49968
 20
143823.66246
 30
0.0
 11
180655.49968
 21
143318.66246
 31
0.0
 12
180495.49968
 22
143318.66246
 32
0.0
 13
180495.49968
 23
143318.66246
 33
0.0
  0
SOLID
  5
B15F
330
B43B
100
AcDbEntity
  8
A733_ストリートファニチャ
 62
     7
370
     9
100
AcDbTrace
 10
-180320.49968
 20
143823.66246
 30
0.0
 11
-180320.49968
 21
143258.66246
 31
0.0
 12
-180495.49968
 22
143318.66246
 32
0.0
 13
-180495.49968
 23
143318.66246
 33
0.0
210
0.0
220
0.0
230
-1.0
  0
SOLID
  5
B160
330
B43B
100
AcDbEntity
  8
A733_ストリートファニチャ
 62
     7
370
     9
100
AcDbTrace
 10
180320.49968
 20
143823.66246
 30
0.0
 11
180495.49968
 21
143763.66246
 31
0.0
 12
180495.49968
 22
143823.66246
 32
0.0
 13
180495.49968
 23
143823.66246
 33
0.0
  0
SOLID
  5
B161
330
B43B
100
AcDbEntity
  8
A733_ストリートファニチャ
 62
     7
370
     9
100
AcDbTrace
 10
-180655.49968
 20
143318.66246
 30
0.0
 11
-180320.49968
 21
143823.66246
 31
0.0
 12
-180495.49968
 22
143763.66246
 32
0.0
 13
-180495.49968
 23
143763.66246
 33
0.0
210
0.0
220
0.0
230
-1.0
  0
SOLID
  5
B162
330
B43B
100
AcDbEntity
  8
A733_ストリートファニチャ
 62
     7
370
     9
100
AcDbTrace
 10
-180655.49968
 20
145183.66246
 30
0.0
 11
-180495.49968
 21
145628.66246
 31
0.0
 12
-180655.49968
 22
145628.66246
 32
0.0
 13
-180655.49968
 23
145628.66246
 33
0.0
210
0.0
220
0.0
230
-1.0
  0
SOLID
  5
B163
330
B43B
100
AcDbEntity
  8
A733_ストリートファニチャ
 62
     7
370
     9
100
AcDbTrace
 10
-180495.49968
 20
145183.66246
 30
0.0
 11
-180320.49968
 21
145123.66246
 31
0.0
 12
-180495.49968
 22
145123.66246
 32
0.0
 13
-180495.49968
 23
145123.66246
 33
0.0
210
0.0
220
0.0
230
-1.0
  0
SOLID
  5
B164
330
B43B
100
AcDbEntity
  8
A733_ストリートファニチャ
 62
     7
370
     9
100
AcDbTrace
 10
180320.49968
 20
145688.66246
 30
0.0
 11
180655.49968
 21
145183.66246
 31
0.0
 12
180495.49968
 22
145183.66246
 32
0.0
 13
180495.49968
 23
145183.66246
 33
0.0
  0
SOLID
  5
B165
330
B43B
100
AcDbEntity
  8
A733_ストリートファニチャ
 62
     7
370
     9
100
AcDbTrace
 10
-180320.49968
 20
145688.66246
 30
0.0
 11
-180320.49968
 21
145123.66246
 31
0.0
 12
-180495.49968
 22
145183.66246
 32
0.0
 13
-180495.49968
 23
145183.66246
 33
0.0
210
0.0
220
0.0
230
-1.0
  0
SOLID
  5
B166
330
B43B
100
AcDbEntity
  8
A733_ストリートファニチャ
 62
     7
370
     9
100
AcDbTrace
 10
180320.49968
 20
145688.66246
 30
0.0
 11
180495.49968
 21
145628.66246
 31
0.0
 12
180495.49968
 22
145688.66246
 32
0.0
 13
180495.49968
 23
145688.66246
 33
0.0
  0
SOLID
  5
B167
330
B43B
100
AcDbEntity
  8
A733_ストリートファニチャ
 62
     7
370
     9
100
AcDbTrace
 10
-180655.49968
 20
145183.66246
 30
0.0
 11
-180320.49968
 21
145688.66246
 31
0.0
 12
-180495.49968
 22
145628.66246
 32
0.0
 13
-180495.49968
 23
145628.66246
 33
0.0
210
0.0
220
0.0
230
-1.0
  0
SOLID
  5
B168
330
B43B
100
AcDbEntity
  8
A733_ストリートファニチャ
 62
     7
370
     9
100
AcDbTrace
 10
-188246.99968
 20
142973.66246
 30
0.0
 11
-188446.99968
 21
143636.66246
 31
0.0
 12
-188446.99968
 22
142973.66246
 32
0.0
 13
-188446.99968
 23
142973.66246
 33
0.0
210
0.0
220
0.0
230
-1.0
  0
SOLID
  5
B169
330
B43B
100
AcDbEntity
  8
A733_ストリートファニチャ
 62
     7
370
     9
100
AcDbTrace
 10
-190792.49968
 20
144212.66246
 30
0.0
 11
-188246.99968
 21
144363.66246
 31
0.0
 12
-188791.99968
 22
144212.66246
 32
0.0
 13
-188791.99968
 23
144212.66246
 33
0.0
210
0.0
220
0.0
230
-1.0
  0
SOLID
  5
B16A
330
B43B
100
AcDbEntity
  8
A733_ストリートファニチャ
 62
     7
370
     9
100
AcDbTrace
 10
-188246.99968
 20
144363.66246
 30
0.0
 11
-188791.99968
 21
143636.66246
 31
0.0
 12
-188791.99968
 22
144212.66246
 32
0.0
 13
-188791.99968
 23
144212.66246
 33
0.0
210
0.0
220
0.0
230
-1.0
  0
SOLID
  5
B16B
330
B43B
100
AcDbEntity
  8
A733_ストリートファニチャ
 62
     7
370
     9
100
AcDbTrace
 10
-188246.99968
 20
142973.66246
 30
0.0
 11
-188246.99968
 21
144363.66246
 31
0.0
 12
-188446.99968
 22
143636.66246
 32
0.0
 13
-188446.99968
 23
143636.66246
 33
0.0
210
0.0
220
0.0
230
-1.0
  0
SOLID
  5
B16C
330
B43B
100
AcDbEntity
  8
A733_ストリートファニチャ
 62
     7
370
     9
100
AcDbTrace
 10
188791.99968
 20
143636.66246
 30
0.0
 11
188246.99968
 21
144363.66246
 31
0.0
 12
188446.99968
 22
143636.66246
 32
0.0
 13
188446.99968
 23
143636.66246
 33
0.0
  0
SOLID
  5
B16D
330
B43B
100
AcDbEntity
  8
A733_ストリートファニチャ
 62
     7
370
     9
100
AcDbTrace
 10
190792.49968
 20
144363.66246
 30
0.0
 11
191127.49968
 21
146069.66246
 31
0.0
 12
190792.49968
 22
146069.66246
 32
0.0
 13
190792.49968
 23
146069.66246
 33
0.0
  0
SOLID
  5
B16E
330
B43B
100
AcDbEntity
  8
A733_ストリートファニチャ
 62
     7
370
     9
100
AcDbTrace
 10
-191127.49968
 20
146069.66246
 30
0.0
 11
-190792.49968
 21
144363.66246
 31
0.0
 12
-191127.49968
 22
144758.66246
 32
0.0
 13
-191127.49968
 23
144758.66246
 33
0.0
210
0.0
220
0.0
230
-1.0
  0
SOLID
  5
B16F
330
B43B
100
AcDbEntity
  8
A733_ストリートファニチャ
 62
     7
370
     9
100
AcDbTrace
 10
191984.367332
 20
144739.690992
 30
0.0
 11
191984.367332
 21
144758.66246
 31
0.0
 12
190792.49968
 22
144363.66246
 32
0.0
 13
191127.49968
 23
144758.66246
 33
0.0
  0
SOLID
  5
B172
330
B43B
100
AcDbEntity
  8
A733_ストリートファニチャ
 62
     7
370
     9
100
AcDbTrace
 10
191984.367332
 20
143874.349382
 30
0.0
 11
191984.367332
 21
144739.690992
 31
0.0
 12
190792.49968
 22
144363.66246
 32
0.0
 13
190792.49968
 23
144363.66246
 33
0.0
  0
SOLID
  5
B175
330
B43B
100
AcDbEntity
  8
A733_ストリートファニチャ
 62
     7
370
     9
100
AcDbTrace
 10
190792.49968
 20
144212.66246
 30
0.0
 11
188246.99968
 21
144363.66246
 31
0.0
 12
190792.49968
 22
144363.66246
 32
0.0
 13
190792.49968
 23
144363.66246
 33
0.0
  0
SOLID
  5
B176
330
B43B
100
AcDbEntity
  8
A733_ストリートファニチャ
 62
     7
370
     9
100
AcDbTrace
 10
-191984.367332
 20
143849.66246
 30
0.0
 11
-191984.367332
 21
143867.096998
 31
0.0
 12
-190792.49968
 22
143849.66246
 32
0.0
 13
-190792.49968
 23
144212.66246
 33
0.0
210
0.0
220
0.0
230
-1.0
  0
SOLID
  5
B179
330
B43B
100
AcDbEntity
  8
A733_ストリートファニチャ
 62
     7
370
     9
100
AcDbTrace
 10
-191984.367332
 20
143867.096998
 30
0.0
 11
-191984.367332
 21
143874.349382
 31
0.0
 12
-190792.49968
 22
144212.66246
 32
0.0
 13
-190792.49968
 23
144363.66246
 33
0.0
210
0.0
220
0.0
230
-1.0
  0
SOLID
  5
B17C
330
B43B
100
AcDbEntity
  8
A733_ストリートファニチャ
 62
     7
370
     9
100
AcDbTrace
 10
180320.49968
 20
141552.875607
 30
0.0
 11
180454.711225
 21
141552.875607
 31
0.0
 12
180320.49968
 22
141958.66246
 32
0.0
 13
180495.49968
 23
141958.66246
 33
0.0
  0
SOLID
  5
B17F
330
B43B
100
AcDbEntity
  8
A733_ストリートファニチャ
 62
     7
370
     9
100
AcDbTrace
 10
-180454.711225
 20
141552.875607
 30
0.0
 11
-180459.501643
 21
141552.875607
 31
0.0
 12
-180495.49968
 22
141958.66246
 32
0.0
 13
-180495.49968
 23
141898.66246
 33
0.0
210
0.0
220
0.0
230
-1.0
  0
SOLID
  5
B182
330
B43B
100
AcDbEntity
  8
A733_ストリートファニチャ
 62
     7
370
     9
100
AcDbTrace
 10
180459.501643
 20
141552.875607
 30
0.0
 11
180586.589153
 21
141552.875607
 31
0.0
 12
180495.49968
 22
141898.66246
 32
0.0
 13
180655.49968
 23
141898.66246
 33
0.0
  0
SOLID
  5
B185
330
B43B
100
AcDbEntity
  8
A733_ストリートファニチャ
 62
     7
370
     9
100
AcDbTrace
 10
-180586.589153
 20
141552.875607
 30
0.0
 11
-180655.49968
 21
141552.875607
 31
0.0
 12
-180655.49968
 22
141898.66246
 32
0.0
 13
-180655.49968
 23
141898.66246
 33
0.0
210
0.0
220
0.0
230
-1.0
  0
SOLID
  5
B188
330
B43B
100
AcDbEntity
  8
A733_ストリートファニチャ
 62
     7
370
     9
100
AcDbTrace
 10
180337.246504
 20
149272.16246
 30
0.0
 11
180382.99968
 21
149317.915635
 31
0.0
 12
180357.111332
 22
149298.050808
 32
0.0
 13
180357.111332
 23
149298.050808
 33
0.0
  0
SOLID
  5
B189
330
B43B
100
AcDbEntity
  8
A733_ストリートファニチャ
 62
     7
370
     9
100
AcDbTrace
 10
180337.246504
 20
149272.16246
 30
0.0
 11
180413.147299
 21
149330.403188
 31
0.0
 12
180382.99968
 22
149317.915635
 32
0.0
 13
180382.99968
 23
149317.915635
 33
0.0
  0
SOLID
  5
B18A
330
B43B
100
AcDbEntity
  8
A733_ストリートファニチャ
 62
     7
370
     9
100
AcDbTrace
 10
180337.246504
 20
149272.16246
 30
0.0
 11
180445.49968
 21
149334.66246
 31
0.0
 12
180413.147299
 22
149330.403188
 32
0.0
 13
180413.147299
 23
149330.403188
 33
0.0
  0
SOLID
  5
B18B
330
B43B
100
AcDbEntity
  8
A733_ストリートファニチャ
 62
     7
370
     9
100
AcDbTrace
 10
180337.246504
 20
149272.16246
 30
0.0
 11
182801.99968
 21
149334.66246
 31
0.0
 12
180445.49968
 22
149334.66246
 32
0.0
 13
180445.49968
 23
149334.66246
 33
0.0
  0
SOLID
  5
B18C
330
B43B
100
AcDbEntity
  8
A733_ストリートファニチャ
 62
     7
370
     9
100
AcDbTrace
 10
180337.246504
 20
149272.16246
 30
0.0
 11
182801.99968
 21
149159.66246
 31
0.0
 12
182801.99968
 22
149334.66246
 32
0.0
 13
182801.99968
 23
149334.66246
 33
0.0
  0
SOLID
  5
B18D
330
B43B
100
AcDbEntity
  8
A733_ストリートファニチャ
 62
     7
370
     9
100
AcDbTrace
 10
-182801.99968
 20
149159.66246
 30
0.0
 11
-180337.246504
 21
149272.16246
 31
0.0
 12
-182741.99968
 22
149159.66246
 32
0.0
 13
-182741.99968
 23
149159.66246
 33
0.0
210
0.0
220
0.0
230
-1.0
  0
SOLID
  5
B18E
330
B43B
100
AcDbEntity
  8
A733_ストリートファニチャ
 62
     7
370
     9
100
AcDbTrace
 10
180337.246504
 20
149272.16246
 30
0.0
 11
182741.99968
 21
148999.66246
 31
0.0
 12
182741.99968
 22
149159.66246
 32
0.0
 13
182741.99968
 23
149159.66246
 33
0.0
  0
SOLID
  5
B18F
330
B43B
100
AcDbEntity
  8
A733_ストリートファニチャ
 62
     7
370
     9
100
AcDbTrace
 10
-182741.99968
 20
148999.66246
 30
0.0
 11
-180337.246504
 21
149272.16246
 31
0.0
 12
-181168.49968
 22
148999.66246
 32
0.0
 13
-181168.49968
 23
148999.66246
 33
0.0
210
0.0
220
0.0
230
-1.0
  0
SOLID
  5
B190
330
B43B
100
AcDbEntity
  8
A733_ストリートファニチャ
 62
     7
370
     9
100
AcDbTrace
 10
180337.246504
 20
149272.16246
 30
0.0
 11
181168.49968
 21
148486.66246
 31
0.0
 12
181168.49968
 22
148999.66246
 32
0.0
 13
181168.49968
 23
148999.66246
 33
0.0
  0
SOLID
  5
B191
330
B43B
100
AcDbEntity
  8
A733_ストリートファニチャ
 62
     7
370
     9
100
AcDbTrace
 10
-181168.49968
 20
148486.66246
 30
0.0
 11
-180337.246504
 21
149272.16246
 31
0.0
 12
-180655.49968
 22
148486.66246
 32
0.0
 13
-180655.49968
 23
148486.66246
 33
0.0
210
0.0
220
0.0
230
-1.0
  0
SOLID
  5
B192
330
B43B
100
AcDbEntity
  8
A733_ストリートファニチャ
 62
     7
370
     9
100
AcDbTrace
 10
-180337.246504
 20
149272.16246
 30
0.0
 11
-180655.49968
 21
147048.66246
 31
0.0
 12
-180655.49968
 22
148486.66246
 32
0.0
 13
-180655.49968
 23
148486.66246
 33
0.0
210
0.0
220
0.0
230
-1.0
  0
SOLID
  5
B193
330
B43B
100
AcDbEntity
  8
A733_ストリートファニチャ
 62
     7
370
     9
100
AcDbTrace
 10
180655.49968
 20
147048.66246
 30
0.0
 11
180337.246504
 21
149272.16246
 31
0.0
 12
180495.49968
 22
147048.66246
 32
0.0
 13
180495.49968
 23
147048.66246
 33
0.0
  0
SOLID
  5
B194
330
B43B
100
AcDbEntity
  8
A733_ストリートファニチャ
 62
     7
370
     9
100
AcDbTrace
 10
-180337.246504
 20
149272.16246
 30
0.0
 11
-180495.49968
 21
146988.66246
 31
0.0
 12
-180495.49968
 22
147048.66246
 32
0.0
 13
-180495.49968
 23
147048.66246
 33
0.0
210
0.0
220
0.0
230
-1.0
  0
SOLID
  5
B195
330
B43B
100
AcDbEntity
  8
A733_ストリートファニチャ
 62
     7
370
     9
100
AcDbTrace
 10
180495.49968
 20
146988.66246
 30
0.0
 11
180337.246504
 21
149272.16246
 31
0.0
 12
180320.49968
 22
146988.66246
 32
0.0
 13
180320.49968
 23
146988.66246
 33
0.0
  0
SOLID
  5
B196
330
B43B
100
AcDbEntity
  8
A733_ストリートファニチャ
 62
     7
370
     9
100
AcDbTrace
 10
180337.246504
 20
149272.16246
 30
0.0
 11
180320.49968
 21
149209.66246
 31
0.0
 12
180324.758951
 22
149242.014841
 32
0.0
 13
180324.758951
 23
149242.014841
 33
0.0
  0
SOLID
  5
B197
330
B43B
100
AcDbEntity
  8
A733_ストリートファニチャ
 62
     7
370
     9
100
AcDbTrace
 10
180320.49968
 20
146988.66246
 30
0.0
 11
180337.246504
 21
149272.16246
 31
0.0
 12
180320.49968
 22
149209.66246
 32
0.0
 13
180320.49968
 23
149209.66246
 33
0.0
  0
SOLID
  5
B198
330
B43B
100
AcDbEntity
  8
A733_ストリートファニチャ
 62
     7
370
     9
100
AcDbTrace
 10
190652.863178
 20
141552.875607
 30
0.0
 11
190663.58719
 21
141552.875607
 31
0.0
 12
191251.99968
 22
141755.578303
 32
0.0
 13
191449.440841
 23
141811.391523
 33
0.0
  0
SOLID
  5
B19B
330
B43B
100
AcDbEntity
  8
A733_ストリートファニチャ
 62
     7
370
     9
100
AcDbTrace
 10
190663.58719
 20
141552.875607
 30
0.0
 11
190673.240096
 21
141552.875607
 31
0.0
 12
191449.440841
 22
141811.391523
 32
0.0
 13
191647.347353
 23
141865.531528
 33
0.0
  0
SOLID
  5
B19E
330
B43B
100
AcDbEntity
  8
A733_ストリートファニチャ
 62
     7
370
     9
100
AcDbTrace
 10
190673.240096
 20
141552.875607
 30
0.0
 11
190682.272953
 21
141552.875607
 31
0.0
 12
191647.347353
 22
141865.531528
 32
0.0
 13
191845.705036
 23
141917.994438
 33
0.0
  0
HATCH
  5
B1A1
330
B43B
100
AcDbEntity
  8
A733_ストリートファニチャ
 62
     7
370
     9
100
AcDbHatch
 10
0.0
 20
0.0
 30
0.0
210
0.0
220
0.0
230
1.0
  2
SOLID
 70
     1
 71
     0
 91
        1
 92
        3
 72
     0
 73
     1
 93
        5
 10
190682.2729533905
 20
141552.8756067139
 10
191845.7050362948
 20
141917.9944381514
 10
191984.3673323204
 20
141953.41569751
 10
191984.3673323204
 20
141950.2998408256
 10
190690.9485315006
 20
141552.8756067139
 97
        0
 75
     0
 76
     1
 98
        1
 10
0.0
 20
0.0
450
        0
451
        0
460
0.0
461
0.0
452
        0
462
0.0
453
        0
470

  0
SOLID
  5
B1A6
330
B43B
100
AcDbEntity
  8
A733_ストリートファニチャ
 62
     7
370
     9
100
AcDbTrace
 10
191984.367332
 20
141751.057907
 30
0.0
 11
191984.367332
 21
141950.299841
 31
0.0
 12
190944.772536
 22
141552.875607
 32
0.0
 13
190690.948532
 23
141552.875607
 33
0.0
  0
HATCH
  5
B1AB
330
B43B
100
AcDbEntity
  8
A733_ストリートファニチャ
 62
     7
370
     9
100
AcDbHatch
 10
0.0
 20
0.0
 30
0.0
210
0.0
220
0.0
230
1.0
  2
SOLID
 70
     1
 71
     0
 91
        1
 92
        3
 72
     0
 73
     1
 93
        5
 10
190944.7725361257
 20
141552.8756067139
 10
191984.3673323204
 20
141751.0579074052
 10
191984.3673323204
 20
141746.7993980273
 10
191683.0084761609
 20
141668.0081837095
 10
191015.3342874507
 20
141552.8756067139
 97
        0
 75
     0
 76
     1
 98
        1
 10
0.0
 20
0.0
450
        0
451
        0
460
0.0
461
0.0
452
        0
462
0.0
453
        0
470

  0
SOLID
  5
B1B0
330
B43B
100
AcDbEntity
  8
A733_ストリートファニチャ
 62
     7
370
     9
100
AcDbTrace
 10
-191015.334287
 20
141552.875607
 30
0.0
 11
-191212.722646
 21
141552.875607
 31
0.0
 12
-191683.008476
 22
141668.008184
 32
0.0
 13
-191323.029862
 23
141567.888278
 33
0.0
210
0.0
220
0.0
230
-1.0
  0
SOLID
  5
B1B3
330
B43B
100
AcDbEntity
  8
A733_ストリートファニチャ
 62
     7
370
     9
100
AcDbTrace
 10
-191212.722646
 20
141552.875607
 30
0.0
 11
-191272.130205
 21
141552.875607
 31
0.0
 12
-191323.029862
 22
141567.888278
 32
0.0
 13
-191323.029862
 23
141567.888278
 33
0.0
210
0.0
220
0.0
230
-1.0
  0
SOLID
  5
B1B6
330
B43B
100
AcDbEntity
  8
A733_ストリートファニチャ
 62
     7
370
     9
100
AcDbTrace
 10
-190781.137432
 20
141614.66246
 30
0.0
 11
-190026.99968
 21
141734.66246
 31
0.0
 12
-190026.99968
 22
141614.66246
 32
0.0
 13
-190026.99968
 23
141614.66246
 33
0.0
210
0.0
220
0.0
230
-1.0
  0
SOLID
  5
B1B7
330
B43B
100
AcDbEntity
  8
A733_ストリートファニチャ
 62
     7
370
     9
100
AcDbTrace
 10
-191001.99968
 20
141734.66246
 30
0.0
 11
-190026.99968
 21
141734.66246
 31
0.0
 12
-190781.137432
 22
141614.66246
 32
0.0
 13
-190781.137432
 23
141614.66246
 33
0.0
210
0.0
220
0.0
230
-1.0
  0
SOLID
  5
B1B8
330
B43B
100
AcDbEntity
  8
A733_ストリートファニチャ
 62
     7
370
     9
100
AcDbTrace
 10
-190616.255172
 20
141552.875607
 30
0.0
 11
-190652.863178
 21
141552.875607
 31
0.0
 12
-190781.137432
 22
141614.66246
 32
0.0
 13
-191251.99968
 23
141755.578303
 33
0.0
210
0.0
220
0.0
230
-1.0
  0
SOLID
  5
B1BB
330
B43B
100
AcDbEntity
  8
A733_ストリートファニチャ
 62
     7
370
     9
100
AcDbTrace
 10
-191251.99968
 20
141865.011698
 30
0.0
 11
-190781.137432
 21
141614.66246
 31
0.0
 12
-191251.99968
 22
141755.578303
 32
0.0
 13
-191251.99968
 23
141755.578303
 33
0.0
210
0.0
220
0.0
230
-1.0
  0
SOLID
  5
B1BC
330
B43B
100
AcDbEntity
  8
A733_ストリートファニチャ
 62
     7
370
     9
100
AcDbTrace
 10
191001.99968
 20
141734.66246
 30
0.0
 11
191037.355019
 21
141900.367037
 31
0.0
 12
191001.99968
 22
141865.011698
 32
0.0
 13
191001.99968
 23
141865.011698
 33
0.0
  0
SOLID
  5
B1BD
330
B43B
100
AcDbEntity
  8
A733_ストリートファニチャ
 62
     7
370
     9
100
AcDbTrace
 10
191001.99968
 20
141734.66246
 30
0.0
 11
191216.644341
 21
141900.367037
 31
0.0
 12
191037.355019
 22
141900.367037
 32
0.0
 13
191037.355019
 23
141900.367037
 33
0.0
  0
SOLID
  5
B1BE
330
B43B
100
AcDbEntity
  8
A733_ストリートファニチャ
 62
     7
370
     9
100
AcDbTrace
 10
191251.99968
 20
141865.011698
 30
0.0
 11
190781.137432
 21
141614.66246
 31
0.0
 12
191001.99968
 22
141734.66246
 32
0.0
 13
191001.99968
 23
141734.66246
 33
0.0
  0
SOLID
  5
B1BF
330
B43B
100
AcDbEntity
  8
A733_ストリートファニチャ
 62
     7
370
     9
100
AcDbTrace
 10
191001.99968
 20
141734.66246
 30
0.0
 11
191251.99968
 21
141865.011698
 31
0.0
 12
191216.644341
 22
141900.367037
 32
0.0
 13
191216.644341
 23
141900.367037
 33
0.0
  0
SOLID
  5
B1C0
330
B43B
100
AcDbEntity
  8
A733_ストリートファニチャ
 62
     7
370
     9
100
AcDbTrace
 10
188246.99968
 20
141552.875607
 30
0.0
 11
188406.3354
 21
141552.875607
 31
0.0
 12
188246.99968
 22
141833.66246
 32
0.0
 13
188446.99968
 23
141833.66246
 33
0.0
  0
SOLID
  5
B1C3
330
B43B
100
AcDbEntity
  8
A733_ストリートファニチャ
 62
     7
370
     9
100
AcDbTrace
 10
-188406.3354
 20
141552.875607
 30
0.0
 11
-188418.639796
 21
141552.875607
 31
0.0
 12
-188446.99968
 22
141833.66246
 32
0.0
 13
-188446.99968
 23
141734.66246
 33
0.0
210
0.0
220
0.0
230
-1.0
  0
SOLID
  5
B1C6
330
B43B
100
AcDbEntity
  8
A733_ストリートファニチャ
 62
     7
370
     9
100
AcDbTrace
 10
-188436.365109
 20
141552.875607
 30
0.0
 11
-188446.99968
 21
141552.875607
 31
0.0
 12
-188446.99968
 22
141614.66246
 32
0.0
 13
-188446.99968
 23
141614.66246
 33
0.0
210
0.0
220
0.0
230
-1.0
  0
SOLID
  5
B1C9
330
B43B
100
AcDbEntity
  8
A733_ストリートファニチャ
 62
     7
370
     9
100
AcDbTrace
 10
188446.99968
 20
141734.66246
 30
0.0
 11
188946.99968
 21
141614.66246
 31
0.0
 12
188946.99968
 22
141734.66246
 32
0.0
 13
188946.99968
 23
141734.66246
 33
0.0
  0
SOLID
  5
B1CA
330
B43B
100
AcDbEntity
  8
A733_ストリートファニチャ
 62
     7
370
     9
100
AcDbTrace
 10
-188418.639796
 20
141552.875607
 30
0.0
 11
-188436.365109
 21
141552.875607
 31
0.0
 12
-188446.99968
 22
141734.66246
 32
0.0
 13
-188446.99968
 23
141614.66246
 33
0.0
210
0.0
220
0.0
230
-1.0
  0
SOLID
  5
B1CD
330
B43B
100
AcDbEntity
  8
A733_ストリートファニチャ
 62
     7
370
     9
100
AcDbTrace
 10
-188946.99968
 20
141614.66246
 30
0.0
 11
-188446.99968
 21
141734.66246
 31
0.0
 12
-188446.99968
 22
141614.66246
 32
0.0
 13
-188446.99968
 23
141614.66246
 33
0.0
210
0.0
220
0.0
230
-1.0
  0
LINE
  5
B1CE
330
B43B
100
AcDbEntity
  8
A733_ストリートファニチャ
 62
     7
370
     9
100
AcDbLine
 10
180690.49968
 20
143833.66246
 30
0.0
 11
180690.49968
 21
145113.66246
 31
0.0
  0
LINE
  5
B1CF
330
B43B
100
AcDbEntity
  8
A733_ストリートファニチャ
 62
     7
370
     9
100
AcDbLine
 10
180590.49968
 20
145073.66246
 30
0.0
 11
180703.49968
 21
145073.66246
 31
0.0
  0
LINE
  5
B1D0
330
B43B
100
AcDbEntity
  8
A733_ストリートファニチャ
 62
     7
370
     9
100
AcDbLine
 10
180703.49968
 20
145073.66246
 30
0.0
 11
180703.49968
 21
145113.66246
 31
0.0
  0
LINE
  5
B1D1
330
B43B
100
AcDbEntity
  8
A733_ストリートファニチャ
 62
     7
370
     9
100
AcDbLine
 10
180590.49968
 20
145113.66246
 30
0.0
 11
180703.49968
 21
145113.66246
 31
0.0
  0
LINE
  5
B1D2
330
B43B
100
AcDbEntity
  8
A733_ストリートファニチャ
 62
     7
370
     9
100
AcDbLine
 10
180590.49968
 20
143873.66246
 30
0.0
 11
180703.49968
 21
143873.66246
 31
0.0
  0
LINE
  5
B1D3
330
B43B
100
AcDbEntity
  8
A733_ストリートファニチャ
 62
     7
370
     9
100
AcDbLine
 10
180590.49968
 20
143833.66246
 30
0.0
 11
180703.49968
 21
143833.66246
 31
0.0
  0
LINE
  5
B1D4
330
B43B
100
AcDbEntity
  8
A733_ストリートファニチャ
 62
     7
370
     9
100
AcDbLine
 10
180703.49968
 20
143873.66246
 30
0.0
 11
180703.49968
 21
143833.66246
 31
0.0
  0
LINE
  5
B1D5
330
B43B
100
AcDbEntity
  8
A733_ストリートファニチャ
 62
     7
370
     9
100
AcDbLine
 10
180690.49968
 20
145698.66246
 30
0.0
 11
180690.49968
 21
146978.66246
 31
0.0
  0
LINE
  5
B1D6
330
B43B
100
AcDbEntity
  8
A733_ストリートファニチャ
 62
     7
370
     9
100
AcDbLine
 10
180590.49968
 20
146938.66246
 30
0.0
 11
180703.49968
 21
146938.66246
 31
0.0
  0
LINE
  5
B1D7
330
B43B
100
AcDbEntity
  8
A733_ストリートファニチャ
 62
     7
370
     9
100
AcDbLine
 10
180703.49968
 20
146938.66246
 30
0.0
 11
180703.49968
 21
146978.66246
 31
0.0
  0
LINE
  5
B1D8
330
B43B
100
AcDbEntity
  8
A733_ストリートファニチャ
 62
     7
370
     9
100
AcDbLine
 10
180590.49968
 20
146978.66246
 30
0.0
 11
180703.49968
 21
146978.66246
 31
0.0
  0
LINE
  5
B1D9
330
B43B
100
AcDbEntity
  8
A733_ストリートファニチャ
 62
     7
370
     9
100
AcDbLine
 10
180590.49968
 20
145738.66246
 30
0.0
 11
180703.49968
 21
145738.66246
 31
0.0
  0
LINE
  5
B1DA
330
B43B
100
AcDbEntity
  8
A733_ストリートファニチャ
 62
     7
370
     9
100
AcDbLine
 10
180590.49968
 20
145698.66246
 30
0.0
 11
180703.49968
 21
145698.66246
 31
0.0
  0
LINE
  5
B1DB
330
B43B
100
AcDbEntity
  8
A733_ストリートファニチャ
 62
     7
370
     9
100
AcDbLine
 10
180703.49968
 20
145738.66246
 30
0.0
 11
180703.49968
 21
145698.66246
 31
0.0
  0
LINE
  5
B1DC
330
B43B
100
AcDbEntity
  8
A733_ストリートファニチャ
 62
     7
370
     9
100
AcDbLine
 10
180690.49968
 20
145113.66246
 30
0.0
 11
180690.49968
 21
145698.66246
 31
0.0
  0
LINE
  5
B1DD
330
B43B
100
AcDbEntity
  8
A733_ストリートファニチャ
 62
     7
370
     9
100
AcDbLine
 10
180677.99968
 20
145113.66246
 30
0.0
 11
180677.99968
 21
145698.66246
 31
0.0
  0
POINT
  5
B1DE
330
B43B
100
AcDbEntity
  8
A733_ストリートファニチャ
 62
     7
370
     9
100
AcDbPoint
 10
180690.49968
 20
147175.737802
 30
0.0
 50
-90.0
  0
POINT
  5
B1DF
330
B43B
100
AcDbEntity
  8
A733_ストリートファニチャ
 62
     7
370
     9
100
AcDbPoint
 10
180690.49968
 20
145406.16246
 30
0.0
 50
-90.0
  0
LINE
  5
B1E0
330
B43B
100
AcDbEntity
  8
A733_ストリートファニチャ
 62
     7
370
     9
100
AcDbLine
 10
180655.49968
 20
145406.16246
 30
0.0
 11
180690.49968
 21
145406.16246
 31
0.0
  0
LINE
  5
B1E1
330
B43B
100
AcDbEntity
  8
A733_ストリートファニチャ
 62
     7
370
     9
100
AcDbLine
 10
180690.49968
 20
147073.66246
 30
0.0
 11
180840.49968
 21
147073.66246
 31
0.0
  0
LINE
  5
B1E2
330
B43B
100
AcDbEntity
  8
A733_ストリートファニチャ
 62
     7
370
     9
100
AcDbLine
 10
180690.49968
 20
146978.66246
 30
0.0
 11
180690.49968
 21
147524.66246
 31
0.0
  0
LINE
  5
B1E3
330
B43B
100
AcDbEntity
  8
A733_ストリートファニチャ
 62
     7
370
     9
100
AcDbLine
 10
180677.99968
 20
146978.66246
 30
0.0
 11
180677.99968
 21
147524.66246
 31
0.0
  0
POINT
  5
B1E4
330
B43B
100
AcDbEntity
  8
A733_ストリートファニチャ
 62
     7
370
     9
100
AcDbPoint
 10
180655.49968
 20
148149.66246
 30
0.0
 50
-90.0
  0
LINE
  5
B1E5
330
B43B
100
AcDbEntity
  8
A733_ストリートファニチャ
 62
     7
370
     9
100
AcDbLine
 10
181127.99968
 20
148449.66246
 30
0.0
 11
181127.99968
 21
147602.16246
 31
0.0
  0
LINE
  5
B1E6
330
B43B
100
AcDbEntity
  8
A733_ストリートファニチャ
 62
     7
370
     9
100
AcDbLine
 10
181192.99968
 20
148449.66246
 30
0.0
 11
181192.99968
 21
147537.16246
 31
0.0
  0
LINE
  5
B1E7
330
B43B
100
AcDbEntity
  8
A733_ストリートファニチャ
 62
     7
370
     9
100
AcDbLine
 10
181205.49968
 20
148449.66246
 30
0.0
 11
181205.49968
 21
147524.66246
 31
0.0
  0
LINE
  5
B1E8
330
B43B
100
AcDbEntity
  8
A733_ストリートファニチャ
 62
     7
370
     9
100
AcDbLine
 10
180655.49968
 20
147602.16246
 30
0.0
 11
181127.99968
 21
147602.16246
 31
0.0
  0
LINE
  5
B1E9
330
B43B
100
AcDbEntity
  8
A733_ストリートファニチャ
 62
     7
370
     9
100
AcDbLine
 10
180655.49968
 20
147537.16246
 30
0.0
 11
181192.99968
 21
147537.16246
 31
0.0
  0
LINE
  5
B1EA
330
B43B
100
AcDbEntity
  8
A733_ストリートファニチャ
 62
     7
370
     9
100
AcDbLine
 10
180655.49968
 20
147524.66246
 30
0.0
 11
181205.49968
 21
147524.66246
 31
0.0
  0
LINE
  5
B1EB
330
B43B
100
AcDbEntity
  8
A733_ストリートファニチャ
 62
     7
370
     9
100
AcDbLine
 10
182716.99968
 20
148964.66246
 30
0.0
 11
182716.99968
 21
148814.66246
 31
0.0
  0
LINE
  5
B1EC
330
B43B
100
AcDbEntity
  8
A733_ストリートファニチャ
 62
     7
370
     9
100
AcDbLine
 10
186051.99968
 20
148964.66246
 30
0.0
 11
186051.99968
 21
148814.66246
 31
0.0
  0
LINE
  5
B1ED
330
B43B
100
AcDbEntity
  8
A733_ストリートファニチャ
 62
     7
370
     9
100
AcDbLine
 10
185956.99968
 20
148964.66246
 30
0.0
 11
184676.99968
 21
148964.66246
 31
0.0
  0
LINE
  5
B1EE
330
B43B
100
AcDbEntity
  8
A733_ストリートファニチャ
 62
     7
370
     9
100
AcDbLine
 10
184091.99968
 20
148964.66246
 30
0.0
 11
182811.99968
 21
148964.66246
 31
0.0
  0
LINE
  5
B1EF
330
B43B
100
AcDbEntity
  8
A733_ストリートファニチャ
 62
     7
370
     9
100
AcDbLine
 10
184676.99968
 20
148964.66246
 30
0.0
 11
184091.99968
 21
148964.66246
 31
0.0
  0
LINE
  5
B1F0
330
B43B
100
AcDbEntity
  8
A733_ストリートファニチャ
 62
     7
370
     9
100
AcDbLine
 10
184676.99968
 20
148977.16246
 30
0.0
 11
184091.99968
 21
148977.16246
 31
0.0
  0
LINE
  5
B1F1
330
B43B
100
AcDbEntity
  8
A733_ストリートファニチャ
 62
     7
370
     9
100
AcDbLine
 10
186051.99968
 20
148814.66246
 30
0.0
 11
182716.99968
 21
148814.66246
 31
0.0
  0
LINE
  5
B1F2
330
B43B
100
AcDbEntity
  8
A733_ストリートファニチャ
 62
     7
370
     9
100
AcDbLine
 10
182811.99968
 20
148964.66246
 30
0.0
 11
181205.49968
 21
148964.66246
 31
0.0
  0
LINE
  5
B1F3
330
B43B
100
AcDbEntity
  8
A733_ストリートファニチャ
 62
     7
370
     9
100
AcDbLine
 10
182811.99968
 20
148977.16246
 30
0.0
 11
181205.49968
 21
148977.16246
 31
0.0
  0
LINE
  5
B1F4
330
B43B
100
AcDbEntity
  8
A733_ストリートファニチャ
 62
     7
370
     9
100
AcDbLine
 10
182811.99968
 20
149064.66246
 30
0.0
 11
182811.99968
 21
148951.66246
 31
0.0
  0
LINE
  5
B1F5
330
B43B
100
AcDbEntity
  8
A733_ストリートファニチャ
 62
     7
370
     9
100
AcDbLine
 10
182851.99968
 20
148951.66246
 30
0.0
 11
182811.99968
 21
148951.66246
 31
0.0
  0
LINE
  5
B1F6
330
B43B
100
AcDbEntity
  8
A733_ストリートファニチャ
 62
     7
370
     9
100
AcDbLine
 10
182851.99968
 20
149064.66246
 30
0.0
 11
182851.99968
 21
148951.66246
 31
0.0
  0
LINE
  5
B1F7
330
B43B
100
AcDbEntity
  8
A733_ストリートファニチャ
 62
     7
370
     9
100
AcDbLine
 10
184051.99968
 20
149064.66246
 30
0.0
 11
184051.99968
 21
148951.66246
 31
0.0
  0
LINE
  5
B1F8
330
B43B
100
AcDbEntity
  8
A733_ストリートファニチャ
 62
     7
370
     9
100
AcDbLine
 10
184051.99968
 20
148951.66246
 30
0.0
 11
184091.99968
 21
148951.66246
 31
0.0
  0
LINE
  5
B1F9
330
B43B
100
AcDbEntity
  8
A733_ストリートファニチャ
 62
     7
370
     9
100
AcDbLine
 10
184091.99968
 20
149064.66246
 30
0.0
 11
184091.99968
 21
148951.66246
 31
0.0
  0
LINE
  5
B1FA
330
B43B
100
AcDbEntity
  8
A733_ストリートファニチャ
 62
     7
370
     9
100
AcDbLine
 10
184676.99968
 20
149064.66246
 30
0.0
 11
184676.99968
 21
148951.66246
 31
0.0
  0
LINE
  5
B1FB
330
B43B
100
AcDbEntity
  8
A733_ストリートファニチャ
 62
     7
370
     9
100
AcDbLine
 10
184716.99968
 20
148951.66246
 30
0.0
 11
184676.99968
 21
148951.66246
 31
0.0
  0
LINE
  5
B1FC
330
B43B
100
AcDbEntity
  8
A733_ストリートファニチャ
 62
     7
370
     9
100
AcDbLine
 10
184716.99968
 20
149064.66246
 30
0.0
 11
184716.99968
 21
148951.66246
 31
0.0
  0
LINE
  5
B1FD
330
B43B
100
AcDbEntity
  8
A733_ストリートファニチャ
 62
     7
370
     9
100
AcDbLine
 10
185916.99968
 20
149064.66246
 30
0.0
 11
185916.99968
 21
148951.66246
 31
0.0
  0
LINE
  5
B1FE
330
B43B
100
AcDbEntity
  8
A733_ストリートファニチャ
 62
     7
370
     9
100
AcDbLine
 10
185916.99968
 20
148951.66246
 30
0.0
 11
185956.99968
 21
148951.66246
 31
0.0
  0
LINE
  5
B1FF
330
B43B
100
AcDbEntity
  8
A733_ストリートファニチャ
 62
     7
370
     9
100
AcDbLine
 10
185956.99968
 20
149064.66246
 30
0.0
 11
185956.99968
 21
148951.66246
 31
0.0
  0
LINE
  5
B200
330
B43B
100
AcDbEntity
  8
A733_ストリートファニチャ
 62
     7
370
     9
100
AcDbLine
 10
190744.49968
 20
147004.66246
 30
0.0
 11
190764.49968
 21
147004.66246
 31
0.0
  0
LINE
  5
B201
330
B43B
100
AcDbEntity
  8
A733_ストリートファニチャ
 62
     7
370
     9
100
AcDbLine
 10
190824.49968
 20
147004.66246
 30
0.0
 11
190844.49968
 21
147004.66246
 31
0.0
  0
LINE
  5
B202
330
B43B
100
AcDbEntity
  8
A733_ストリートファニチャ
 62
     7
370
     9
100
AcDbLine
 10
190799.49968
 20
146964.66246
 30
0.0
 11
190799.49968
 21
146979.66246
 31
0.0
  0
LINE
  5
B203
330
B43B
100
AcDbEntity
  8
A733_ストリートファニチャ
 62
     7
370
     9
100
AcDbLine
 10
190799.49968
 20
146979.66246
 30
0.0
 11
190844.49968
 21
146979.66246
 31
0.0
  0
LINE
  5
B204
330
B43B
100
AcDbEntity
  8
A733_ストリートファニチャ
 62
     7
370
     9
100
AcDbLine
 10
190844.49968
 20
146979.66246
 30
0.0
 11
190844.49968
 21
147004.66246
 31
0.0
  0
LINE
  5
B205
330
B43B
100
AcDbEntity
  8
A733_ストリートファニチャ
 62
     7
370
     9
100
AcDbLine
 10
190779.49968
 20
146964.66246
 30
0.0
 11
190799.49968
 21
146964.66246
 31
0.0
  0
LINE
  5
B206
330
B43B
100
AcDbEntity
  8
A733_ストリートファニチャ
 62
     7
370
     9
100
AcDbLine
 10
190779.49968
 20
146964.66246
 30
0.0
 11
190779.49968
 21
146979.66246
 31
0.0
  0
LINE
  5
B207
330
B43B
100
AcDbEntity
  8
A733_ストリートファニチャ
 62
     7
370
     9
100
AcDbLine
 10
190744.49968
 20
146979.66246
 30
0.0
 11
190779.49968
 21
146979.66246
 31
0.0
  0
LINE
  5
B208
330
B43B
100
AcDbEntity
  8
A733_ストリートファニチャ
 62
     7
370
     9
100
AcDbLine
 10
190744.49968
 20
146979.66246
 30
0.0
 11
190744.49968
 21
147004.66246
 31
0.0
  0
LINE
  5
B209
330
B43B
100
AcDbEntity
  8
A733_ストリートファニチャ
 62
     7
370
     9
100
AcDbLine
 10
190744.49968
 20
146094.66246
 30
0.0
 11
190764.49968
 21
146094.66246
 31
0.0
  0
LINE
  5
B20A
330
B43B
100
AcDbEntity
  8
A733_ストリートファニチャ
 62
     7
370
     9
100
AcDbLine
 10
190824.49968
 20
146094.66246
 30
0.0
 11
190844.49968
 21
146094.66246
 31
0.0
  0
LINE
  5
B20B
330
B43B
100
AcDbEntity
  8
A733_ストリートファニチャ
 62
     7
370
     9
100
AcDbLine
 10
190799.49968
 20
146134.66246
 30
0.0
 11
190799.49968
 21
146119.66246
 31
0.0
  0
LINE
  5
B20C
330
B43B
100
AcDbEntity
  8
A733_ストリートファニチャ
 62
     7
370
     9
100
AcDbLine
 10
190799.49968
 20
146119.66246
 30
0.0
 11
190844.49968
 21
146119.66246
 31
0.0
  0
LINE
  5
B20D
330
B43B
100
AcDbEntity
  8
A733_ストリートファニチャ
 62
     7
370
     9
100
AcDbLine
 10
190844.49968
 20
146119.66246
 30
0.0
 11
190844.49968
 21
146094.66246
 31
0.0
  0
LINE
  5
B20E
330
B43B
100
AcDbEntity
  8
A733_ストリートファニチャ
 62
     7
370
     9
100
AcDbLine
 10
190779.49968
 20
146134.66246
 30
0.0
 11
190799.49968
 21
146134.66246
 31
0.0
  0
LINE
  5
B20F
330
B43B
100
AcDbEntity
  8
A733_ストリートファニチャ
 62
     7
370
     9
100
AcDbLine
 10
190779.49968
 20
146134.66246
 30
0.0
 11
190779.49968
 21
146119.66246
 31
0.0
  0
LINE
  5
B210
330
B43B
100
AcDbEntity
  8
A733_ストリートファニチャ
 62
     7
370
     9
100
AcDbLine
 10
190744.49968
 20
146119.66246
 30
0.0
 11
190779.49968
 21
146119.66246
 31
0.0
  0
LINE
  5
B211
330
B43B
100
AcDbEntity
  8
A733_ストリートファニチャ
 62
     7
370
     9
100
AcDbLine
 10
190744.49968
 20
146119.66246
 30
0.0
 11
190744.49968
 21
146094.66246
 31
0.0
  0
LINE
  5
B212
330
B43B
100
AcDbEntity
  8
A733_ストリートファニチャ
 62
     7
370
     9
100
AcDbLine
 10
190769.99968
 20
146094.66246
 30
0.0
 11
190769.99968
 21
144408.66246
 31
0.0
  0
LINE
  5
B213
330
B43B
100
AcDbEntity
  8
A733_ストリートファニチャ
 62
     7
370
     9
100
AcDbLine
 10
190757.49968
 20
146094.66246
 30
0.0
 11
190757.49968
 21
144408.66246
 31
0.0
  0
LINE
  5
B214
330
B43B
100
AcDbEntity
  8
A733_ストリートファニチャ
 62
     7
370
    13
100
AcDbLine
 10
190844.49968
 20
146119.66246
 30
0.0
 11
191704.49968
 21
146119.66246
 31
0.0
  0
ARC
  5
B215
330
B43B
100
AcDbEntity
  8
A733_ストリートファニチャ
 62
     7
370
     9
100
AcDbCircle
 10
190844.49968
 20
146119.66246
 30
0.0
 40
859.9999999999996
100
AcDbArc
 50
0.0
 51
90.0
  0
LINE
  5
B216
330
B43B
100
AcDbEntity
  8
A733_ストリートファニチャ
 62
     7
370
     9
100
AcDbLine
 10
190844.49968
 20
146994.66246
 30
0.0
 11
191179.49968
 21
146994.66246
 31
0.0
  0
LINE
  5
B217
330
B43B
100
AcDbEntity
  8
A733_ストリートファニチャ
 62
     7
370
     9
100
AcDbLine
 10
190844.49968
 20
146104.66246
 30
0.0
 11
191179.49968
 21
146104.66246
 31
0.0
  0
POINT
  5
B218
330
B43B
100
AcDbEntity
  8
A733_ストリートファニチャ
 62
     7
370
     9
100
AcDbPoint
 10
190757.49968
 20
145528.856468
 30
0.0
 50
-90.0
  0
LINE
  5
B219
330
B43B
100
AcDbEntity
  8
A733_ストリートファニチャ
 62
     7
370
     9
100
AcDbLine
 10
190792.49968
 20
145528.856468
 30
0.0
 11
190757.49968
 21
145528.856468
 31
0.0
  0
LINE
  5
B21A
330
B43B
100
AcDbEntity
  8
A733_ストリートファニチャ
 62
     7
370
     9
100
AcDbLine
 10
190792.49968
 20
143989.66246
 30
0.0
 11
190792.49968
 21
143839.66246
 31
0.0
  0
LINE
  5
B21B
330
B43B
100
AcDbEntity
  8
A733_ストリートファニチャ
 62
     7
370
     9
100
AcDbLine
 10
188791.99968
 20
143839.66246
 30
0.0
 11
190792.49968
 21
143839.66246
 31
0.0
  0
LINE
  5
B21C
330
B43B
100
AcDbEntity
  8
A733_ストリートファニチャ
 62
     7
370
     9
100
AcDbLine
 10
188791.99968
 20
143989.66246
 30
0.0
 11
190792.49968
 21
143989.66246
 31
0.0
  0
LINE
  5
B21D
330
B43B
100
AcDbEntity
  8
A733_ストリートファニチャ
 62
     7
370
     9
100
AcDbLine
 10
185941.99968
 20
143237.16246
 30
0.0
 11
185916.99968
 21
143237.16246
 31
0.0
  0
LINE
  5
B21E
330
B43B
100
AcDbEntity
  8
A733_ストリートファニチャ
 62
     7
370
     9
100
AcDbLine
 10
185916.99968
 20
143237.16246
 30
0.0
 11
185916.99968
 21
143257.16246
 31
0.0
  0
LINE
  5
B21F
330
B43B
100
AcDbEntity
  8
A733_ストリートファニチャ
 62
     7
370
     9
100
AcDbLine
 10
185941.99968
 20
143237.16246
 30
0.0
 11
185941.99968
 21
143267.16246
 31
0.0
  0
LINE
  5
B220
330
B43B
100
AcDbEntity
  8
A733_ストリートファニチャ
 62
     7
370
     9
100
AcDbLine
 10
185961.99968
 20
143267.16246
 30
0.0
 11
185941.99968
 21
143267.16246
 31
0.0
  0
LINE
  5
B221
330
B43B
100
AcDbEntity
  8
A733_ストリートファニチャ
 62
     7
370
     9
100
AcDbLine
 10
187781.99968
 20
143237.16246
 30
0.0
 11
187806.99968
 21
143237.16246
 31
0.0
  0
LINE
  5
B222
330
B43B
100
AcDbEntity
  8
A733_ストリートファニチャ
 62
     7
370
     9
100
AcDbLine
 10
187806.99968
 20
143237.16246
 30
0.0
 11
187806.99968
 21
143257.16246
 31
0.0
  0
LINE
  5
B223
330
B43B
100
AcDbEntity
  8
A733_ストリートファニチャ
 62
     7
370
     9
100
AcDbLine
 10
187781.99968
 20
143237.16246
 30
0.0
 11
187781.99968
 21
143267.16246
 31
0.0
  0
LINE
  5
B224
330
B43B
100
AcDbEntity
  8
A733_ストリートファニチャ
 62
     7
370
     9
100
AcDbLine
 10
187761.99968
 20
143267.16246
 30
0.0
 11
187781.99968
 21
143267.16246
 31
0.0
  0
LINE
  5
B225
330
B43B
100
AcDbEntity
  8
A733_ストリートファニチャ
 62
     7
370
     9
100
AcDbLine
 10
185941.99968
 20
143344.16246
 30
0.0
 11
185916.99968
 21
143344.16246
 31
0.0
  0
LINE
  5
B226
330
B43B
100
AcDbEntity
  8
A733_ストリートファニチャ
 62
     7
370
     9
100
AcDbLine
 10
185916.99968
 20
143344.16246
 30
0.0
 11
185916.99968
 21
143324.16246
 31
0.0
  0
LINE
  5
B227
330
B43B
100
AcDbEntity
  8
A733_ストリートファニチャ
 62
     7
370
     9
100
AcDbLine
 10
185941.99968
 20
143344.16246
 30
0.0
 11
185941.99968
 21
143299.16246
 31
0.0
  0
LINE
  5
B228
330
B43B
100
AcDbEntity
  8
A733_ストリートファニチャ
 62
     7
370
     9
100
AcDbLine
 10
185961.99968
 20
143299.16246
 30
0.0
 11
185941.99968
 21
143299.16246
 31
0.0
  0
LINE
  5
B229
330
B43B
100
AcDbEntity
  8
A733_ストリートファニチャ
 62
     7
370
     9
100
AcDbLine
 10
187781.99968
 20
143344.16246
 30
0.0
 11
187806.99968
 21
143344.16246
 31
0.0
  0
LINE
  5
B22A
330
B43B
100
AcDbEntity
  8
A733_ストリートファニチャ
 62
     7
370
     9
100
AcDbLine
 10
187806.99968
 20
143344.16246
 30
0.0
 11
187806.99968
 21
143324.16246
 31
0.0
  0
LINE
  5
B22B
330
B43B
100
AcDbEntity
  8
A733_ストリートファニチャ
 62
     7
370
     9
100
AcDbLine
 10
187781.99968
 20
143344.16246
 30
0.0
 11
187781.99968
 21
143299.16246
 31
0.0
  0
LINE
  5
B22C
330
B43B
100
AcDbEntity
  8
A733_ストリートファニチャ
 62
     7
370
     9
100
AcDbLine
 10
187761.99968
 20
143299.16246
 30
0.0
 11
187781.99968
 21
143299.16246
 31
0.0
  0
LINE
  5
B22D
330
B43B
100
AcDbEntity
  8
A733_ストリートファニチャ
 62
     7
370
    13
100
AcDbLine
 10
185941.99968
 20
143344.16246
 30
0.0
 11
185941.99968
 21
144264.16246
 31
0.0
  0
ARC
  5
B22E
330
B43B
100
AcDbEntity
  8
A733_ストリートファニチャ
 62
     7
370
     9
100
AcDbCircle
 10
185941.99968
 20
143344.16246
 30
0.0
 40
920.0000000000017
100
AcDbArc
 50
0.0
 51
90.0
  0
LINE
  5
B22F
330
B43B
100
AcDbEntity
  8
A733_ストリートファニチャ
 62
     7
370
    13
100
AcDbLine
 10
187781.99968
 20
143344.16246
 30
0.0
 11
187781.99968
 21
144264.16246
 31
0.0
  0
ARC
  5
B230
330
B43B
100
AcDbEntity
  8
A733_ストリートファニチャ
 62
     7
370
     9
100
AcDbCircle
 10
187781.99968
 20
143344.16246
 30
0.0
 40
920.0000000000017
100
AcDbArc
 50
90.0
 51
180.0
  0
LINE
  5
B231
330
B43B
100
AcDbEntity
  8
A733_ストリートファニチャ
 62
     7
370
     9
100
AcDbLine
 10
187761.99968
 20
143299.16246
 30
0.0
 11
187761.99968
 21
143267.16246
 31
0.0
  0
LINE
  5
B232
330
B43B
100
AcDbEntity
  8
A733_ストリートファニチャ
 62
     7
370
     9
100
AcDbLine
 10
185961.99968
 20
143299.16246
 30
0.0
 11
185961.99968
 21
143267.16246
 31
0.0
  0
LINE
  5
B233
330
B43B
100
AcDbEntity
  8
A733_ストリートファニチャ
 62
     7
370
     9
100
AcDbLine
 10
188246.99968
 20
143331.16246
 30
0.0
 11
187806.99968
 21
143331.16246
 31
0.0
  0
LINE
  5
B234
330
B43B
100
AcDbEntity
  8
A733_ストリートファニチャ
 62
     7
370
     9
100
AcDbLine
 10
188246.99968
 20
143250.16246
 30
0.0
 11
187806.99968
 21
143250.16246
 31
0.0
  0
LINE
  5
B235
330
B43B
100
AcDbEntity
  8
A733_ストリートファニチャ
 62
     7
370
     9
100
AcDbLine
 10
180690.49968
 20
143331.16246
 30
0.0
 11
180690.49968
 21
143833.66246
 31
0.0
  0
LINE
  5
B236
330
B43B
100
AcDbEntity
  8
A733_ストリートファニチャ
 62
     7
370
     9
100
AcDbLine
 10
180677.99968
 20
143331.16246
 30
0.0
 11
180677.99968
 21
143833.66246
 31
0.0
  0
LINE
  5
B237
330
B43B
100
AcDbEntity
  8
A733_ストリートファニチャ
 62
     7
370
     9
100
AcDbLine
 10
180840.49968
 20
147073.66246
 30
0.0
 11
180840.49968
 21
143331.16246
 31
0.0
  0
LINE
  5
B238
330
B43B
100
AcDbEntity
  8
A733_ストリートファニチャ
 62
     7
370
     9
100
AcDbLine
 10
180700.49968
 20
142008.66246
 30
0.0
 11
180700.49968
 21
141968.66246
 31
0.0
  0
LINE
  5
B239
330
B43B
100
AcDbEntity
  8
A733_ストリートファニチャ
 62
     7
370
     9
100
AcDbLine
 10
180700.49968
 20
143208.66246
 30
0.0
 11
180700.49968
 21
143248.66246
 31
0.0
  0
LINE
  5
B23A
330
B43B
100
AcDbEntity
  8
A733_ストリートファニチャ
 62
     7
370
     9
100
AcDbLine
 10
180700.49968
 20
143208.66246
 30
0.0
 11
180630.49968
 21
143208.66246
 31
0.0
  0
LINE
  5
B23B
330
B43B
100
AcDbEntity
  8
A733_ストリートファニチャ
 62
     7
370
     9
100
AcDbLine
 10
180700.49968
 20
142008.66246
 30
0.0
 11
180630.49968
 21
142008.66246
 31
0.0
  0
LINE
  5
B23C
330
B43B
100
AcDbEntity
  8
A733_ストリートファニチャ
 62
     7
370
     9
100
AcDbLine
 10
180700.49968
 20
143173.66246
 30
0.0
 11
180700.49968
 21
142043.66246
 31
0.0
  0
LINE
  5
B23D
330
B43B
100
AcDbEntity
  8
A733_ストリートファニチャ
 62
     7
370
     9
100
AcDbLine
 10
180630.49968
 20
143173.66246
 30
0.0
 11
180630.49968
 21
142043.66246
 31
0.0
  0
LINE
  5
B23E
330
B43B
100
AcDbEntity
  8
A733_ストリートファニチャ
 62
     7
370
     9
100
AcDbLine
 10
180675.49968
 20
143171.16246
 30
0.0
 11
180675.49968
 21
143204.66246
 31
0.0
  0
LINE
  5
B23F
330
B43B
100
AcDbEntity
  8
A733_ストリートファニチャ
 62
     7
370
     9
100
AcDbLine
 10
180693.49968
 20
143171.16246
 30
0.0
 11
180693.49968
 21
143204.66246
 31
0.0
  0
LINE
  5
B240
330
B43B
100
AcDbEntity
  8
A733_ストリートファニチャ
 62
     7
370
     9
100
AcDbLine
 10
180693.49968
 20
143183.16246
 30
0.0
 11
180675.49968
 21
143183.16246
 31
0.0
  0
LINE
  5
B241
330
B43B
100
AcDbEntity
  8
A733_ストリートファニチャ
 62
     7
370
     9
100
AcDbLine
 10
180693.49968
 20
143194.66246
 30
0.0
 11
180675.49968
 21
143194.66246
 31
0.0
  0
LINE
  5
B242
330
B43B
100
AcDbEntity
  8
A733_ストリートファニチャ
 62
     7
370
     9
100
AcDbLine
 10
180684.49968
 20
142617.66246
 30
0.0
 11
180684.49968
 21
143177.16246
 31
0.0
  0
LINE
  5
B243
330
B43B
100
AcDbEntity
  8
A733_ストリートファニチャ
 62
     7
370
     9
100
AcDbLine
 10
180647.49968
 20
142040.16246
 30
0.0
 11
180647.49968
 21
142599.66246
 31
0.0
  0
LINE
  5
B244
330
B43B
100
AcDbEntity
  8
A733_ストリートファニチャ
 62
     7
370
     9
100
AcDbLine
 10
180656.49968
 20
142034.16246
 30
0.0
 11
180638.49968
 21
142034.16246
 31
0.0
  0
LINE
  5
B245
330
B43B
100
AcDbEntity
  8
A733_ストリートファニチャ
 62
     7
370
     9
100
AcDbLine
 10
180656.49968
 20
142022.66246
 30
0.0
 11
180638.49968
 21
142022.66246
 31
0.0
  0
LINE
  5
B246
330
B43B
100
AcDbEntity
  8
A733_ストリートファニチャ
 62
     7
370
     9
100
AcDbLine
 10
180656.49968
 20
142046.16246
 30
0.0
 11
180656.49968
 21
142012.66246
 31
0.0
  0
LINE
  5
B247
330
B43B
100
AcDbEntity
  8
A733_ストリートファニチャ
 62
     7
370
     9
100
AcDbLine
 10
180638.49968
 20
142046.16246
 30
0.0
 11
180638.49968
 21
142012.66246
 31
0.0
  0
LINE
  5
B248
330
B43B
100
AcDbEntity
  8
A733_ストリートファニチャ
 62
     7
370
     9
100
AcDbLine
 10
180638.49968
 20
142623.66246
 30
0.0
 11
180665.99968
 21
142623.66246
 31
0.0
  0
LINE
  5
B249
330
B43B
100
AcDbEntity
  8
A733_ストリートファニチャ
 62
     7
370
     9
100
AcDbLine
 10
180675.49968
 20
142611.66246
 30
0.0
 11
180693.49968
 21
142611.66246
 31
0.0
  0
LINE
  5
B24A
330
B43B
100
AcDbEntity
  8
A733_ストリートファニチャ
 62
     7
370
     9
100
AcDbLine
 10
180638.49968
 20
142593.66246
 30
0.0
 11
180638.49968
 21
142623.66246
 31
0.0
  0
LINE
  5
B24B
330
B43B
100
AcDbEntity
  8
A733_ストリートファニチャ
 62
     7
370
     9
100
AcDbLine
 10
180656.49968
 20
142605.66246
 30
0.0
 11
180638.49968
 21
142605.66246
 31
0.0
  0
LINE
  5
B24C
330
B43B
100
AcDbEntity
  8
A733_ストリートファニチャ
 62
     7
370
     9
100
AcDbLine
 10
180693.49968
 20
142593.66246
 30
0.0
 11
180675.49968
 21
142593.66246
 31
0.0
  0
LINE
  5
B24D
330
B43B
100
AcDbEntity
  8
A733_ストリートファニチャ
 62
     7
370
     9
100
AcDbLine
 10
180656.49968
 20
142593.66246
 30
0.0
 11
180656.49968
 21
142623.66246
 31
0.0
  0
LINE
  5
B24E
330
B43B
100
AcDbEntity
  8
A733_ストリートファニチャ
 62
     7
370
     9
100
AcDbLine
 10
180665.99968
 20
142623.66246
 30
0.0
 11
180665.99968
 21
142608.66246
 31
0.0
  0
LINE
  5
B24F
330
B43B
100
AcDbEntity
  8
A733_ストリートファニチャ
 62
     7
370
     9
100
AcDbLine
 10
180675.49968
 20
142623.66246
 30
0.0
 11
180675.49968
 21
142593.66246
 31
0.0
  0
LINE
  5
B250
330
B43B
100
AcDbEntity
  8
A733_ストリートファニチャ
 62
     7
370
     9
100
AcDbLine
 10
180693.49968
 20
142623.66246
 30
0.0
 11
180693.49968
 21
142593.66246
 31
0.0
  0
LINE
  5
B251
330
B43B
100
AcDbEntity
  8
A733_ストリートファニチャ
 62
     7
370
     9
100
AcDbLine
 10
180700.49968
 20
142023.66246
 30
0.0
 11
180700.49968
 21
141983.66246
 31
0.0
  0
LINE
  5
B252
330
B43B
100
AcDbEntity
  8
A733_ストリートファニチャ
 62
     7
370
     9
100
AcDbLine
 10
180700.49968
 20
141983.66246
 30
0.0
 11
180691.49968
 21
141983.66246
 31
0.0
  0
LINE
  5
B253
330
B43B
100
AcDbEntity
  8
A733_ストリートファニチャ
 62
     7
370
     9
100
AcDbLine
 10
180630.49968
 20
141983.66246
 30
0.0
 11
180639.49968
 21
141983.66246
 31
0.0
  0
LINE
  5
B254
330
B43B
100
AcDbEntity
  8
A733_ストリートファニチャ
 62
     7
370
     9
100
AcDbLine
 10
180630.49968
 20
142023.66246
 30
0.0
 11
180630.49968
 21
141983.66246
 31
0.0
  0
LINE
  5
B255
330
B43B
100
AcDbEntity
  8
A733_ストリートファニチャ
 62
     7
370
     9
100
AcDbLine
 10
180700.49968
 20
143233.66246
 30
0.0
 11
180691.49968
 21
143233.66246
 31
0.0
  0
LINE
  5
B256
330
B43B
100
AcDbEntity
  8
A733_ストリートファニチャ
 62
     7
370
     9
100
AcDbLine
 10
180630.49968
 20
143233.66246
 30
0.0
 11
180639.49968
 21
143233.66246
 31
0.0
  0
LINE
  5
B257
330
B43B
100
AcDbEntity
  8
A733_ストリートファニチャ
 62
     7
370
     9
100
AcDbLine
 10
180700.49968
 20
143193.66246
 30
0.0
 11
180700.49968
 21
143233.66246
 31
0.0
  0
LINE
  5
B258
330
B43B
100
AcDbEntity
  8
A733_ストリートファニチャ
 62
     7
370
     9
100
AcDbLine
 10
180630.49968
 20
143233.66246
 30
0.0
 11
180630.49968
 21
143193.66246
 31
0.0
  0
LINE
  5
B259
330
B43B
100
AcDbEntity
  8
A733_ストリートファニチャ
 62
     7
370
     9
100
AcDbLine
 10
180630.49968
 20
142008.66246
 30
0.0
 11
180590.49968
 21
142008.66246
 31
0.0
  0
LINE
  5
B25A
330
B43B
100
AcDbEntity
  8
A733_ストリートファニチャ
 62
     7
370
     9
100
AcDbLine
 10
180630.49968
 20
143208.66246
 30
0.0
 11
180590.49968
 21
143208.66246
 31
0.0
  0
LINE
  5
B25B
330
B43B
100
AcDbEntity
  8
A733_ストリートファニチャ
 62
     7
370
     9
100
AcDbLine
 10
180700.49968
 20
143208.66246
 30
0.0
 11
180805.49968
 21
143208.66246
 31
0.0
  0
LINE
  5
B25C
330
B43B
100
AcDbEntity
  8
A733_ストリートファニチャ
 62
     7
370
     9
100
AcDbLine
 10
180805.49968
 20
143208.66246
 30
0.0
 11
180805.49968
 21
143248.66246
 31
0.0
  0
LINE
  5
B25D
330
B43B
100
AcDbEntity
  8
A733_ストリートファニチャ
 62
     7
370
     9
100
AcDbLine
 10
180700.49968
 20
143248.66246
 30
0.0
 11
180805.49968
 21
143248.66246
 31
0.0
  0
LINE
  5
B25E
330
B43B
100
AcDbEntity
  8
A733_ストリートファニチャ
 62
     7
370
     9
100
AcDbLine
 10
180700.49968
 20
142008.66246
 30
0.0
 11
180805.49968
 21
142008.66246
 31
0.0
  0
LINE
  5
B25F
330
B43B
100
AcDbEntity
  8
A733_ストリートファニチャ
 62
     7
370
     9
100
AcDbLine
 10
180700.49968
 20
141968.66246
 30
0.0
 11
180805.49968
 21
141968.66246
 31
0.0
  0
LINE
  5
B260
330
B43B
100
AcDbEntity
  8
A733_ストリートファニチャ
 62
     7
370
     9
100
AcDbLine
 10
180805.49968
 20
142008.66246
 30
0.0
 11
180805.49968
 21
141968.66246
 31
0.0
  0
LINE
  5
B261
330
B43B
100
AcDbEntity
  8
A733_ストリートファニチャ
 62
     7
370
     9
100
AcDbLine
 10
180755.49968
 20
141873.66246
 30
0.0
 11
180905.49968
 21
141873.66246
 31
0.0
  0
LINE
  5
B262
330
B43B
100
AcDbEntity
  8
A733_ストリートファニチャ
 62
     7
370
     9
100
AcDbLine
 10
180905.49968
 20
143250.16246
 30
0.0
 11
180905.49968
 21
141873.66246
 31
0.0
  0
LINE
  5
B263
330
B43B
100
AcDbEntity
  8
A733_ストリートファニチャ
 62
     7
370
     9
100
AcDbLine
 10
180677.99968
 20
141943.66246
 30
0.0
 11
180742.99968
 21
141943.66246
 31
0.0
  0
LINE
  5
B264
330
B43B
100
AcDbEntity
  8
A733_ストリートファニチャ
 62
     7
370
     9
100
AcDbLine
 10
180755.49968
 20
141968.66246
 30
0.0
 11
180755.49968
 21
143248.66246
 31
0.0
  0
LINE
  5
B265
330
B43B
100
AcDbEntity
  8
A733_ストリートファニチャ
 62
     7
370
     9
100
AcDbLine
 10
180755.49968
 20
141552.875607
 30
0.0
 11
180755.49968
 21
141968.66246
 31
0.0
  0
LINE
  5
B266
330
B43B
100
AcDbEntity
  8
A733_ストリートファニチャ
 62
     7
370
     9
100
AcDbLine
 10
180742.99968
 20
141552.875607
 30
0.0
 11
180742.99968
 21
141943.66246
 31
0.0
  0
LINE
  5
B267
330
B43B
100
AcDbEntity
  8
A733_ストリートファニチャ
 62
     7
370
     9
100
AcDbLine
 10
180677.99968
 20
141552.875607
 30
0.0
 11
180677.99968
 21
141943.66246
 31
0.0
  0
POINT
  5
B268
330
B43B
100
AcDbEntity
  8
A733_ストリートファニチャ
 62
     7
370
     9
100
AcDbPoint
 10
180755.49968
 20
141747.66246
 30
0.0
 50
-90.0
  0
POINT
  5
B269
330
B43B
100
AcDbEntity
  8
A733_ストリートファニチャ
 62
     7
370
     9
100
AcDbPoint
 10
180677.99968
 20
141747.66246
 30
0.0
 50
-90.0
  0
POINT
  5
B26A
330
B43B
100
AcDbEntity
  8
A733_ストリートファニチャ
 62
     7
370
     9
100
AcDbPoint
 10
181755.49968
 20
148964.66246
 30
0.0
 50
-90.0
  0
POINT
  5
B26B
330
B43B
100
AcDbEntity
  8
A733_ストリートファニチャ
 62
     7
370
     9
100
AcDbPoint
 10
181205.49968
 20
147899.66246
 30
0.0
 50
-90.0
  0
POINT
  5
B26C
330
B43B
100
AcDbEntity
  8
A733_ストリートファニチャ
 62
     7
370
     9
100
AcDbPoint
 10
181127.99968
 20
147899.66246
 30
0.0
 50
-90.0
  0
LINE
  5
B26D
330
B43B
100
AcDbEntity
  8
A733_ストリートファニチャ
 62
     7
370
     9
100
AcDbLine
 10
181205.49968
 20
147899.66246
 30
0.0
 11
181127.99968
 21
147899.66246
 31
0.0
  0
POINT
  5
B26E
330
B43B
100
AcDbEntity
  8
A733_ストリートファニチャ
 62
     7
370
     9
100
AcDbPoint
 10
182005.49968
 20
148999.66246
 30
0.0
 50
-90.0
  0
POINT
  5
B26F
330
B43B
100
AcDbEntity
  8
A733_ストリートファニチャ
 62
     7
370
     9
100
AcDbPoint
 10
182005.49968
 20
148964.66246
 30
0.0
 50
-90.0
  0
LINE
  5
B270
330
B43B
100
AcDbEntity
  8
A733_ストリートファニチャ
 62
     7
370
     9
100
AcDbLine
 10
187906.618699
 20
148474.66246
 30
0.0
 11
187881.99968
 21
148499.28148
 31
0.0
  0
LINE
  5
B271
330
B43B
100
AcDbEntity
  8
A733_ストリートファニチャ
 62
     7
370
     9
100
AcDbLine
 10
187731.99968
 20
149073.545548
 30
0.0
 11
187655.882768
 21
149149.66246
 31
0.0
  0
LINE
  5
B272
330
B43B
100
AcDbEntity
  8
A733_ストリートファニチャ
 62
     7
370
     9
100
AcDbLine
 10
190757.49968
 20
148229.66246
 30
0.0
 11
190757.49968
 21
147004.66246
 31
0.0
  0
LINE
  5
B273
330
B43B
100
AcDbEntity
  8
A733_ストリートファニチャ
 62
     7
370
     9
100
AcDbLine
 10
190769.99968
 20
148229.66246
 30
0.0
 11
190769.99968
 21
147004.66246
 31
0.0
  0
LINE
  5
B274
330
B43B
100
AcDbEntity
  8
A733_ストリートファニチャ
 62
     7
370
    13
100
AcDbLine
 10
190048.68718
 20
148219.66246
 30
0.0
 11
190648.68718
 21
148219.66246
 31
0.0
  0
LINE
  5
B275
330
B43B
100
AcDbEntity
  8
A733_ストリートファニチャ
 62
     7
370
    13
100
AcDbLine
 10
190648.68718
 20
148229.66246
 30
0.0
 11
190648.68718
 21
148219.66246
 31
0.0
  0
LINE
  5
B276
330
B43B
100
AcDbEntity
  8
A733_ストリートファニチャ
 62
     7
370
    13
100
AcDbLine
 10
190048.68718
 20
148229.66246
 30
0.0
 11
190048.68718
 21
148219.66246
 31
0.0
  0
LINE
  5
B277
330
B43B
100
AcDbEntity
  8
A733_ストリートファニチャ
 62
     7
370
    13
100
AcDbLine
 10
189231.06218
 20
148219.66246
 30
0.0
 11
189831.06218
 21
148219.66246
 31
0.0
  0
LINE
  5
B278
330
B43B
100
AcDbEntity
  8
A733_ストリートファニチャ
 62
     7
370
    13
100
AcDbLine
 10
189831.06218
 20
148229.66246
 30
0.0
 11
189831.06218
 21
148219.66246
 31
0.0
  0
LINE
  5
B279
330
B43B
100
AcDbEntity
  8
A733_ストリートファニチャ
 62
     7
370
    13
100
AcDbLine
 10
189231.06218
 20
148229.66246
 30
0.0
 11
189231.06218
 21
148219.66246
 31
0.0
  0
LINE
  5
B27A
330
B43B
100
AcDbEntity
  8
A733_ストリートファニチャ
 62
     7
370
    13
100
AcDbLine
 10
188413.43718
 20
148219.66246
 30
0.0
 11
189013.43718
 21
148219.66246
 31
0.0
  0
LINE
  5
B27B
330
B43B
100
AcDbEntity
  8
A733_ストリートファニチャ
 62
     7
370
    13
100
AcDbLine
 10
189013.43718
 20
148229.66246
 30
0.0
 11
189013.43718
 21
148219.66246
 31
0.0
  0
LINE
  5
B27C
330
B43B
100
AcDbEntity
  8
A733_ストリートファニチャ
 62
     7
370
    13
100
AcDbLine
 10
188413.43718
 20
148229.66246
 30
0.0
 11
188413.43718
 21
148219.66246
 31
0.0
  0
LINE
  5
B27D
330
B43B
100
AcDbEntity
  8
A733_ストリートファニチャ
 62
     7
370
    13
100
AcDbLine
 10
188195.81218
 20
148229.66246
 30
0.0
 11
188195.81218
 21
148219.66246
 31
0.0
  0
POINT
  5
B27E
330
B43B
100
AcDbEntity
  8
A733_ストリートファニチャ
 62
     7
370
     9
100
AcDbPoint
 10
188951.226576
 20
147629.66246
 30
0.0
 50
-90.0
  0
POINT
  5
B27F
330
B43B
100
AcDbEntity
  8
A733_ストリートファニチャ
 62
     7
370
     9
100
AcDbPoint
 10
188951.226576
 20
148229.66246
 30
0.0
 50
-90.0
  0
POINT
  5
B280
330
B43B
100
AcDbEntity
  8
A733_ストリートファニチャ
 62
     7
370
     9
100
AcDbPoint
 10
188701.226576
 20
148474.66246
 30
0.0
 50
-90.0
  0
POINT
  5
B281
330
B43B
100
AcDbEntity
  8
A733_ストリートファニチャ
 62
     7
370
     9
100
AcDbPoint
 10
188701.226576
 20
148274.66246
 30
0.0
 50
-90.0
  0
POINT
  5
B282
330
B43B
100
AcDbEntity
  8
A733_ストリートファニチャ
 62
     7
370
     9
100
AcDbPoint
 10
189201.226576
 20
148229.66246
 30
0.0
 50
-90.0
  0
POINT
  5
B283
330
B43B
100
AcDbEntity
  8
A733_ストリートファニチャ
 62
     7
370
     9
100
AcDbPoint
 10
189201.226576
 20
148274.66246
 30
0.0
 50
-90.0
  0
LINE
  5
B284
330
B43B
100
AcDbEntity
  8
A733_ストリートファニチャ
 62
     7
370
     9
100
AcDbLine
 10
191127.49968
 20
148809.66246
 30
0.0
 11
191127.49968
 21
147029.66246
 31
0.0
  0
LINE
  5
B285
330
B43B
100
AcDbEntity
  8
A733_ストリートファニチャ
 62
     7
370
     9
100
AcDbLine
 10
191207.49968
 20
148889.66246
 30
0.0
 11
191207.49968
 21
147309.66246
 31
0.0
  0
LINE
  5
B286
330
B43B
100
AcDbEntity
  8
A733_ストリートファニチャ
 62
     7
370
     9
100
AcDbLine
 10
191179.49968
 20
147134.66246
 30
0.0
 11
191447.819682
 21
147134.66246
 31
0.0
  0
LINE
  5
B287
330
B43B
100
AcDbEntity
  8
A733_ストリートファニチャ
 62
     7
370
     9
100
AcDbLine
 10
191127.49968
 20
147174.66246
 30
0.0
 11
191447.819682
 21
147174.66246
 31
0.0
  0
LINE
  5
B288
330
B43B
100
AcDbEntity
  8
A733_ストリートファニチャ
 62
     7
370
     9
100
AcDbLine
 10
191127.49968
 20
147274.66246
 30
0.0
 11
191447.819682
 21
147274.66246
 31
0.0
  0
LINE
  5
B289
330
B43B
100
AcDbEntity
  8
A733_ストリートファニチャ
 62
     7
370
     9
100
AcDbLine
 10
191207.49968
 20
147309.66246
 30
0.0
 11
191447.819682
 21
147309.66246
 31
0.0
  0
SOLID
  5
B28A
330
B43B
100
AcDbEntity
  8
A733_ストリートファニチャ
 62
     7
370
     9
100
AcDbTrace
 10
188385.99968
 20
149317.915635
 30
0.0
 11
188431.752855
 21
149272.16246
 31
0.0
 12
188411.888027
 22
149298.050808
 32
0.0
 13
188411.888027
 23
149298.050808
 33
0.0
  0
SOLID
  5
B28B
330
B43B
100
AcDbEntity
  8
A733_ストリートファニチャ
 62
     7
370
     9
100
AcDbTrace
 10
-188385.99968
 20
149317.915635
 30
0.0
 11
-188444.240408
 21
149242.014841
 31
0.0
 12
-188431.752855
 22
149272.16246
 32
0.0
 13
-188431.752855
 23
149272.16246
 33
0.0
210
0.0
220
0.0
230
-1.0
  0
SOLID
  5
B28C
330
B43B
100
AcDbEntity
  8
A733_ストリートファニチャ
 62
     7
370
     9
100
AcDbTrace
 10
-188385.99968
 20
149317.915635
 30
0.0
 11
-188448.49968
 21
149209.66246
 31
0.0
 12
-188444.240408
 22
149242.014841
 32
0.0
 13
-188444.240408
 23
149242.014841
 33
0.0
210
0.0
220
0.0
230
-1.0
  0
SOLID
  5
B28D
330
B43B
100
AcDbEntity
  8
A733_ストリートファニチャ
 62
     7
370
     9
100
AcDbTrace
 10
-188385.99968
 20
149317.915635
 30
0.0
 11
-188448.49968
 21
148809.66246
 31
0.0
 12
-188448.49968
 22
149209.66246
 32
0.0
 13
-188448.49968
 23
149209.66246
 33
0.0
210
0.0
220
0.0
230
-1.0
  0
SOLID
  5
B28E
330
B43B
100
AcDbEntity
  8
A733_ストリートファニチャ
 62
     7
370
     9
100
AcDbTrace
 10
187731.99968
 20
148474.66246
 30
0.0
 11
188385.99968
 21
149317.915635
 31
0.0
 12
187731.99968
 22
148999.66246
 32
0.0
 13
187731.99968
 23
148999.66246
 33
0.0
  0
SOLID
  5
B28F
330
B43B
100
AcDbEntity
  8
A733_ストリートファニチャ
 62
     7
370
     9
100
AcDbTrace
 10
-188385.99968
 20
149317.915635
 30
0.0
 11
-186026.99968
 21
148999.66246
 31
0.0
 12
-187731.99968
 22
148999.66246
 32
0.0
 13
-187731.99968
 23
148999.66246
 33
0.0
210
0.0
220
0.0
230
-1.0
  0
SOLID
  5
B290
330
B43B
100
AcDbEntity
  8
A733_ストリートファニチャ
 62
     7
370
     9
100
AcDbTrace
 10
186026.99968
 20
148999.66246
 30
0.0
 11
188385.99968
 21
149317.915635
 31
0.0
 12
186026.99968
 22
149159.66246
 32
0.0
 13
186026.99968
 23
149159.66246
 33
0.0
  0
SOLID
  5
B291
330
B43B
100
AcDbEntity
  8
A733_ストリートファニチャ
 62
     7
370
     9
100
AcDbTrace
 10
-188385.99968
 20
149317.915635
 30
0.0
 11
-185966.99968
 21
149159.66246
 31
0.0
 12
-186026.99968
 22
149159.66246
 32
0.0
 13
-186026.99968
 23
149159.66246
 33
0.0
210
0.0
220
0.0
230
-1.0
  0
SOLID
  5
B292
330
B43B
100
AcDbEntity
  8
A733_ストリートファニチャ
 62
     7
370
     9
100
AcDbTrace
 10
185966.99968
 20
149159.66246
 30
0.0
 11
188385.99968
 21
149317.915635
 31
0.0
 12
185966.99968
 22
149334.66246
 32
0.0
 13
185966.99968
 23
149334.66246
 33
0.0
  0
SOLID
  5
B293
330
B43B
100
AcDbEntity
  8
A733_ストリートファニチャ
 62
     7
370
     9
100
AcDbTrace
 10
188385.99968
 20
149317.915635
 30
0.0
 11
188323.49968
 21
149334.66246
 31
0.0
 12
188355.85206
 22
149330.403188
 32
0.0
 13
188355.85206
 23
149330.403188
 33
0.0
  0
SOLID
  5
B294
330
B43B
100
AcDbEntity
  8
A733_ストリートファニチャ
 62
     7
370
     9
100
AcDbTrace
 10
185966.99968
 20
149334.66246
 30
0.0
 11
188385.99968
 21
149317.915635
 31
0.0
 12
188323.49968
 22
149334.66246
 32
0.0
 13
188323.49968
 23
149334.66246
 33
0.0
  0
SOLID
  5
B295
330
B43B
100
AcDbEntity
  8
A733_ストリートファニチャ
 62
     7
370
     9
100
AcDbTrace
 10
-187731.99968
 20
148474.66246
 30
0.0
 11
-188385.99968
 21
149317.915635
 31
0.0
 12
-188448.49968
 22
148809.66246
 32
0.0
 13
-188448.49968
 23
148809.66246
 33
0.0
210
0.0
220
0.0
230
-1.0
  0
SOLID
  5
B296
330
B43B
100
AcDbEntity
  8
A733_ストリートファニチャ
 62
     7
370
     9
100
AcDbTrace
 10
187731.99968
 20
148474.66246
 30
0.0
 11
190792.49968
 21
148474.66246
 31
0.0
 12
188448.49968
 22
148809.66246
 32
0.0
 13
188448.49968
 23
148809.66246
 33
0.0
  0
SOLID
  5
B297
330
B43B
100
AcDbEntity
  8
A733_ストリートファニチャ
 62
     7
370
     9
100
AcDbTrace
 10
-191127.49968
 20
148809.66246
 30
0.0
 11
-190792.49968
 21
147029.66246
 31
0.0
 12
-191127.49968
 22
147029.66246
 32
0.0
 13
-191127.49968
 23
147029.66246
 33
0.0
210
0.0
220
0.0
230
-1.0
  0
SOLID
  5
B298
330
B43B
100
AcDbEntity
  8
A733_ストリートファニチャ
 62
     7
370
     9
100
AcDbTrace
 10
-188448.49968
 20
148809.66246
 30
0.0
 11
-191127.49968
 21
148809.66246
 31
0.0
 12
-190792.49968
 22
148474.66246
 32
0.0
 13
-190792.49968
 23
148474.66246
 33
0.0
210
0.0
220
0.0
230
-1.0
  0
SOLID
  5
B299
330
B43B
100
AcDbEntity
  8
A733_ストリートファニチャ
 62
     7
370
     9
100
AcDbTrace
 10
190792.49968
 20
147029.66246
 30
0.0
 11
191127.49968
 21
148809.66246
 31
0.0
 12
190792.49968
 22
148474.66246
 32
0.0
 13
190792.49968
 23
148474.66246
 33
0.0
  0
POINT
  5
B29A
330
B43B
100
AcDbEntity
  8
A733_ストリートファニチャ
 62
     7
370
     9
100
AcDbPoint
 10
177626.357394
 20
143248.66246
 30
0.0
 50
-90.0
  0
LINE
  5
B29B
330
B43B
100
AcDbEntity
  8
A733_ストリートファニチャ
 62
     7
370
     9
100
AcDbLine
 10
188971.99968
 20
141792.66246
 30
0.0
 11
188996.99968
 21
141792.66246
 31
0.0
  0
LINE
  5
B29C
330
B43B
100
AcDbEntity
  8
A733_ストリートファニチャ
 62
     7
370
     9
100
AcDbLine
 10
188996.99968
 20
141752.66246
 30
0.0
 11
188996.99968
 21
141792.66246
 31
0.0
  0
LINE
  5
B29D
330
B43B
100
AcDbEntity
  8
A733_ストリートファニチャ
 62
     7
370
     9
100
AcDbLine
 10
188996.99968
 20
141752.66246
 30
0.0
 11
189011.99968
 21
141752.66246
 31
0.0
  0
LINE
  5
B29E
330
B43B
100
AcDbEntity
  8
A733_ストリートファニチャ
 62
     7
370
     9
100
AcDbLine
 10
188971.99968
 20
141772.66246
 30
0.0
 11
188971.99968
 21
141792.66246
 31
0.0
  0
LINE
  5
B29F
330
B43B
100
AcDbEntity
  8
A733_ストリートファニチャ
 62
     7
370
     9
100
AcDbLine
 10
189011.99968
 20
141722.66246
 30
0.0
 11
189011.99968
 21
141752.66246
 31
0.0
  0
LINE
  5
B2A0
330
B43B
100
AcDbEntity
  8
A733_ストリートファニチャ
 62
     7
370
     9
100
AcDbLine
 10
188971.99968
 20
141722.66246
 30
0.0
 11
188971.99968
 21
141742.66246
 31
0.0
  0
LINE
  5
B2A1
330
B43B
100
AcDbEntity
  8
A733_ストリートファニチャ
 62
     7
370
     9
100
AcDbLine
 10
188971.99968
 20
141722.66246
 30
0.0
 11
189011.99968
 21
141722.66246
 31
0.0
  0
LINE
  5
B2A2
330
B43B
100
AcDbEntity
  8
A733_ストリートファニチャ
 62
     7
370
     9
100
AcDbLine
 10
190001.99968
 20
141792.66246
 30
0.0
 11
189976.99968
 21
141792.66246
 31
0.0
  0
LINE
  5
B2A3
330
B43B
100
AcDbEntity
  8
A733_ストリートファニチャ
 62
     7
370
     9
100
AcDbLine
 10
189976.99968
 20
141752.66246
 30
0.0
 11
189976.99968
 21
141792.66246
 31
0.0
  0
LINE
  5
B2A4
330
B43B
100
AcDbEntity
  8
A733_ストリートファニチャ
 62
     7
370
     9
100
AcDbLine
 10
189976.99968
 20
141752.66246
 30
0.0
 11
189961.99968
 21
141752.66246
 31
0.0
  0
LINE
  5
B2A5
330
B43B
100
AcDbEntity
  8
A733_ストリートファニチャ
 62
     7
370
     9
100
AcDbLine
 10
190001.99968
 20
141772.66246
 30
0.0
 11
190001.99968
 21
141792.66246
 31
0.0
  0
LINE
  5
B2A6
330
B43B
100
AcDbEntity
  8
A733_ストリートファニチャ
 62
     7
370
     9
100
AcDbLine
 10
189961.99968
 20
141722.66246
 30
0.0
 11
189961.99968
 21
141752.66246
 31
0.0
  0
LINE
  5
B2A7
330
B43B
100
AcDbEntity
  8
A733_ストリートファニチャ
 62
     7
370
     9
100
AcDbLine
 10
190001.99968
 20
141722.66246
 30
0.0
 11
190001.99968
 21
141742.66246
 31
0.0
  0
LINE
  5
B2A8
330
B43B
100
AcDbEntity
  8
A733_ストリートファニチャ
 62
     7
370
     9
100
AcDbLine
 10
190001.99968
 20
141722.66246
 30
0.0
 11
189961.99968
 21
141722.66246
 31
0.0
  0
LINE
  5
B2A9
330
B43B
100
AcDbEntity
  8
A733_ストリートファニチャ
 62
     7
370
     9
100
AcDbLine
 10
189011.99968
 20
141752.66246
 30
0.0
 11
189961.99968
 21
141752.66246
 31
0.0
  0
LINE
  5
B2AA
330
B43B
100
AcDbEntity
  8
A733_ストリートファニチャ
 62
     7
370
     9
100
AcDbLine
 10
188996.99968
 20
141792.66246
 30
0.0
 11
189976.99968
 21
141792.66246
 31
0.0
  0
LINE
  5
B2AB
330
B43B
100
AcDbEntity
  8
A733_ストリートファニチャ
 62
     7
370
     9
100
AcDbLine
 10
189011.99968
 20
141722.66246
 30
0.0
 11
189961.99968
 21
141722.66246
 31
0.0
  0
POINT
  5
B2AC
330
B43B
100
AcDbEntity
  8
A733_ストリートファニチャ
 62
     7
370
     9
100
AcDbPoint
 10
189961.99968
 20
142326.66251
 30
0.0
 50
-90.0
  0
LINE
  5
B2AD
330
B43B
100
AcDbEntity
  8
A733_ストリートファニチャ
 62
     7
370
     9
100
AcDbLine
 10
188491.99968
 20
141569.66246
 30
0.0
 11
188996.99968
 21
141569.66246
 31
0.0
  0
LINE
  5
B2AE
330
B43B
100
AcDbEntity
  8
A733_ストリートファニチャ
 62
     7
370
     9
100
AcDbLine
 10
188996.99968
 20
141722.66246
 30
0.0
 11
188996.99968
 21
141569.66246
 31
0.0
  0
LINE
  5
B2AF
330
B43B
100
AcDbEntity
  8
A733_ストリートファニチャ
 62
     7
370
     9
100
AcDbLine
 10
189976.99968
 20
141569.66246
 30
0.0
 11
190562.693791
 21
141569.66246
 31
0.0
  0
LINE
  5
B2B0
330
B43B
100
AcDbEntity
  8
A733_ストリートファニチャ
 62
     7
370
     9
100
AcDbLine
 10
189976.99968
 20
141722.66246
 30
0.0
 11
189976.99968
 21
141569.66246
 31
0.0
  0
POINT
  5
B2B1
330
B43B
100
AcDbEntity
  8
A733_ストリートファニチャ
 62
     7
370
     9
100
AcDbPoint
 10
186279.99968
 20
148999.66246
 30
0.0
 50
-90.0
  0
POINT
  5
B2B2
330
B43B
100
AcDbEntity
  8
A733_ストリートファニチャ
 62
     7
370
     9
100
AcDbPoint
 10
186279.99968
 20
148964.66246
 30
0.0
 50
-90.0
  0
POINT
  5
B2B3
330
B43B
100
AcDbEntity
  8
A733_ストリートファニチャ
 62
     7
370
     9
100
AcDbPoint
 10
190757.49968
 20
147406.899648
 30
0.0
 50
-90.0
  0
LINE
  5
B2B4
330
B43B
100
AcDbEntity
  8
A733_ストリートファニチャ
 62
     7
370
     9
100
AcDbLine
 10
187531.99968
 20
148999.66246
 30
0.0
 11
187531.99968
 21
148274.66246
 31
0.0
  0
LINE
  5
B2B5
330
B43B
100
AcDbEntity
  8
A733_ストリートファニチャ
 62
     7
370
     9
100
AcDbLine
 10
187531.99968
 20
148274.66246
 30
0.0
 11
190792.49968
 21
148274.66246
 31
0.0
  0
LINE
  5
B2B6
330
B43B
100
AcDbEntity
  8
A733_ストリートファニチャ
 62
     7
370
     9
100
AcDbLine
 10
187564.49968
 20
148307.16246
 30
0.0
 11
187564.49968
 21
148999.66246
 31
0.0
  0
LINE
  5
B2B7
330
B43B
100
AcDbEntity
  8
A733_ストリートファニチャ
 62
     7
370
     9
100
AcDbLine
 10
187564.49968
 20
148307.16246
 30
0.0
 11
190792.49968
 21
148307.16246
 31
0.0
  0
LINE
  5
B2B8
330
B43B
100
AcDbEntity
  8
A733_ストリートファニチャ
 62
     7
370
     9
100
AcDbLine
 10
187499.49968
 20
148242.16246
 30
0.0
 11
190792.49968
 21
148242.16246
 31
0.0
  0
LINE
  5
B2B9
330
B43B
100
AcDbEntity
  8
A733_ストリートファニチャ
 62
     7
370
     9
100
AcDbLine
 10
187499.49968
 20
148242.16246
 30
0.0
 11
187499.49968
 21
148999.66246
 31
0.0
  0
LINE
  5
B2BA
330
B43B
100
AcDbEntity
  8
A733_ストリートファニチャ
 62
     7
370
     9
100
AcDbLine
 10
187486.99968
 20
148229.66246
 30
0.0
 11
187486.99968
 21
148999.66246
 31
0.0
  0
LINE
  5
B2BB
330
B43B
100
AcDbEntity
  8
A733_ストリートファニチャ
 62
     7
370
     9
100
AcDbLine
 10
187486.99968
 20
148229.66246
 30
0.0
 11
190792.49968
 21
148229.66246
 31
0.0
  0
LINE
  5
B2BC
330
B43B
100
AcDbEntity
  8
A733_ストリートファニチャ
 62
     7
370
     9
100
AcDbLine
 10
187486.99968
 20
148964.66246
 30
0.0
 11
185956.99968
 21
148964.66246
 31
0.0
  0
LINE
  5
B2BD
330
B43B
100
AcDbEntity
  8
A733_ストリートファニチャ
 62
     7
370
     9
100
AcDbLine
 10
187486.99968
 20
148977.16246
 30
0.0
 11
185956.99968
 21
148977.16246
 31
0.0
  0
LINE
  5
B2BE
330
B43B
100
AcDbEntity
  8
A733_ストリートファニチャ
 62
     7
370
    13
100
AcDbLine
 10
187496.99968
 20
148229.66246
 30
0.0
 11
187496.99968
 21
147629.66246
 31
0.0
  0
LINE
  5
B2BF
330
B43B
100
AcDbEntity
  8
A733_ストリートファニチャ
 62
     7
370
    13
100
AcDbLine
 10
187496.99968
 20
147629.66246
 30
0.0
 11
190757.49968
 21
147629.66246
 31
0.0
  0
LINE
  5
B2C0
330
B43B
100
AcDbEntity
  8
A733_ストリートファニチャ
 62
     7
370
    13
100
AcDbLine
 10
187595.81218
 20
148219.66246
 30
0.0
 11
188195.81218
 21
148219.66246
 31
0.0
  0
LINE
  5
B2C1
330
B43B
100
AcDbEntity
  8
A733_ストリートファニチャ
 62
     7
370
    13
100
AcDbLine
 10
187595.81218
 20
148229.66246
 30
0.0
 11
187595.81218
 21
148219.66246
 31
0.0
  0
POINT
  5
B2C2
330
B43B
100
AcDbEntity
  8
A733_ストリートファニチャ
 62
     7
370
     9
100
AcDbPoint
 10
187531.99968
 20
148778.857947
 30
0.0
 50
-90.0
  0
POINT
  5
B2C3
330
B43B
100
AcDbEntity
  8
A733_ストリートファニチャ
 62
     7
370
     9
100
AcDbPoint
 10
187731.99968
 20
148778.857947
 30
0.0
 50
-90.0
  0
LINE
  5
B2C4
330
B43B
100
AcDbEntity
  8
A733_ストリートファニチャ
 62
     7
370
     9
100
AcDbLine
 10
185916.99968
 20
143335.66246
 30
0.0
 11
180655.49968
 21
143335.66246
 31
0.0
  0
LINE
  5
B2C5
330
B43B
100
AcDbEntity
  8
A733_ストリートファニチャ
 62
     7
370
     9
100
AcDbLine
 10
185916.99968
 20
143245.66246
 30
0.0
 11
180655.49968
 21
143245.66246
 31
0.0
  0
POINT
  5
B2C6
330
B43B
100
AcDbEntity
  8
A733_ストリートファニチャ
 62
     7
370
     9
100
AcDbPoint
 10
183984.083836
 20
143290.66246
 30
0.0
 50
-90.0
  0
POINT
  5
B2C7
330
B43B
100
AcDbEntity
  8
A733_ストリートファニチャ
 62
     7
370
     9
100
AcDbPoint
 10
183734.083836
 20
143245.66246
 30
0.0
 50
-90.0
  0
POINT
  5
B2C8
330
B43B
100
AcDbEntity
  8
A733_ストリートファニチャ
 62
     7
370
     9
100
AcDbPoint
 10
183734.083836
 20
143335.66246
 30
0.0
 50
-90.0
  0
POINT
  5
B2C9
330
B43B
100
AcDbEntity
  8
A733_ストリートファニチャ
 62
     7
370
     9
100
AcDbPoint
 10
183984.083836
 20
143245.66246
 30
0.0
 50
-90.0
  0
POINT
  5
B2CA
330
B43B
100
AcDbEntity
  8
A733_ストリートファニチャ
 62
     7
370
     9
100
AcDbPoint
 10
183984.083836
 20
143335.66246
 30
0.0
 50
-90.0
  0
SOLID
  5
B2CB
330
B43B
100
AcDbEntity
  8
A733_ストリートファニチャ
 62
     7
370
     9
100
AcDbTrace
 10
-188246.99968
 20
143323.16246
 30
0.0
 11
-187831.99968
 21
143323.16246
 31
0.0
 12
-188246.99968
 22
143258.16246
 32
0.0
 13
-187831.99968
 23
143258.16246
 33
0.0
210
0.0
220
0.0
230
-1.0
  0
SOLID
  5
B2CC
330
B43B
100
AcDbEntity
  8
A733_ストリートファニチャ
 62
     7
370
     9
100
AcDbTrace
 10
-185891.99968
 20
143323.16246
 30
0.0
 11
-180495.49968
 21
143323.16246
 31
0.0
 12
-185891.99968
 22
143258.66246
 32
0.0
 13
-180495.49968
 23
143258.66246
 33
0.0
210
0.0
220
0.0
230
-1.0
  0
LWPOLYLINE
  5
B2CD
330
B43B
100
AcDbEntity
  8
枠
  6
Continuous
 62
     7
370
     9
100
AcDbPolyline
 90
        5
 70
   129
 43
0.0
 10
171873.137725
 20
134869.154865
 10
171873.137725
 20
155869.154865
 10
201573.137725
 20
155869.154865
 10
201573.137725
 20
134869.154865
 10
171873.137725
 20
134869.154865
  0
LWPOLYLINE
  5
B2CE
330
B43B
100
AcDbEntity
  8
2階座席
  6
Continuous
 62
     7
370
    30
100
AcDbPolyline
 90
        5
 70
   129
 43
0.0
 10
172423.137725
 20
135419.154865
 10
172423.137725
 20
155319.154865
 10
201023.137725
 20
155319.154865
 10
201023.137725
 20
135419.154865
 10
172423.137725
 20
135419.154865
  0
LINE
  5
B2CF
330
B43B
100
AcDbEntity
  8
2階座席
  6
Continuous
 62
     7
370
    30
100
AcDbLine
 10
201023.137725
 20
136419.154865
 30
0.0
 11
172423.137725
 21
136419.154865
 31
0.0
  0
LINE
  5
B2D0
330
B43B
100
AcDbEntity
  8
2階座席
  6
Continuous
 62
     7
370
    30
100
AcDbLine
 10
195023.137725
 20
136419.154865
 30
0.0
 11
195023.137725
 21
135419.154865
 31
0.0
  0
MTEXT
  5
B2D3
330
B43B
100
AcDbEntity
  8
1階座席
  6
Continuous
 62
     7
370
     9
100
AcDbMText
 10
173238.843251
 20
136152.4348
 30
0.0
 40
375.0
 41
0.0
 71
     1
 72
     1
  1
\H1x;\W0.866667;\T1.325;名古屋市公会堂
  7
Style-HG明朝B
 73
     2
 44
0.6
  0
LINE
  5
B2D4
330
B43B
100
AcDbEntity
  8
2階座席
  6
Continuous
 62
     7
370
    30
100
AcDbLine
 10
195023.137725
 20
136419.154865
 30
0.0
 11
195023.137725
 21
135419.154865
 31
0.0
  0
LINE
  5
B2D5
330
B43B
100
AcDbEntity
  8
2階座席
  6
Continuous
 62
     7
370
    30
100
AcDbLine
 10
192023.137725
 20
136419.154865
 30
0.0
 11
192023.137725
 21
135419.154865
 31
0.0
  0
LINE
  5
B2D6
330
B43B
100
AcDbEntity
  8
2階座席
  6
Continuous
 62
     7
370
    13
100
AcDbLine
 10
192023.137725
 20
136007.721385
 30
0.0
 11
195023.137725
 21
136007.721385
 31
0.0
  0
LINE
  5
B2D7
330
B43B
100
AcDbEntity
  8
2階座席
  6
Continuous
 62
     7
370
    13
100
AcDbLine
 10
193523.137725
 20
136007.721385
 30
0.0
 11
193523.137725
 21
135419.154865
 31
0.0
  0
LINE
  5
B2D8
330
B43B
100
AcDbEntity
  8
2階座席
  6
DGN Style 2
 62
     7
370
     9
100
AcDbLine
 10
192023.137725
 20
135765.040893
 30
0.0
 11
193523.137725
 21
135765.040893
 31
0.0
  0
TEXT
  5
B2D9
330
B43B
100
AcDbEntity
  8
1階座席
  6
Continuous
 62
     7
370
     9
100
AcDbText
 10
192154.817948
 20
135808.066827
 30
0.0
 40
175.0
  1
室　面　積 
 41
1.142857
  7
Style-HGSｺﾞｼｯｸM
 11
192154.817948
 21
135983.066827
 31
0.0
100
AcDbText
 73
     3
  0
TEXT
  5
B2DA
330
B43B
100
AcDbEntity
  8
1階座席
  6
Continuous
 62
     7
370
     9
100
AcDbText
 10
193200.437723
 20
135475.443964
 30
0.0
 40
200.0
  1
㎡
  7
Style-HGSｺﾞｼｯｸM
 11
193200.437723
 21
135675.443964
 31
0.0
100
AcDbText
 73
     3
  0
LINE
  5
B2DB
330
B43B
100
AcDbEntity
  8
2階座席
  6
Continuous
 62
     7
370
    30
100
AcDbLine
 10
191023.137725
 20
136419.154865
 30
0.0
 11
191023.137725
 21
135419.154865
 31
0.0
  0
LINE
  5
B2DC
330
B43B
100
AcDbEntity
  8
2階座席
  6
DGN Style 2
 62
     7
370
     9
100
AcDbLine
 10
192023.137725
 20
136007.721385
 30
0.0
 11
191023.137725
 21
136007.721385
 31
0.0
  0
TEXT
  5
B2DD
330
B43B
100
AcDbEntity
  8
1階座席
  6
Continuous
 62
     7
370
     9
100
AcDbText
 10
191663.248383
 20
135628.288072
 30
0.0
 40
175.0
  1
階
 41
1.142857
  7
Style-HGSｺﾞｼｯｸM
 11
191663.248383
 21
135803.288072
 31
0.0
100
AcDbText
 73
     3
  0
LINE
  5
B2DE
330
B43B
100
AcDbEntity
  8
2階座席
  6
Continuous
 62
     7
370
    30
100
AcDbLine
 10
198523.137725
 20
137364.202145
 30
0.0
 11
198523.137725
 21
137114.202145
 31
0.0
  0
LINE
  5
B2DF
330
B43B
100
AcDbEntity
  8
2階座席
  6
Continuous
 62
     7
370
    30
100
AcDbLine
 10
188523.137725
 20
137364.202145
 30
0.0
 11
188523.137725
 21
137114.202145
 31
0.0
  0
LINE
  5
B2E0
330
B43B
100
AcDbEntity
  8
2階座席
  6
Continuous
 62
     7
370
    13
100
AcDbLine
 10
189523.137725
 20
137364.202145
 30
0.0
 11
189523.137725
 21
137114.202145
 31
0.0
  0
LINE
  5
B2E1
330
B43B
100
AcDbEntity
  8
2階座席
  6
Continuous
 62
     7
370
    13
100
AcDbLine
 10
190523.137725
 20
137364.202145
 30
0.0
 11
190523.137725
 21
137114.202145
 31
0.0
  0
LINE
  5
B2E2
330
B43B
100
AcDbEntity
  8
2階座席
  6
Continuous
 62
     7
370
    13
100
AcDbLine
 10
191523.137725
 20
137364.202145
 30
0.0
 11
191523.137725
 21
137114.202145
 31
0.0
  0
LINE
  5
B2E3
330
B43B
100
AcDbEntity
  8
2階座席
  6
Continuous
 62
     7
370
    13
100
AcDbLine
 10
192523.137725
 20
137364.202145
 30
0.0
 11
192523.137725
 21
137114.202145
 31
0.0
  0
LINE
  5
B2E4
330
B43B
100
AcDbEntity
  8
2階座席
  6
Continuous
 62
     7
370
    30
100
AcDbLine
 10
193523.137725
 20
137364.202145
 30
0.0
 11
193523.137725
 21
137114.202145
 31
0.0
  0
LINE
  5
B2E5
330
B43B
100
AcDbEntity
  8
2階座席
  6
Continuous
 62
     7
370
    13
100
AcDbLine
 10
188523.137725
 20
137114.202145
 30
0.0
 11
198523.137725
 21
137114.202145
 31
0.0
  0
LINE
  5
B2E6
330
B43B
100
AcDbEntity
  8
2階座席
  6
Continuous
 62
     7
370
    30
100
AcDbLine
 10
199523.137725
 20
137919.154865
 30
0.0
 11
199523.137725
 21
136469.154865
 31
0.0
  0
LINE
  5
B2E7
330
B43B
100
AcDbEntity
  8
2階座席
  6
Continuous
 62
     7
370
    30
100
AcDbLine
 10
199523.137725
 20
137919.154865
 30
0.0
 11
200973.137725
 21
137919.154865
 31
0.0
  0
CIRCLE
  5
B2E8
330
B43B
100
AcDbEntity
  8
2階座席
  6
Continuous
 62
     7
370
    30
100
AcDbCircle
 10
200273.137725
 20
137072.78983
 30
0.0
 40
443.7228623379668
  0
LWPOLYLINE
  5
B2E9
330
B43B
100
AcDbEntity
  8
2階座席
  6
Continuous
 62
     7
370
    30
100
AcDbPolyline
 90
        3
 70
   128
 43
0.0
 10
200047.512725
 20
136690.712171
 10
200273.137725
 20
137516.512692
 10
200498.762725
 20
136690.712171
  0
LWPOLYLINE
  5
B2EA
330
B43B
100
AcDbEntity
  8
2階座席
  6
Continuous
 62
     7
370
    30
100
AcDbPolyline
 90
        3
 70
   128
 43
0.0
 10
200047.512725
 20
136690.712171
 10
200273.137725
 20
136735.837171
 10
200498.762725
 20
136690.712171
  0
TEXT
  5
B2EB
330
B43B
100
AcDbEntity
  8
1階座席
  6
Continuous
 62
     7
370
     9
100
AcDbText
 10
200167.135325
 20
137570.086095
 30
0.0
 40
250.0
  1
N
  7
Style-HGSｺﾞｼｯｸM
 11
200167.135325
 21
137820.086095
 31
0.0
100
AcDbText
 73
     3
  0
LINE
  5
B2EC
330
B43B
100
AcDbEntity
  8
2階座席
  6
Continuous
 62
     7
370
    30
100
AcDbLine
 10
200973.137725
 20
137919.154865
 30
0.0
 11
200973.137725
 21
136469.154865
 31
0.0
  0
LINE
  5
B2ED
330
B43B
100
AcDbEntity
  8
2階座席
  6
Continuous
 62
     7
370
    30
100
AcDbLine
 10
199523.137725
 20
136469.154865
 30
0.0
 11
200973.137725
 21
136469.154865
 31
0.0
  0
TEXT
  5
B2EE
330
B43B
100
AcDbEntity
  8
1階座席
  6
Continuous
 62
     7
370
     9
100
AcDbText
 10
191129.576794
 20
136105.041405
 30
0.0
 40
175.0
  1
施設階
 41
1.142857
  7
Style-HGSｺﾞｼｯｸM
 11
191129.576794
 21
136280.041405
 31
0.0
100
AcDbText
 73
     3
  0
TEXT
  5
B2EF
330
B43B
100
AcDbEntity
  8
1階座席
  6
Continuous
 62
     7
370
    30
100
AcDbText
 10
188452.071791
 20
137424.604183
 30
0.0
 40
175.0
  1
0
 41
1.142857
  7
Style-HGSｺﾞｼｯｸM
 11
188452.071791
 21
137599.604183
 31
0.0
100
AcDbText
 73
     3
  0
TEXT
  5
B2F0
330
B43B
100
AcDbEntity
  8
1階座席
  6
Continuous
 62
     7
370
    30
100
AcDbText
 10
189444.352879
 20
137424.604183
 30
0.0
 40
175.0
  1
1
 41
1.142857
  7
Style-HGSｺﾞｼｯｸM
 11
189444.352879
 21
137599.604183
 31
0.0
100
AcDbText
 73
     3
  0
TEXT
  5
B2F1
330
B43B
100
AcDbEntity
  8
1階座席
  6
Continuous
 62
     7
370
    30
100
AcDbText
 10
190458.013361
 20
137424.604183
 30
0.0
 40
175.0
  1
2
 41
1.142857
  7
Style-HGSｺﾞｼｯｸM
 11
190458.013361
 21
137599.604183
 31
0.0
100
AcDbText
 73
     3
  0
TEXT
  5
B2F2
330
B43B
100
AcDbEntity
  8
1階座席
  6
Continuous
 62
     7
370
    30
100
AcDbText
 10
191453.944589
 20
137424.604183
 30
0.0
 40
175.0
  1
3
 41
1.142857
  7
Style-HGSｺﾞｼｯｸM
 11
191453.944589
 21
137599.604183
 31
0.0
100
AcDbText
 73
     3
  0
TEXT
  5
B2F3
330
B43B
100
AcDbEntity
  8
1階座席
  6
Continuous
 62
     7
370
    30
100
AcDbText
 10
192449.875816
 20
137424.604183
 30
0.0
 40
175.0
  1
4
 41
1.142857
  7
Style-HGSｺﾞｼｯｸM
 11
192449.875816
 21
137599.604183
 31
0.0
100
AcDbText
 73
     3
  0
TEXT
  5
B2F4
330
B43B
100
AcDbEntity
  8
1階座席
  6
Continuous
 62
     7
370
    30
100
AcDbText
 10
193445.807044
 20
137424.604183
 30
0.0
 40
175.0
  1
5
 41
1.142857
  7
Style-HGSｺﾞｼｯｸM
 11
193445.807044
 21
137599.604183
 31
0.0
100
AcDbText
 73
     3
  0
TEXT
  5
B2F5
330
B43B
100
AcDbEntity
  8
1階座席
  6
Continuous
 62
     7
370
    30
100
AcDbText
 10
198357.160544
 20
137424.604183
 30
0.0
 40
175.0
  1
10m
 41
1.142857
  7
Style-HGSｺﾞｼｯｸM
 11
198357.160544
 21
137599.604183
 31
0.0
100
AcDbText
 73
     3
  0
LINE
  5
B2F6
330
B43B
100
AcDbEntity
  8
2階座席
  6
Continuous
 62
     7
370
     9
100
AcDbLine
 10
189023.137725
 20
137239.202145
 30
0.0
 11
189023.137725
 21
137114.202145
 31
0.0
  0
LINE
  5
B2F7
330
B43B
100
AcDbEntity
  8
2階座席
  6
Continuous
 62
     7
370
     9
100
AcDbLine
 10
190023.137725
 20
137239.202145
 30
0.0
 11
190023.137725
 21
137114.202145
 31
0.0
  0
LINE
  5
B2F8
330
B43B
100
AcDbEntity
  8
2階座席
  6
Continuous
 62
     7
370
     9
100
AcDbLine
 10
191023.137725
 20
137239.202145
 30
0.0
 11
191023.137725
 21
137114.202145
 31
0.0
  0
LINE
  5
B2F9
330
B43B
100
AcDbEntity
  8
2階座席
  6
Continuous
 62
     7
370
     9
100
AcDbLine
 10
192023.137725
 20
137239.202145
 30
0.0
 11
192023.137725
 21
137114.202145
 31
0.0
  0
LINE
  5
B2FA
330
B43B
100
AcDbEntity
  8
2階座席
  6
Continuous
 62
     7
370
     9
100
AcDbLine
 10
193023.137725
 20
137239.202145
 30
0.0
 11
193023.137725
 21
137114.202145
 31
0.0
  0
LINE
  5
B2FB
330
B43B
100
AcDbEntity
  8
A221_記入文字
  6
Continuous
 62
     7
370
    13
100
AcDbLine
 10
184351.24968
 20
147875.16246
 30
0.0
 11
184351.24968
 21
147425.16246
 31
0.0
  0
LINE
  5
B2FC
330
B43B
100
AcDbEntity
  8
A221_記入文字
  6
Continuous
 62
     7
370
    13
100
AcDbLine
 10
182551.24968
 20
147875.16246
 30
0.0
 11
182551.24968
 21
145175.16246
 31
0.0
  0
LINE
  5
B2FD
330
B43B
100
AcDbEntity
  8
A221_記入文字
  6
Continuous
 62
     7
370
    13
100
AcDbLine
 10
186151.24968
 20
147875.16246
 30
0.0
 11
186151.24968
 21
145175.16246
 31
0.0
  0
LINE
  5
B2FE
330
B43B
100
AcDbEntity
  8
A221_記入文字
  6
Continuous
 62
     7
370
    13
100
AcDbLine
 10
186151.24968
 20
147425.16246
 30
0.0
 11
182551.24968
 21
147425.16246
 31
0.0
  0
LINE
  5
B2FF
330
B43B
100
AcDbEntity
  8
A221_記入文字
  6
Continuous
 62
     7
370
    13
100
AcDbLine
 10
186151.24968
 20
145625.16246
 30
0.0
 11
182551.24968
 21
145625.16246
 31
0.0
  0
LINE
  5
B300
330
B43B
100
AcDbEntity
  8
A221_記入文字
  6
Continuous
 62
     7
370
    13
100
AcDbLine
 10
186151.24968
 20
147875.16246
 30
0.0
 11
182551.24968
 21
147875.16246
 31
0.0
  0
LINE
  5
B301
330
B43B
100
AcDbEntity
  8
A221_記入文字
  6
Continuous
 62
     7
370
    13
100
AcDbLine
 10
186151.24968
 20
145175.16246
 30
0.0
 11
182551.24968
 21
145175.16246
 31
0.0
  0
LINE
  5
B302
330
B43B
100
AcDbEntity
  8
A221_記入文字
  6
Continuous
 62
     7
370
    13
100
AcDbLine
 10
183001.24968
 20
147425.16246
 30
0.0
 11
183001.24968
 21
145625.16246
 31
0.0
  0
LINE
  5
B303
330
B43B
100
AcDbEntity
  8
A221_記入文字
  6
Continuous
 62
     7
370
    13
100
AcDbLine
 10
185701.24968
 20
147425.16246
 30
0.0
 11
185701.24968
 21
145625.16246
 31
0.0
  0
LINE
  5
B304
330
B43B
100
AcDbEntity
  8
A221_記入文字
  6
Continuous
 62
     7
370
    13
100
AcDbLine
 10
184351.24968
 20
145625.16246
 30
0.0
 11
184351.24968
 21
145175.16246
 31
0.0
  0
LINE
  5
B305
330
B43B
100
AcDbEntity
  8
A822_別途：家具
  6
Continuous
 62
     7
370
     9
100
AcDbLine
 10
183311.24968
 20
144895.16246
 30
0.0
 11
183591.24968
 21
144895.16246
 31
0.0
  0
LINE
  5
B306
330
B43B
100
AcDbEntity
  8
A822_別途：家具
  6
Continuous
 62
     7
370
    13
100
AcDbLine
 10
183601.24968
 20
144895.16246
 30
0.0
 11
183601.24968
 21
145175.16246
 31
0.0
  0
LINE
  5
B307
330
B43B
100
AcDbEntity
  8
A822_別途：家具
  6
Continuous
 62
     7
370
    13
100
AcDbLine
 10
183301.24968
 20
144895.16246
 30
0.0
 11
183301.24968
 21
145175.16246
 31
0.0
  0
ELLIPSE
  5
B308
330
B43B
100
AcDbEntity
  8
A822_別途：家具
  6
Continuous
 62
     7
370
    13
100
AcDbEllipse
 10
183451.24968
 20
144895.16246
 30
0.0
 11
150.0000000000116
 21
0.0
 31
0.0
210
0.0
220
0.0
230
-1.0
 40
0.3333333333333075
 41
0.0
 42
3.141592653589793
  0
LINE
  5
B309
330
B43B
100
AcDbEntity
  8
A822_別途：家具
  6
Continuous
 62
     7
370
     9
100
AcDbLine
 10
183311.24968
 20
144895.16246
 30
0.0
 11
183311.24968
 21
145175.16246
 31
0.0
  0
LINE
  5
B30A
330
B43B
100
AcDbEntity
  8
A822_別途：家具
  6
Continuous
 62
     7
370
     9
100
AcDbLine
 10
183591.24968
 20
144895.16246
 30
0.0
 11
183591.24968
 21
145175.16246
 31
0.0
  0
SPLINE
  5
B30B
330
B43B
100
AcDbEntity
  8
A822_別途：家具
  6
Continuous
 62
     7
370
     9
100
AcDbSpline
210
0.0
220
0.0
230
1.0
 70
     8
 71
     3
 72
    18
 73
    14
 74
     0
 42
0.0000000001
 43
0.0000000001
 40
0.0
 40
0.0
 40
0.0
 40
0.0
 40
0.125
 40
0.125
 40
0.25
 40
0.25
 40
0.5
 40
0.5
 40
0.75
 40
0.75
 40
0.875
 40
0.875
 40
1.0
 40
1.0
 40
1.0
 40
1.0
 10
183591.2496796164
 20
144895.1624599352
 30
0.0
 10
183591.2496796164
 20
144892.3228881739
 30
0.0
 10
183589.471629018
 20
144888.450467494
 30
0.0
 10
183577.0626322299
 20
144878.6780747844
 30
0.0
 10
183566.9852663593
 20
144873.5851015113
 30
0.0
 10
183528.4273310748
 20
144860.7324564165
 30
0.0
 10
183491.7412240579
 20
144855.1624599353
 30
0.0
 10
183410.7581351751
 20
144855.1624599353
 30
0.0
 10
183374.072028158
 20
144860.7324564165
 30
0.0
 10
183335.5140928736
 20
144873.5851015113
 30
0.0
 10
183325.4367270028
 20
144878.6780747844
 30
0.0
 10
183313.0277302149
 20
144888.450467494
 30
0.0
 10
183311.2496796165
 20
144892.3228881739
 30
0.0
 10
183311.2496796165
 20
144895.1624599352
 30
0.0
  0
LINE
  5
B30E
330
B43B
100
AcDbEntity
  8
A822_別途：家具
  6
Continuous
 62
     7
370
     9
100
AcDbLine
 10
182786.24968
 20
144895.16246
 30
0.0
 11
183066.24968
 21
144895.16246
 31
0.0
  0
LINE
  5
B30F
330
B43B
100
AcDbEntity
  8
A822_別途：家具
  6
Continuous
 62
     7
370
    13
100
AcDbLine
 10
183076.24968
 20
144895.16246
 30
0.0
 11
183076.24968
 21
145175.16246
 31
0.0
  0
LINE
  5
B310
330
B43B
100
AcDbEntity
  8
A822_別途：家具
  6
Continuous
 62
     7
370
    13
100
AcDbLine
 10
182776.24968
 20
144895.16246
 30
0.0
 11
182776.24968
 21
145175.16246
 31
0.0
  0
ELLIPSE
  5
B311
330
B43B
100
AcDbEntity
  8
A822_別途：家具
  6
Continuous
 62
     7
370
    13
100
AcDbEllipse
 10
182926.24968
 20
144895.16246
 30
0.0
 11
150.0000000000116
 21
0.0
 31
0.0
210
0.0
220
0.0
230
-1.0
 40
0.3333333333333075
 41
0.0
 42
3.141592653589793
  0
LINE
  5
B312
330
B43B
100
AcDbEntity
  8
A822_別途：家具
  6
Continuous
 62
     7
370
     9
100
AcDbLine
 10
182786.24968
 20
144895.16246
 30
0.0
 11
182786.24968
 21
145175.16246
 31
0.0
  0
LINE
  5
B313
330
B43B
100
AcDbEntity
  8
A822_別途：家具
  6
Continuous
 62
     7
370
     9
100
AcDbLine
 10
183066.24968
 20
144895.16246
 30
0.0
 11
183066.24968
 21
145175.16246
 31
0.0
  0
SPLINE
  5
B314
330
B43B
100
AcDbEntity
  8
A822_別途：家具
  6
Continuous
 62
     7
370
     9
100
AcDbSpline
210
0.0
220
0.0
230
1.0
 70
     8
 71
     3
 72
    18
 73
    14
 74
     0
 42
0.0000000001
 43
0.0000000001
 40
0.0
 40
0.0
 40
0.0
 40
0.0
 40
0.125
 40
0.125
 40
0.25
 40
0.25
 40
0.5
 40
0.5
 40
0.75
 40
0.75
 40
0.875
 40
0.875
 40
1.0
 40
1.0
 40
1.0
 40
1.0
 10
183066.2496796165
 20
144895.1624599352
 30
0.0
 10
183066.2496796164
 20
144892.3228881739
 30
0.0
 10
183064.4716290181
 20
144888.450467494
 30
0.0
 10
183052.0626322299
 20
144878.6780747844
 30
0.0
 10
183041.9852663592
 20
144873.5851015113
 30
0.0
 10
183003.4273310748
 20
144860.7324564165
 30
0.0
 10
182966.7412240579
 20
144855.1624599353
 30
0.0
 10
182885.7581351751
 20
144855.1624599353
 30
0.0
 10
182849.072028158
 20
144860.7324564165
 30
0.0
 10
182810.5140928736
 20
144873.5851015113
 30
0.0
 10
182800.4367270029
 20
144878.6780747844
 30
0.0
 10
182788.0277302149
 20
144888.450467494
 30
0.0
 10
182786.2496796164
 20
144892.3228881739
 30
0.0
 10
182786.2496796164
 20
144895.1624599352
 30
0.0
  0
LINE
  5
B317
330
B43B
100
AcDbEntity
  8
A822_別途：家具
  6
Continuous
 62
     7
370
     9
100
AcDbLine
 10
183836.24968
 20
144895.16246
 30
0.0
 11
184116.24968
 21
144895.16246
 31
0.0
  0
LINE
  5
B318
330
B43B
100
AcDbEntity
  8
A822_別途：家具
  6
Continuous
 62
     7
370
    13
100
AcDbLine
 10
184126.24968
 20
144895.16246
 30
0.0
 11
184126.24968
 21
145175.16246
 31
0.0
  0
LINE
  5
B319
330
B43B
100
AcDbEntity
  8
A822_別途：家具
  6
Continuous
 62
     7
370
    13
100
AcDbLine
 10
183826.24968
 20
144895.16246
 30
0.0
 11
183826.24968
 21
145175.16246
 31
0.0
  0
ELLIPSE
  5
B31A
330
B43B
100
AcDbEntity
  8
A822_別途：家具
  6
Continuous
 62
     7
370
    13
100
AcDbEllipse
 10
183976.24968
 20
144895.16246
 30
0.0
 11
150.0000000000116
 21
0.0
 31
0.0
210
0.0
220
0.0
230
-1.0
 40
0.3333333333333075
 41
0.0
 42
3.141592653589793
  0
LINE
  5
B31B
330
B43B
100
AcDbEntity
  8
A822_別途：家具
  6
Continuous
 62
     7
370
     9
100
AcDbLine
 10
183836.24968
 20
144895.16246
 30
0.0
 11
183836.24968
 21
145175.16246
 31
0.0
  0
LINE
  5
B31C
330
B43B
100
AcDbEntity
  8
A822_別途：家具
  6
Continuous
 62
     7
370
     9
100
AcDbLine
 10
184116.24968
 20
144895.16246
 30
0.0
 11
184116.24968
 21
145175.16246
 31
0.0
  0
SPLINE
  5
B31D
330
B43B
100
AcDbEntity
  8
A822_別途：家具
  6
Continuous
 62
     7
370
     9
100
AcDbSpline
210
0.0
220
0.0
230
1.0
 70
     8
 71
     3
 72
    18
 73
    14
 74
     0
 42
0.0000000001
 43
0.0000000001
 40
0.0
 40
0.0
 40
0.0
 40
0.0
 40
0.125
 40
0.125
 40
0.25
 40
0.25
 40
0.5
 40
0.5
 40
0.75
 40
0.75
 40
0.875
 40
0.875
 40
1.0
 40
1.0
 40
1.0
 40
1.0
 10
184116.2496796165
 20
144895.1624599352
 30
0.0
 10
184116.2496796164
 20
144892.3228881739
 30
0.0
 10
184114.4716290181
 20
144888.450467494
 30
0.0
 10
184102.0626322299
 20
144878.6780747844
 30
0.0
 10
184091.9852663592
 20
144873.5851015113
 30
0.0
 10
184053.4273310748
 20
144860.7324564165
 30
0.0
 10
184016.7412240579
 20
144855.1624599353
 30
0.0
 10
183935.7581351751
 20
144855.1624599353
 30
0.0
 10
183899.072028158
 20
144860.7324564165
 30
0.0
 10
183860.5140928736
 20
144873.5851015113
 30
0.0
 10
183850.4367270029
 20
144878.6780747844
 30
0.0
 10
183838.0277302149
 20
144888.450467494
 30
0.0
 10
183836.2496796165
 20
144892.3228881739
 30
0.0
 10
183836.2496796165
 20
144895.1624599352
 30
0.0
  0
LINE
  5
B320
330
B43B
100
AcDbEntity
  8
A822_別途：家具
  6
Continuous
 62
     7
370
     9
100
AcDbLine
 10
185111.24968
 20
144895.16246
 30
0.0
 11
185391.24968
 21
144895.16246
 31
0.0
  0
LINE
  5
B321
330
B43B
100
AcDbEntity
  8
A822_別途：家具
  6
Continuous
 62
     7
370
    13
100
AcDbLine
 10
185401.24968
 20
144895.16246
 30
0.0
 11
185401.24968
 21
145175.16246
 31
0.0
  0
LINE
  5
B322
330
B43B
100
AcDbEntity
  8
A822_別途：家具
  6
Continuous
 62
     7
370
    13
100
AcDbLine
 10
185101.24968
 20
144895.16246
 30
0.0
 11
185101.24968
 21
145175.16246
 31
0.0
  0
ELLIPSE
  5
B323
330
B43B
100
AcDbEntity
  8
A822_別途：家具
  6
Continuous
 62
     7
370
    13
100
AcDbEllipse
 10
185251.24968
 20
144895.16246
 30
0.0
 11
150.0000000000116
 21
0.0
 31
0.0
210
0.0
220
0.0
230
-1.0
 40
0.3333333333333075
 41
0.0
 42
3.141592653589793
  0
LINE
  5
B324
330
B43B
100
AcDbEntity
  8
A822_別途：家具
  6
Continuous
 62
     7
370
     9
100
AcDbLine
 10
185111.24968
 20
144895.16246
 30
0.0
 11
185111.24968
 21
145175.16246
 31
0.0
  0
LINE
  5
B325
330
B43B
100
AcDbEntity
  8
A822_別途：家具
  6
Continuous
 62
     7
370
     9
100
AcDbLine
 10
185391.24968
 20
144895.16246
 30
0.0
 11
185391.24968
 21
145175.16246
 31
0.0
  0
SPLINE
  5
B326
330
B43B
100
AcDbEntity
  8
A822_別途：家具
  6
Continuous
 62
     7
370
     9
100
AcDbSpline
210
0.0
220
0.0
230
1.0
 70
     8
 71
     3
 72
    18
 73
    14
 74
     0
 42
0.0000000001
 43
0.0000000001
 40
0.0
 40
0.0
 40
0.0
 40
0.0
 40
0.125
 40
0.125
 40
0.25
 40
0.25
 40
0.5
 40
0.5
 40
0.75
 40
0.75
 40
0.875
 40
0.875
 40
1.0
 40
1.0
 40
1.0
 40
1.0
 10
185391.2496796164
 20
144895.1624599352
 30
0.0
 10
185391.2496796164
 20
144892.3228881739
 30
0.0
 10
185389.471629018
 20
144888.450467494
 30
0.0
 10
185377.0626322299
 20
144878.6780747844
 30
0.0
 10
185366.9852663592
 20
144873.5851015113
 30
0.0
 10
185328.4273310748
 20
144860.7324564165
 30
0.0
 10
185291.7412240579
 20
144855.1624599353
 30
0.0
 10
185210.758135175
 20
144855.1624599353
 30
0.0
 10
185174.072028158
 20
144860.7324564165
 30
0.0
 10
185135.5140928736
 20
144873.5851015113
 30
0.0
 10
185125.4367270028
 20
144878.6780747844
 30
0.0
 10
185113.0277302148
 20
144888.450467494
 30
0.0
 10
185111.2496796164
 20
144892.3228881739
 30
0.0
 10
185111.2496796164
 20
144895.1624599352
 30
0.0
  0
LINE
  5
B329
330
B43B
100
AcDbEntity
  8
A822_別途：家具
  6
Continuous
 62
     7
370
     9
100
AcDbLine
 10
184586.24968
 20
144895.16246
 30
0.0
 11
184866.24968
 21
144895.16246
 31
0.0
  0
LINE
  5
B32A
330
B43B
100
AcDbEntity
  8
A822_別途：家具
  6
Continuous
 62
     7
370
    13
100
AcDbLine
 10
184876.24968
 20
144895.16246
 30
0.0
 11
184876.24968
 21
145175.16246
 31
0.0
  0
LINE
  5
B32B
330
B43B
100
AcDbEntity
  8
A822_別途：家具
  6
Continuous
 62
     7
370
    13
100
AcDbLine
 10
184576.24968
 20
144895.16246
 30
0.0
 11
184576.24968
 21
145175.16246
 31
0.0
  0
ELLIPSE
  5
B32C
330
B43B
100
AcDbEntity
  8
A822_別途：家具
  6
Continuous
 62
     7
370
    13
100
AcDbEllipse
 10
184726.24968
 20
144895.16246
 30
0.0
 11
150.0000000000116
 21
0.0
 31
0.0
210
0.0
220
0.0
230
-1.0
 40
0.3333333333333075
 41
0.0
 42
3.141592653589793
  0
LINE
  5
B32D
330
B43B
100
AcDbEntity
  8
A822_別途：家具
  6
Continuous
 62
     7
370
     9
100
AcDbLine
 10
184586.24968
 20
144895.16246
 30
0.0
 11
184586.24968
 21
145175.16246
 31
0.0
  0
LINE
  5
B32E
330
B43B
100
AcDbEntity
  8
A822_別途：家具
  6
Continuous
 62
     7
370
     9
100
AcDbLine
 10
184866.24968
 20
144895.16246
 30
0.0
 11
184866.24968
 21
145175.16246
 31
0.0
  0
SPLINE
  5
B32F
330
B43B
100
AcDbEntity
  8
A822_別途：家具
  6
Continuous
 62
     7
370
     9
100
AcDbSpline
210
0.0
220
0.0
230
1.0
 70
     8
 71
     3
 72
    18
 73
    14
 74
     0
 42
0.0000000001
 43
0.0000000001
 40
0.0
 40
0.0
 40
0.0
 40
0.0
 40
0.125
 40
0.125
 40
0.25
 40
0.25
 40
0.5
 40
0.5
 40
0.75
 40
0.75
 40
0.875
 40
0.875
 40
1.0
 40
1.0
 40
1.0
 40
1.0
 10
184866.2496796164
 20
144895.1624599352
 30
0.0
 10
184866.2496796164
 20
144892.3228881739
 30
0.0
 10
184864.4716290181
 20
144888.450467494
 30
0.0
 10
184852.0626322299
 20
144878.6780747844
 30
0.0
 10
184841.9852663592
 20
144873.5851015113
 30
0.0
 10
184803.4273310748
 20
144860.7324564165
 30
0.0
 10
184766.7412240578
 20
144855.1624599353
 30
0.0
 10
184685.758135175
 20
144855.1624599353
 30
0.0
 10
184649.072028158
 20
144860.7324564165
 30
0.0
 10
184610.5140928736
 20
144873.5851015113
 30
0.0
 10
184600.4367270028
 20
144878.6780747844
 30
0.0
 10
184588.0277302149
 20
144888.450467494
 30
0.0
 10
184586.2496796165
 20
144892.3228881739
 30
0.0
 10
184586.2496796165
 20
144895.1624599352
 30
0.0
  0
LINE
  5
B332
330
B43B
100
AcDbEntity
  8
A822_別途：家具
  6
Continuous
 62
     7
370
     9
100
AcDbLine
 10
185636.24968
 20
144895.16246
 30
0.0
 11
185916.24968
 21
144895.16246
 31
0.0
  0
LINE
  5
B333
330
B43B
100
AcDbEntity
  8
A822_別途：家具
  6
Continuous
 62
     7
370
    13
100
AcDbLine
 10
185926.24968
 20
144895.16246
 30
0.0
 11
185926.24968
 21
145175.16246
 31
0.0
  0
LINE
  5
B334
330
B43B
100
AcDbEntity
  8
A822_別途：家具
  6
Continuous
 62
     7
370
    13
100
AcDbLine
 10
185626.24968
 20
144895.16246
 30
0.0
 11
185626.24968
 21
145175.16246
 31
0.0
  0
ELLIPSE
  5
B335
330
B43B
100
AcDbEntity
  8
A822_別途：家具
  6
Continuous
 62
     7
370
    13
100
AcDbEllipse
 10
185776.24968
 20
144895.16246
 30
0.0
 11
150.0000000000116
 21
0.0
 31
0.0
210
0.0
220
0.0
230
-1.0
 40
0.3333333333333075
 41
0.0
 42
3.141592653589793
  0
LINE
  5
B336
330
B43B
100
AcDbEntity
  8
A822_別途：家具
  6
Continuous
 62
     7
370
     9
100
AcDbLine
 10
185636.24968
 20
144895.16246
 30
0.0
 11
185636.24968
 21
145175.16246
 31
0.0
  0
LINE
  5
B337
330
B43B
100
AcDbEntity
  8
A822_別途：家具
  6
Continuous
 62
     7
370
     9
100
AcDbLine
 10
185916.24968
 20
144895.16246
 30
0.0
 11
185916.24968
 21
145175.16246
 31
0.0
  0
SPLINE
  5
B338
330
B43B
100
AcDbEntity
  8
A822_別途：家具
  6
Continuous
 62
     7
370
     9
100
AcDbSpline
210
0.0
220
0.0
230
1.0
 70
     8
 71
     3
 72
    18
 73
    14
 74
     0
 42
0.0000000001
 43
0.0000000001
 40
0.0
 40
0.0
 40
0.0
 40
0.0
 40
0.125
 40
0.125
 40
0.25
 40
0.25
 40
0.5
 40
0.5
 40
0.75
 40
0.75
 40
0.875
 40
0.875
 40
1.0
 40
1.0
 40
1.0
 40
1.0
 10
185916.2496796164
 20
144895.1624599352
 30
0.0
 10
185916.2496796164
 20
144892.3228881739
 30
0.0
 10
185914.471629018
 20
144888.450467494
 30
0.0
 10
185902.0626322299
 20
144878.6780747844
 30
0.0
 10
185891.9852663592
 20
144873.5851015113
 30
0.0
 10
185853.4273310748
 20
144860.7324564165
 30
0.0
 10
185816.7412240578
 20
144855.1624599353
 30
0.0
 10
185735.758135175
 20
144855.1624599353
 30
0.0
 10
185699.072028158
 20
144860.7324564165
 30
0.0
 10
185660.5140928736
 20
144873.5851015113
 30
0.0
 10
185650.4367270028
 20
144878.6780747844
 30
0.0
 10
185638.0277302149
 20
144888.450467494
 30
0.0
 10
185636.2496796164
 20
144892.3228881739
 30
0.0
 10
185636.2496796164
 20
144895.1624599352
 30
0.0
  0
LINE
  5
B33B
330
B43B
100
AcDbEntity
  8
A822_別途：家具
  6
Continuous
 62
     7
370
     9
100
AcDbLine
 10
182271.24968
 20
146385.16246
 30
0.0
 11
182271.24968
 21
146665.16246
 31
0.0
  0
LINE
  5
B33C
330
B43B
100
AcDbEntity
  8
A822_別途：家具
  6
Continuous
 62
     7
370
    13
100
AcDbLine
 10
182271.24968
 20
146675.16246
 30
0.0
 11
182551.24968
 21
146675.16246
 31
0.0
  0
LINE
  5
B33D
330
B43B
100
AcDbEntity
  8
A822_別途：家具
  6
Continuous
 62
     7
370
    13
100
AcDbLine
 10
182271.24968
 20
146375.16246
 30
0.0
 11
182551.24968
 21
146375.16246
 31
0.0
  0
ELLIPSE
  5
B33E
330
B43B
100
AcDbEntity
  8
A822_別途：家具
  6
Continuous
 62
     7
370
    13
100
AcDbEllipse
 10
182271.24968
 20
146525.16246
 30
0.0
 11
0.0
 21
150.0000000000116
 31
0.0
210
0.0
220
0.0
230
1.0
 40
0.3333333333333075
 41
0.0
 42
3.141592653589793
  0
LINE
  5
B33F
330
B43B
100
AcDbEntity
  8
A822_別途：家具
  6
Continuous
 62
     7
370
     9
100
AcDbLine
 10
182271.24968
 20
146385.16246
 30
0.0
 11
182551.24968
 21
146385.16246
 31
0.0
  0
LINE
  5
B340
330
B43B
100
AcDbEntity
  8
A822_別途：家具
  6
Continuous
 62
     7
370
     9
100
AcDbLine
 10
182271.24968
 20
146665.16246
 30
0.0
 11
182551.24968
 21
146665.16246
 31
0.0
  0
SPLINE
  5
B341
330
B43B
100
AcDbEntity
  8
A822_別途：家具
  6
Continuous
 62
     7
370
     9
100
AcDbSpline
210
0.0
220
0.0
230
1.0
 70
     8
 71
     3
 72
    18
 73
    14
 74
     0
 42
0.0000000001
 43
0.0000000001
 40
0.0
 40
0.0
 40
0.0
 40
0.0
 40
0.125
 40
0.125
 40
0.25
 40
0.25
 40
0.5
 40
0.5
 40
0.75
 40
0.75
 40
0.875
 40
0.875
 40
1.0
 40
1.0
 40
1.0
 40
1.0
 10
182271.2496796164
 20
146665.1624599352
 30
0.0
 10
182268.4101078551
 20
146665.1624599352
 30
0.0
 10
182264.5376871752
 20
146663.3844093368
 30
0.0
 10
182254.7652944655
 20
146650.9754125487
 30
0.0
 10
182249.6723211925
 20
146640.898046678
 30
0.0
 10
182236.8196760977
 20
146602.3401113936
 30
0.0
 10
182231.2496796164
 20
146565.6540043767
 30
0.0
 10
182231.2496796164
 20
146484.6709154938
 30
0.0
 10
182236.8196760977
 20
146447.9848084768
 30
0.0
 10
182249.6723211925
 20
146409.4268731924
 30
0.0
 10
182254.7652944655
 20
146399.3495073216
 30
0.0
 10
182264.5376871752
 20
146386.9405105336
 30
0.0
 10
182268.4101078551
 20
146385.1624599352
 30
0.0
 10
182271.2496796164
 20
146385.1624599352
 30
0.0
  0
LINE
  5
B344
330
B43B
100
AcDbEntity
  8
A822_別途：家具
  6
Continuous
 62
     7
370
     9
100
AcDbLine
 10
182271.24968
 20
145860.16246
 30
0.0
 11
182271.24968
 21
146140.16246
 31
0.0
  0
LINE
  5
B345
330
B43B
100
AcDbEntity
  8
A822_別途：家具
  6
Continuous
 62
     7
370
    13
100
AcDbLine
 10
182271.24968
 20
146150.16246
 30
0.0
 11
182551.24968
 21
146150.16246
 31
0.0
  0
LINE
  5
B346
330
B43B
100
AcDbEntity
  8
A822_別途：家具
  6
Continuous
 62
     7
370
    13
100
AcDbLine
 10
182271.24968
 20
145850.16246
 30
0.0
 11
182551.24968
 21
145850.16246
 31
0.0
  0
ELLIPSE
  5
B347
330
B43B
100
AcDbEntity
  8
A822_別途：家具
  6
Continuous
 62
     7
370
    13
100
AcDbEllipse
 10
182271.24968
 20
146000.16246
 30
0.0
 11
0.0
 21
150.0000000000116
 31
0.0
210
0.0
220
0.0
230
1.0
 40
0.3333333333333075
 41
0.0
 42
3.141592653589793
  0
LINE
  5
B348
330
B43B
100
AcDbEntity
  8
A822_別途：家具
  6
Continuous
 62
     7
370
     9
100
AcDbLine
 10
182271.24968
 20
145860.16246
 30
0.0
 11
182551.24968
 21
145860.16246
 31
0.0
  0
LINE
  5
B349
330
B43B
100
AcDbEntity
  8
A822_別途：家具
  6
Continuous
 62
     7
370
     9
100
AcDbLine
 10
182271.24968
 20
146140.16246
 30
0.0
 11
182551.24968
 21
146140.16246
 31
0.0
  0
SPLINE
  5
B34A
330
B43B
100
AcDbEntity
  8
A822_別途：家具
  6
Continuous
 62
     7
370
     9
100
AcDbSpline
210
0.0
220
0.0
230
1.0
 70
     8
 71
     3
 72
    18
 73
    14
 74
     0
 42
0.0000000001
 43
0.0000000001
 40
0.0
 40
0.0
 40
0.0
 40
0.0
 40
0.125
 40
0.125
 40
0.25
 40
0.25
 40
0.5
 40
0.5
 40
0.75
 40
0.75
 40
0.875
 40
0.875
 40
1.0
 40
1.0
 40
1.0
 40
1.0
 10
182271.2496796164
 20
146140.1624599352
 30
0.0
 10
182268.4101078551
 20
146140.1624599352
 30
0.0
 10
182264.5376871752
 20
146138.3844093368
 30
0.0
 10
182254.7652944655
 20
146125.9754125487
 30
0.0
 10
182249.6723211925
 20
146115.898046678
 30
0.0
 10
182236.8196760977
 20
146077.3401113936
 30
0.0
 10
182231.2496796164
 20
146040.6540043767
 30
0.0
 10
182231.2496796164
 20
145959.6709154938
 30
0.0
 10
182236.8196760977
 20
145922.9848084768
 30
0.0
 10
182249.6723211925
 20
145884.4268731924
 30
0.0
 10
182254.7652944655
 20
145874.3495073217
 30
0.0
 10
182264.5376871752
 20
145861.9405105337
 30
0.0
 10
182268.4101078551
 20
145860.1624599352
 30
0.0
 10
182271.2496796164
 20
145860.1624599352
 30
0.0
  0
LINE
  5
B34D
330
B43B
100
AcDbEntity
  8
A822_別途：家具
  6
Continuous
 62
     7
370
     9
100
AcDbLine
 10
182271.24968
 20
146910.16246
 30
0.0
 11
182271.24968
 21
147190.16246
 31
0.0
  0
LINE
  5
B34E
330
B43B
100
AcDbEntity
  8
A822_別途：家具
  6
Continuous
 62
     7
370
    13
100
AcDbLine
 10
182271.24968
 20
147200.16246
 30
0.0
 11
182551.24968
 21
147200.16246
 31
0.0
  0
LINE
  5
B34F
330
B43B
100
AcDbEntity
  8
A822_別途：家具
  6
Continuous
 62
     7
370
    13
100
AcDbLine
 10
182271.24968
 20
146900.16246
 30
0.0
 11
182551.24968
 21
146900.16246
 31
0.0
  0
ELLIPSE
  5
B350
330
B43B
100
AcDbEntity
  8
A822_別途：家具
  6
Continuous
 62
     7
370
    13
100
AcDbEllipse
 10
182271.24968
 20
147050.16246
 30
0.0
 11
0.0
 21
150.0000000000116
 31
0.0
210
0.0
220
0.0
230
1.0
 40
0.3333333333333075
 41
0.0
 42
3.141592653589793
  0
LINE
  5
B351
330
B43B
100
AcDbEntity
  8
A822_別途：家具
  6
Continuous
 62
     7
370
     9
100
AcDbLine
 10
182271.24968
 20
146910.16246
 30
0.0
 11
182551.24968
 21
146910.16246
 31
0.0
  0
LINE
  5
B352
330
B43B
100
AcDbEntity
  8
A822_別途：家具
  6
Continuous
 62
     7
370
     9
100
AcDbLine
 10
182271.24968
 20
147190.16246
 30
0.0
 11
182551.24968
 21
147190.16246
 31
0.0
  0
SPLINE
  5
B353
330
B43B
100
AcDbEntity
  8
A822_別途：家具
  6
Continuous
 62
     7
370
     9
100
AcDbSpline
210
0.0
220
0.0
230
1.0
 70
     8
 71
     3
 72
    18
 73
    14
 74
     0
 42
0.0000000001
 43
0.0000000001
 40
0.0
 40
0.0
 40
0.0
 40
0.0
 40
0.125
 40
0.125
 40
0.25
 40
0.25
 40
0.5
 40
0.5
 40
0.75
 40
0.75
 40
0.875
 40
0.875
 40
1.0
 40
1.0
 40
1.0
 40
1.0
 10
182271.2496796164
 20
147190.1624599352
 30
0.0
 10
182268.4101078551
 20
147190.1624599352
 30
0.0
 10
182264.5376871752
 20
147188.3844093368
 30
0.0
 10
182254.7652944655
 20
147175.9754125487
 30
0.0
 10
182249.6723211925
 20
147165.898046678
 30
0.0
 10
182236.8196760977
 20
147127.3401113936
 30
0.0
 10
182231.2496796164
 20
147090.6540043767
 30
0.0
 10
182231.2496796164
 20
147009.6709154938
 30
0.0
 10
182236.8196760977
 20
146972.9848084768
 30
0.0
 10
182249.6723211925
 20
146934.4268731924
 30
0.0
 10
182254.7652944655
 20
146924.3495073216
 30
0.0
 10
182264.5376871752
 20
146911.9405105337
 30
0.0
 10
182268.4101078551
 20
146910.1624599353
 30
0.0
 10
182271.2496796164
 20
146910.1624599353
 30
0.0
  0
LINE
  5
B356
330
B43B
100
AcDbEntity
  8
A822_別途：家具
  6
Continuous
 62
     7
370
     9
100
AcDbLine
 10
186431.24968
 20
146385.16246
 30
0.0
 11
186431.24968
 21
146665.16246
 31
0.0
  0
LINE
  5
B357
330
B43B
100
AcDbEntity
  8
A822_別途：家具
  6
Continuous
 62
     7
370
    13
100
AcDbLine
 10
186431.24968
 20
146675.16246
 30
0.0
 11
186151.24968
 21
146675.16246
 31
0.0
  0
LINE
  5
B358
330
B43B
100
AcDbEntity
  8
A822_別途：家具
  6
Continuous
 62
     7
370
    13
100
AcDbLine
 10
186431.24968
 20
146375.16246
 30
0.0
 11
186151.24968
 21
146375.16246
 31
0.0
  0
ELLIPSE
  5
B359
330
B43B
100
AcDbEntity
  8
A822_別途：家具
  6
Continuous
 62
     7
370
    13
100
AcDbEllipse
 10
186431.24968
 20
146525.16246
 30
0.0
 11
0.0
 21
150.0000000000116
 31
0.0
210
0.0
220
0.0
230
-1.0
 40
0.3333333333333075
 41
0.0
 42
3.141592653589793
  0
LINE
  5
B35A
330
B43B
100
AcDbEntity
  8
A822_別途：家具
  6
Continuous
 62
     7
370
     9
100
AcDbLine
 10
186431.24968
 20
146385.16246
 30
0.0
 11
186151.24968
 21
146385.16246
 31
0.0
  0
LINE
  5
B35B
330
B43B
100
AcDbEntity
  8
A822_別途：家具
  6
Continuous
 62
     7
370
     9
100
AcDbLine
 10
186431.24968
 20
146665.16246
 30
0.0
 11
186151.24968
 21
146665.16246
 31
0.0
  0
SPLINE
  5
B35C
330
B43B
100
AcDbEntity
  8
A822_別途：家具
  6
Continuous
 62
     7
370
     9
100
AcDbSpline
210
0.0
220
0.0
230
1.0
 70
     8
 71
     3
 72
    18
 73
    14
 74
     0
 42
0.0000000001
 43
0.0000000001
 40
0.0
 40
0.0
 40
0.0
 40
0.0
 40
0.125
 40
0.125
 40
0.25
 40
0.25
 40
0.5
 40
0.5
 40
0.75
 40
0.75
 40
0.875
 40
0.875
 40
1.0
 40
1.0
 40
1.0
 40
1.0
 10
186431.2496796164
 20
146665.1624599352
 30
0.0
 10
186434.0892513777
 20
146665.1624599352
 30
0.0
 10
186437.9616720576
 20
146663.3844093368
 30
0.0
 10
186447.7340647672
 20
146650.9754125487
 30
0.0
 10
186452.8270380403
 20
146640.898046678
 30
0.0
 10
186465.6796831351
 20
146602.3401113936
 30
0.0
 10
186471.2496796164
 20
146565.6540043767
 30
0.0
 10
186471.2496796164
 20
146484.6709154938
 30
0.0
 10
186465.6796831351
 20
146447.9848084768
 30
0.0
 10
186452.8270380403
 20
146409.4268731924
 30
0.0
 10
186447.7340647672
 20
146399.3495073216
 30
0.0
 10
186437.9616720576
 20
146386.9405105336
 30
0.0
 10
186434.0892513777
 20
146385.1624599352
 30
0.0
 10
186431.2496796164
 20
146385.1624599352
 30
0.0
  0
LINE
  5
B35F
330
B43B
100
AcDbEntity
  8
A822_別途：家具
  6
Continuous
 62
     7
370
     9
100
AcDbLine
 10
186431.24968
 20
145860.16246
 30
0.0
 11
186431.24968
 21
146140.16246
 31
0.0
  0
LINE
  5
B360
330
B43B
100
AcDbEntity
  8
A822_別途：家具
  6
Continuous
 62
     7
370
    13
100
AcDbLine
 10
186431.24968
 20
146150.16246
 30
0.0
 11
186151.24968
 21
146150.16246
 31
0.0
  0
LINE
  5
B361
330
B43B
100
AcDbEntity
  8
A822_別途：家具
  6
Continuous
 62
     7
370
    13
100
AcDbLine
 10
186431.24968
 20
145850.16246
 30
0.0
 11
186151.24968
 21
145850.16246
 31
0.0
  0
ELLIPSE
  5
B362
330
B43B
100
AcDbEntity
  8
A822_別途：家具
  6
Continuous
 62
     7
370
    13
100
AcDbEllipse
 10
186431.24968
 20
146000.16246
 30
0.0
 11
0.0
 21
150.0000000000116
 31
0.0
210
0.0
220
0.0
230
-1.0
 40
0.3333333333333075
 41
0.0
 42
3.141592653589793
  0
LINE
  5
B363
330
B43B
100
AcDbEntity
  8
A822_別途：家具
  6
Continuous
 62
     7
370
     9
100
AcDbLine
 10
186431.24968
 20
145860.16246
 30
0.0
 11
186151.24968
 21
145860.16246
 31
0.0
  0
LINE
  5
B364
330
B43B
100
AcDbEntity
  8
A822_別途：家具
  6
Continuous
 62
     7
370
     9
100
AcDbLine
 10
186431.24968
 20
146140.16246
 30
0.0
 11
186151.24968
 21
146140.16246
 31
0.0
  0
SPLINE
  5
B365
330
B43B
100
AcDbEntity
  8
A822_別途：家具
  6
Continuous
 62
     7
370
     9
100
AcDbSpline
210
0.0
220
0.0
230
1.0
 70
     8
 71
     3
 72
    18
 73
    14
 74
     0
 42
0.0000000001
 43
0.0000000001
 40
0.0
 40
0.0
 40
0.0
 40
0.0
 40
0.125
 40
0.125
 40
0.25
 40
0.25
 40
0.5
 40
0.5
 40
0.75
 40
0.75
 40
0.875
 40
0.875
 40
1.0
 40
1.0
 40
1.0
 40
1.0
 10
186431.2496796164
 20
146140.1624599352
 30
0.0
 10
186434.0892513777
 20
146140.1624599352
 30
0.0
 10
186437.9616720576
 20
146138.3844093368
 30
0.0
 10
186447.7340647672
 20
146125.9754125487
 30
0.0
 10
186452.8270380403
 20
146115.898046678
 30
0.0
 10
186465.6796831351
 20
146077.3401113936
 30
0.0
 10
186471.2496796164
 20
146040.6540043767
 30
0.0
 10
186471.2496796164
 20
145959.6709154938
 30
0.0
 10
186465.6796831351
 20
145922.9848084768
 30
0.0
 10
186452.8270380403
 20
145884.4268731924
 30
0.0
 10
186447.7340647672
 20
145874.3495073217
 30
0.0
 10
186437.9616720576
 20
145861.9405105337
 30
0.0
 10
186434.0892513777
 20
145860.1624599352
 30
0.0
 10
186431.2496796164
 20
145860.1624599352
 30
0.0
  0
LINE
  5
B368
330
B43B
100
AcDbEntity
  8
A822_別途：家具
  6
Continuous
 62
     7
370
     9
100
AcDbLine
 10
186431.24968
 20
146910.16246
 30
0.0
 11
186431.24968
 21
147190.16246
 31
0.0
  0
LINE
  5
B369
330
B43B
100
AcDbEntity
  8
A822_別途：家具
  6
Continuous
 62
     7
370
    13
100
AcDbLine
 10
186431.24968
 20
147200.16246
 30
0.0
 11
186151.24968
 21
147200.16246
 31
0.0
  0
LINE
  5
B36A
330
B43B
100
AcDbEntity
  8
A822_別途：家具
  6
Continuous
 62
     7
370
    13
100
AcDbLine
 10
186431.24968
 20
146900.16246
 30
0.0
 11
186151.24968
 21
146900.16246
 31
0.0
  0
ELLIPSE
  5
B36B
330
B43B
100
AcDbEntity
  8
A822_別途：家具
  6
Continuous
 62
     7
370
    13
100
AcDbEllipse
 10
186431.24968
 20
147050.16246
 30
0.0
 11
0.0
 21
150.0000000000116
 31
0.0
210
0.0
220
0.0
230
-1.0
 40
0.3333333333333075
 41
0.0
 42
3.141592653589793
  0
LINE
  5
B36C
330
B43B
100
AcDbEntity
  8
A822_別途：家具
  6
Continuous
 62
     7
370
     9
100
AcDbLine
 10
186431.24968
 20
146910.16246
 30
0.0
 11
186151.24968
 21
146910.16246
 31
0.0
  0
LINE
  5
B36D
330
B43B
100
AcDbEntity
  8
A822_別途：家具
  6
Continuous
 62
     7
370
     9
100
AcDbLine
 10
186431.24968
 20
147190.16246
 30
0.0
 11
186151.24968
 21
147190.16246
 31
0.0
  0
SPLINE
  5
B36E
330
B43B
100
AcDbEntity
  8
A822_別途：家具
  6
Continuous
 62
     7
370
     9
100
AcDbSpline
210
0.0
220
0.0
230
1.0
 70
     8
 71
     3
 72
    18
 73
    14
 74
     0
 42
0.0000000001
 43
0.0000000001
 40
0.0
 40
0.0
 40
0.0
 40
0.0
 40
0.125
 40
0.125
 40
0.25
 40
0.25
 40
0.5
 40
0.5
 40
0.75
 40
0.75
 40
0.875
 40
0.875
 40
1.0
 40
1.0
 40
1.0
 40
1.0
 10
186431.2496796164
 20
147190.1624599352
 30
0.0
 10
186434.0892513777
 20
147190.1624599352
 30
0.0
 10
186437.9616720576
 20
147188.3844093368
 30
0.0
 10
186447.7340647672
 20
147175.9754125487
 30
0.0
 10
186452.8270380403
 20
147165.898046678
 30
0.0
 10
186465.6796831351
 20
147127.3401113936
 30
0.0
 10
186471.2496796164
 20
147090.6540043767
 30
0.0
 10
186471.2496796164
 20
147009.6709154938
 30
0.0
 10
186465.6796831351
 20
146972.9848084768
 30
0.0
 10
186452.8270380403
 20
146934.4268731924
 30
0.0
 10
186447.7340647672
 20
146924.3495073216
 30
0.0
 10
186437.9616720576
 20
146911.9405105337
 30
0.0
 10
186434.0892513777
 20
146910.1624599353
 30
0.0
 10
186431.2496796164
 20
146910.1624599353
 30
0.0
  0
LINE
  5
B371
330
B43B
100
AcDbEntity
  8
A822_別途：家具
  6
Continuous
 62
     7
370
     9
100
AcDbLine
 10
183311.24968
 20
148155.16246
 30
0.0
 11
183591.24968
 21
148155.16246
 31
0.0
  0
LINE
  5
B372
330
B43B
100
AcDbEntity
  8
A822_別途：家具
  6
Continuous
 62
     7
370
    13
100
AcDbLine
 10
183601.24968
 20
148155.16246
 30
0.0
 11
183601.24968
 21
147875.16246
 31
0.0
  0
LINE
  5
B373
330
B43B
100
AcDbEntity
  8
A822_別途：家具
  6
Continuous
 62
     7
370
    13
100
AcDbLine
 10
183301.24968
 20
148155.16246
 30
0.0
 11
183301.24968
 21
147875.16246
 31
0.0
  0
ELLIPSE
  5
B374
330
B43B
100
AcDbEntity
  8
A822_別途：家具
  6
Continuous
 62
     7
370
    13
100
AcDbEllipse
 10
183451.24968
 20
148155.16246
 30
0.0
 11
150.0000000000116
 21
0.0
 31
0.0
210
0.0
220
0.0
230
1.0
 40
0.3333333333333075
 41
0.0
 42
3.141592653589793
  0
LINE
  5
B375
330
B43B
100
AcDbEntity
  8
A822_別途：家具
  6
Continuous
 62
     7
370
     9
100
AcDbLine
 10
183311.24968
 20
148155.16246
 30
0.0
 11
183311.24968
 21
147875.16246
 31
0.0
  0
LINE
  5
B376
330
B43B
100
AcDbEntity
  8
A822_別途：家具
  6
Continuous
 62
     7
370
     9
100
AcDbLine
 10
183591.24968
 20
148155.16246
 30
0.0
 11
183591.24968
 21
147875.16246
 31
0.0
  0
SPLINE
  5
B377
330
B43B
100
AcDbEntity
  8
A822_別途：家具
  6
Continuous
 62
     7
370
     9
100
AcDbSpline
210
0.0
220
0.0
230
1.0
 70
     8
 71
     3
 72
    18
 73
    14
 74
     0
 42
0.0000000001
 43
0.0000000001
 40
0.0
 40
0.0
 40
0.0
 40
0.0
 40
0.125
 40
0.125
 40
0.25
 40
0.25
 40
0.5
 40
0.5
 40
0.75
 40
0.75
 40
0.875
 40
0.875
 40
1.0
 40
1.0
 40
1.0
 40
1.0
 10
183591.2496796164
 20
148155.1624599352
 30
0.0
 10
183591.2496796164
 20
148158.0020316966
 30
0.0
 10
183589.471629018
 20
148161.8744523764
 30
0.0
 10
183577.0626322299
 20
148171.646845086
 30
0.0
 10
183566.9852663593
 20
148176.7398183592
 30
0.0
 10
183528.4273310748
 20
148189.592463454
 30
0.0
 10
183491.7412240579
 20
148195.1624599352
 30
0.0
 10
183410.7581351751
 20
148195.1624599352
 30
0.0
 10
183374.072028158
 20
148189.592463454
 30
0.0
 10
183335.5140928736
 20
148176.7398183592
 30
0.0
 10
183325.4367270028
 20
148171.6468450861
 30
0.0
 10
183313.0277302149
 20
148161.8744523764
 30
0.0
 10
183311.2496796165
 20
148158.0020316966
 30
0.0
 10
183311.2496796165
 20
148155.1624599352
 30
0.0
  0
LINE
  5
B37A
330
B43B
100
AcDbEntity
  8
A822_別途：家具
  6
Continuous
 62
     7
370
     9
100
AcDbLine
 10
182786.24968
 20
148155.16246
 30
0.0
 11
183066.24968
 21
148155.16246
 31
0.0
  0
LINE
  5
B37B
330
B43B
100
AcDbEntity
  8
A822_別途：家具
  6
Continuous
 62
     7
370
    13
100
AcDbLine
 10
183076.24968
 20
148155.16246
 30
0.0
 11
183076.24968
 21
147875.16246
 31
0.0
  0
LINE
  5
B37C
330
B43B
100
AcDbEntity
  8
A822_別途：家具
  6
Continuous
 62
     7
370
    13
100
AcDbLine
 10
182776.24968
 20
148155.16246
 30
0.0
 11
182776.24968
 21
147875.16246
 31
0.0
  0
ELLIPSE
  5
B37D
330
B43B
100
AcDbEntity
  8
A822_別途：家具
  6
Continuous
 62
     7
370
    13
100
AcDbEllipse
 10
182926.24968
 20
148155.16246
 30
0.0
 11
150.0000000000116
 21
0.0
 31
0.0
210
0.0
220
0.0
230
1.0
 40
0.3333333333333075
 41
0.0
 42
3.141592653589793
  0
LINE
  5
B37E
330
B43B
100
AcDbEntity
  8
A822_別途：家具
  6
Continuous
 62
     7
370
     9
100
AcDbLine
 10
182786.24968
 20
148155.16246
 30
0.0
 11
182786.24968
 21
147875.16246
 31
0.0
  0
LINE
  5
B37F
330
B43B
100
AcDbEntity
  8
A822_別途：家具
  6
Continuous
 62
     7
370
     9
100
AcDbLine
 10
183066.24968
 20
148155.16246
 30
0.0
 11
183066.24968
 21
147875.16246
 31
0.0
  0
SPLINE
  5
B380
330
B43B
100
AcDbEntity
  8
A822_別途：家具
  6
Continuous
 62
     7
370
     9
100
AcDbSpline
210
0.0
220
0.0
230
1.0
 70
     8
 71
     3
 72
    18
 73
    14
 74
     0
 42
0.0000000001
 43
0.0000000001
 40
0.0
 40
0.0
 40
0.0
 40
0.0
 40
0.125
 40
0.125
 40
0.25
 40
0.25
 40
0.5
 40
0.5
 40
0.75
 40
0.75
 40
0.875
 40
0.875
 40
1.0
 40
1.0
 40
1.0
 40
1.0
 10
183066.2496796165
 20
148155.1624599352
 30
0.0
 10
183066.2496796164
 20
148158.0020316966
 30
0.0
 10
183064.4716290181
 20
148161.8744523764
 30
0.0
 10
183052.0626322299
 20
148171.646845086
 30
0.0
 10
183041.9852663592
 20
148176.7398183592
 30
0.0
 10
183003.4273310748
 20
148189.592463454
 30
0.0
 10
182966.7412240579
 20
148195.1624599352
 30
0.0
 10
182885.7581351751
 20
148195.1624599352
 30
0.0
 10
182849.072028158
 20
148189.592463454
 30
0.0
 10
182810.5140928736
 20
148176.7398183592
 30
0.0
 10
182800.4367270029
 20
148171.6468450861
 30
0.0
 10
182788.0277302149
 20
148161.8744523764
 30
0.0
 10
182786.2496796164
 20
148158.0020316966
 30
0.0
 10
182786.2496796164
 20
148155.1624599352
 30
0.0
  0
LINE
  5
B383
330
B43B
100
AcDbEntity
  8
A822_別途：家具
  6
Continuous
 62
     7
370
     9
100
AcDbLine
 10
183836.24968
 20
148155.16246
 30
0.0
 11
184116.24968
 21
148155.16246
 31
0.0
  0
LINE
  5
B384
330
B43B
100
AcDbEntity
  8
A822_別途：家具
  6
Continuous
 62
     7
370
    13
100
AcDbLine
 10
184126.24968
 20
148155.16246
 30
0.0
 11
184126.24968
 21
147875.16246
 31
0.0
  0
LINE
  5
B385
330
B43B
100
AcDbEntity
  8
A822_別途：家具
  6
Continuous
 62
     7
370
    13
100
AcDbLine
 10
183826.24968
 20
148155.16246
 30
0.0
 11
183826.24968
 21
147875.16246
 31
0.0
  0
ELLIPSE
  5
B386
330
B43B
100
AcDbEntity
  8
A822_別途：家具
  6
Continuous
 62
     7
370
    13
100
AcDbEllipse
 10
183976.24968
 20
148155.16246
 30
0.0
 11
150.0000000000116
 21
0.0
 31
0.0
210
0.0
220
0.0
230
1.0
 40
0.3333333333333075
 41
0.0
 42
3.141592653589793
  0
LINE
  5
B387
330
B43B
100
AcDbEntity
  8
A822_別途：家具
  6
Continuous
 62
     7
370
     9
100
AcDbLine
 10
183836.24968
 20
148155.16246
 30
0.0
 11
183836.24968
 21
147875.16246
 31
0.0
  0
LINE
  5
B388
330
B43B
100
AcDbEntity
  8
A822_別途：家具
  6
Continuous
 62
     7
370
     9
100
AcDbLine
 10
184116.24968
 20
148155.16246
 30
0.0
 11
184116.24968
 21
147875.16246
 31
0.0
  0
SPLINE
  5
B389
330
B43B
100
AcDbEntity
  8
A822_別途：家具
  6
Continuous
 62
     7
370
     9
100
AcDbSpline
210
0.0
220
0.0
230
1.0
 70
     8
 71
     3
 72
    18
 73
    14
 74
     0
 42
0.0000000001
 43
0.0000000001
 40
0.0
 40
0.0
 40
0.0
 40
0.0
 40
0.125
 40
0.125
 40
0.25
 40
0.25
 40
0.5
 40
0.5
 40
0.75
 40
0.75
 40
0.875
 40
0.875
 40
1.0
 40
1.0
 40
1.0
 40
1.0
 10
184116.2496796165
 20
148155.1624599352
 30
0.0
 10
184116.2496796164
 20
148158.0020316966
 30
0.0
 10
184114.4716290181
 20
148161.8744523764
 30
0.0
 10
184102.0626322299
 20
148171.646845086
 30
0.0
 10
184091.9852663592
 20
148176.7398183592
 30
0.0
 10
184053.4273310748
 20
148189.592463454
 30
0.0
 10
184016.7412240579
 20
148195.1624599352
 30
0.0
 10
183935.7581351751
 20
148195.1624599352
 30
0.0
 10
183899.072028158
 20
148189.592463454
 30
0.0
 10
183860.5140928736
 20
148176.7398183592
 30
0.0
 10
183850.4367270029
 20
148171.6468450861
 30
0.0
 10
183838.0277302149
 20
148161.8744523764
 30
0.0
 10
183836.2496796165
 20
148158.0020316966
 30
0.0
 10
183836.2496796165
 20
148155.1624599352
 30
0.0
  0
LINE
  5
B38C
330
B43B
100
AcDbEntity
  8
A822_別途：家具
  6
Continuous
 62
     7
370
     9
100
AcDbLine
 10
185111.24968
 20
148155.16246
 30
0.0
 11
185391.24968
 21
148155.16246
 31
0.0
  0
LINE
  5
B38D
330
B43B
100
AcDbEntity
  8
A822_別途：家具
  6
Continuous
 62
     7
370
    13
100
AcDbLine
 10
185401.24968
 20
148155.16246
 30
0.0
 11
185401.24968
 21
147875.16246
 31
0.0
  0
LINE
  5
B38E
330
B43B
100
AcDbEntity
  8
A822_別途：家具
  6
Continuous
 62
     7
370
    13
100
AcDbLine
 10
185101.24968
 20
148155.16246
 30
0.0
 11
185101.24968
 21
147875.16246
 31
0.0
  0
ELLIPSE
  5
B38F
330
B43B
100
AcDbEntity
  8
A822_別途：家具
  6
Continuous
 62
     7
370
    13
100
AcDbEllipse
 10
185251.24968
 20
148155.16246
 30
0.0
 11
150.0000000000116
 21
0.0
 31
0.0
210
0.0
220
0.0
230
1.0
 40
0.3333333333333075
 41
0.0
 42
3.141592653589793
  0
LINE
  5
B390
330
B43B
100
AcDbEntity
  8
A822_別途：家具
  6
Continuous
 62
     7
370
     9
100
AcDbLine
 10
185111.24968
 20
148155.16246
 30
0.0
 11
185111.24968
 21
147875.16246
 31
0.0
  0
LINE
  5
B391
330
B43B
100
AcDbEntity
  8
A822_別途：家具
  6
Continuous
 62
     7
370
     9
100
AcDbLine
 10
185391.24968
 20
148155.16246
 30
0.0
 11
185391.24968
 21
147875.16246
 31
0.0
  0
SPLINE
  5
B392
330
B43B
100
AcDbEntity
  8
A822_別途：家具
  6
Continuous
 62
     7
370
     9
100
AcDbSpline
210
0.0
220
0.0
230
1.0
 70
     8
 71
     3
 72
    18
 73
    14
 74
     0
 42
0.0000000001
 43
0.0000000001
 40
0.0
 40
0.0
 40
0.0
 40
0.0
 40
0.125
 40
0.125
 40
0.25
 40
0.25
 40
0.5
 40
0.5
 40
0.75
 40
0.75
 40
0.875
 40
0.875
 40
1.0
 40
1.0
 40
1.0
 40
1.0
 10
185391.2496796164
 20
148155.1624599352
 30
0.0
 10
185391.2496796164
 20
148158.0020316966
 30
0.0
 10
185389.471629018
 20
148161.8744523764
 30
0.0
 10
185377.0626322299
 20
148171.646845086
 30
0.0
 10
185366.9852663592
 20
148176.7398183592
 30
0.0
 10
185328.4273310748
 20
148189.592463454
 30
0.0
 10
185291.7412240579
 20
148195.1624599352
 30
0.0
 10
185210.758135175
 20
148195.1624599352
 30
0.0
 10
185174.072028158
 20
148189.592463454
 30
0.0
 10
185135.5140928736
 20
148176.7398183592
 30
0.0
 10
185125.4367270028
 20
148171.6468450861
 30
0.0
 10
185113.0277302148
 20
148161.8744523764
 30
0.0
 10
185111.2496796164
 20
148158.0020316966
 30
0.0
 10
185111.2496796164
 20
148155.1624599352
 30
0.0
  0
LINE
  5
B395
330
B43B
100
AcDbEntity
  8
A822_別途：家具
  6
Continuous
 62
     7
370
     9
100
AcDbLine
 10
184586.24968
 20
148155.16246
 30
0.0
 11
184866.24968
 21
148155.16246
 31
0.0
  0
LINE
  5
B396
330
B43B
100
AcDbEntity
  8
A822_別途：家具
  6
Continuous
 62
     7
370
    13
100
AcDbLine
 10
184876.24968
 20
148155.16246
 30
0.0
 11
184876.24968
 21
147875.16246
 31
0.0
  0
LINE
  5
B397
330
B43B
100
AcDbEntity
  8
A822_別途：家具
  6
Continuous
 62
     7
370
    13
100
AcDbLine
 10
184576.24968
 20
148155.16246
 30
0.0
 11
184576.24968
 21
147875.16246
 31
0.0
  0
ELLIPSE
  5
B398
330
B43B
100
AcDbEntity
  8
A822_別途：家具
  6
Continuous
 62
     7
370
    13
100
AcDbEllipse
 10
184726.24968
 20
148155.16246
 30
0.0
 11
150.0000000000116
 21
0.0
 31
0.0
210
0.0
220
0.0
230
1.0
 40
0.3333333333333075
 41
0.0
 42
3.141592653589793
  0
LINE
  5
B399
330
B43B
100
AcDbEntity
  8
A822_別途：家具
  6
Continuous
 62
     7
370
     9
100
AcDbLine
 10
184586.24968
 20
148155.16246
 30
0.0
 11
184586.24968
 21
147875.16246
 31
0.0
  0
LINE
  5
B39A
330
B43B
100
AcDbEntity
  8
A822_別途：家具
  6
Continuous
 62
     7
370
     9
100
AcDbLine
 10
184866.24968
 20
148155.16246
 30
0.0
 11
184866.24968
 21
147875.16246
 31
0.0
  0
SPLINE
  5
B39B
330
B43B
100
AcDbEntity
  8
A822_別途：家具
  6
Continuous
 62
     7
370
     9
100
AcDbSpline
210
0.0
220
0.0
230
1.0
 70
     8
 71
     3
 72
    18
 73
    14
 74
     0
 42
0.0000000001
 43
0.0000000001
 40
0.0
 40
0.0
 40
0.0
 40
0.0
 40
0.125
 40
0.125
 40
0.25
 40
0.25
 40
0.5
 40
0.5
 40
0.75
 40
0.75
 40
0.875
 40
0.875
 40
1.0
 40
1.0
 40
1.0
 40
1.0
 10
184866.2496796164
 20
148155.1624599352
 30
0.0
 10
184866.2496796164
 20
148158.0020316966
 30
0.0
 10
184864.4716290181
 20
148161.8744523764
 30
0.0
 10
184852.0626322299
 20
148171.646845086
 30
0.0
 10
184841.9852663592
 20
148176.7398183592
 30
0.0
 10
184803.4273310748
 20
148189.592463454
 30
0.0
 10
184766.7412240578
 20
148195.1624599352
 30
0.0
 10
184685.758135175
 20
148195.1624599352
 30
0.0
 10
184649.072028158
 20
148189.592463454
 30
0.0
 10
184610.5140928736
 20
148176.7398183592
 30
0.0
 10
184600.4367270028
 20
148171.6468450861
 30
0.0
 10
184588.0277302149
 20
148161.8744523764
 30
0.0
 10
184586.2496796165
 20
148158.0020316966
 30
0.0
 10
184586.2496796165
 20
148155.1624599352
 30
0.0
  0
LINE
  5
B39E
330
B43B
100
AcDbEntity
  8
A822_別途：家具
  6
Continuous
 62
     7
370
     9
100
AcDbLine
 10
185636.24968
 20
148155.16246
 30
0.0
 11
185916.24968
 21
148155.16246
 31
0.0
  0
LINE
  5
B39F
330
B43B
100
AcDbEntity
  8
A822_別途：家具
  6
Continuous
 62
     7
370
    13
100
AcDbLine
 10
185926.24968
 20
148155.16246
 30
0.0
 11
185926.24968
 21
147875.16246
 31
0.0
  0
LINE
  5
B3A0
330
B43B
100
AcDbEntity
  8
A822_別途：家具
  6
Continuous
 62
     7
370
    13
100
AcDbLine
 10
185626.24968
 20
148155.16246
 30
0.0
 11
185626.24968
 21
147875.16246
 31
0.0
  0
ELLIPSE
  5
B3A1
330
B43B
100
AcDbEntity
  8
A822_別途：家具
  6
Continuous
 62
     7
370
    13
100
AcDbEllipse
 10
185776.24968
 20
148155.16246
 30
0.0
 11
150.0000000000116
 21
0.0
 31
0.0
210
0.0
220
0.0
230
1.0
 40
0.3333333333333075
 41
0.0
 42
3.141592653589793
  0
LINE
  5
B3A2
330
B43B
100
AcDbEntity
  8
A822_別途：家具
  6
Continuous
 62
     7
370
     9
100
AcDbLine
 10
185636.24968
 20
148155.16246
 30
0.0
 11
185636.24968
 21
147875.16246
 31
0.0
  0
LINE
  5
B3A3
330
B43B
100
AcDbEntity
  8
A822_別途：家具
  6
Continuous
 62
     7
370
     9
100
AcDbLine
 10
185916.24968
 20
148155.16246
 30
0.0
 11
185916.24968
 21
147875.16246
 31
0.0
  0
SPLINE
  5
B3A4
330
B43B
100
AcDbEntity
  8
A822_別途：家具
  6
Continuous
 62
     7
370
     9
100
AcDbSpline
210
0.0
220
0.0
230
1.0
 70
     8
 71
     3
 72
    18
 73
    14
 74
     0
 42
0.0000000001
 43
0.0000000001
 40
0.0
 40
0.0
 40
0.0
 40
0.0
 40
0.125
 40
0.125
 40
0.25
 40
0.25
 40
0.5
 40
0.5
 40
0.75
 40
0.75
 40
0.875
 40
0.875
 40
1.0
 40
1.0
 40
1.0
 40
1.0
 10
185916.2496796164
 20
148155.1624599352
 30
0.0
 10
185916.2496796164
 20
148158.0020316966
 30
0.0
 10
185914.471629018
 20
148161.8744523764
 30
0.0
 10
185902.0626322299
 20
148171.646845086
 30
0.0
 10
185891.9852663592
 20
148176.7398183592
 30
0.0
 10
185853.4273310748
 20
148189.592463454
 30
0.0
 10
185816.7412240578
 20
148195.1624599352
 30
0.0
 10
185735.758135175
 20
148195.1624599352
 30
0.0
 10
185699.072028158
 20
148189.592463454
 30
0.0
 10
185660.5140928736
 20
148176.7398183592
 30
0.0
 10
185650.4367270028
 20
148171.6468450861
 30
0.0
 10
185638.0277302149
 20
148161.8744523764
 30
0.0
 10
185636.2496796164
 20
148158.0020316966
 30
0.0
 10
185636.2496796164
 20
148155.1624599352
 30
0.0
  0
ENDSEC
  0
SECTION
  2
OBJECTS
  0
DICTIONARY
  5
B440
330
0
100
AcDbDictionary
281
     1
  3
ACAD_COLOR
350
B47C
  3
ACAD_GROUP
350
B469
  3
ACAD_LAYOUT
350
B44D
  3
ACAD_MATERIAL
350
B442
  3
ACAD_MLEADERSTYLE
350
B47F
  3
ACAD_MLINESTYLE
350
B46A
  3
ACAD_PLOTSETTINGS
350
B46B
  3
ACAD_PLOTSTYLENAME
350
B43F
  3
ACAD_SCALELIST
350
B47D
  3
ACAD_TABLESTYLE
350
B47E
  3
ACAD_VISUALSTYLE
350
B463
  3
ACDB_RECOMPOSE_DATA
350
B4A8
  3
AcDbVariableDictionary
350
B4A1
  3
MicroStation
350
B497
  0
DICTIONARY
  5
B456
330
B455
100
AcDbDictionary
280
     1
281
     1
  3
ACAD_LAYERSTATES
360
B457
  0
DICTIONARY
  5
B47C
102
{ACAD_REACTORS
330
B440
102
}
330
B440
100
AcDbDictionary
281
     1
  0
DICTIONARY
  5
B469
102
{ACAD_REACTORS
330
B440
102
}
330
B440
100
AcDbDictionary
281
     1
  0
DICTIONARY
  5
B44D
102
{ACAD_REACTORS
330
B440
102
}
330
B440
100
AcDbDictionary
281
     1
  3
Layout1
350
B452
  3
Model
350
B44C
  0
DICTIONARY
  5
B442
102
{ACAD_REACTORS
330
B440
102
}
330
B440
100
AcDbDictionary
281
     1
  3
ByBlock
350
B474
  3
ByLayer
350
B46C
  3
Global
350
B441
  0
DICTIONARY
  5
B47F
102
{ACAD_REACTORS
330
B440
102
}
330
B440
100
AcDbDictionary
281
     1
  0
DICTIONARY
  5
B46A
102
{ACAD_REACTORS
330
B440
102
}
330
B440
100
AcDbDictionary
281
     1
  3
Standard
350
B480
  0
DICTIONARY
  5
B46B
102
{ACAD_REACTORS
330
B440
102
}
330
B440
100
AcDbDictionary
281
     1
  0
ACDBDICTIONARYWDFLT
  5
B43F
102
{ACAD_REACTORS
330
B440
102
}
330
B440
100
AcDbDictionary
281
     1
  3
Normal
350
B43E
100
AcDbDictionaryWithDefault
340
B43E
  0
DICTIONARY
  5
B47D
102
{ACAD_REACTORS
330
B440
102
}
330
B440
100
AcDbDictionary
281
     1
  3
A0
350
B484
  3
A1
350
B485
  3
A2
350
B486
  3
A3
350
B487
  3
A4
350
B488
  3
A5
350
B489
  3
A6
350
B48A
  3
A7
350
B48B
  3
A8
350
B48C
  3
A9
350
B48D
  3
B0
350
B48E
  3
B1
350
B48F
  3
B2
350
B490
  3
B3
350
B491
  3
B4
350
B492
  3
B5
350
B493
  3
B6
350
B494
  0
DICTIONARY
  5
B47E
102
{ACAD_REACTORS
330
B440
102
}
330
B440
100
AcDbDictionary
281
     1
  3
Standard
350
B481
  0
DICTIONARY
  5
B463
102
{ACAD_REACTORS
330
B440
102
}
330
B440
100
AcDbDictionary
281
     1
  3
2dWireframe
350
B462
  3
3dWireframe
350
B483
  3
Realistic
350
B482
  0
XRECORD
  5
B4A8
102
{ACAD_REACTORS
330
B440
102
}
330
B440
100
AcDbXrecord
280
     1
 90
        1
330
B481
  0
DICTIONARY
  5
B4A1
102
{ACAD_REACTORS
330
B440
102
}
330
B440
100
AcDbDictionary
281
     1
  3
CANNOSCALE
350
B4A4
  3
CMLEADERSTYLE
350
B4A3
  3
CTABLESTYLE
350
B4A2
  0
DICTIONARY
  5
B497
102
{ACAD_REACTORS
330
B440
102
}
330
B440
100
AcDbDictionary
281
     1
  3
Header
350
5B
  0
DICTIONARY
  5
B457
102
{ACAD_REACTORS
330
B456
102
}
330
B456
100
AcDbDictionary
281
     1
  0
LAYOUT
  5
B452
102
{ACAD_XDICTIONARY
360
B453
102
}
102
{ACAD_REACTORS
330
B44D
102
}
330
B44D
100
AcDbPlotSettings
  1

  2
none_device
  4
ISO_A4_(210.00_x_297.00_MM)
  6

 40
7.5
 41
20.0
 42
7.5
 43
20.0
 44
210.0
 45
297.0
 46
0.0
 47
0.0
 48
0.0
 49
0.0
140
0.0
141
0.0
142
1.0
143
1.0
 70
   688
 72
     1
 73
     1
 74
     5
  7

 75
    16
147
1.0
 76
     0
 77
     2
 78
   300
148
0.0
149
0.0
100
AcDbLayout
  1
Layout1
 70
     1
 71
     1
 10
-20.0
 20
-7.5
 11
277.0
 21
202.5
 12
0.0
 22
0.0
 32
0.0
 14
25.7
 24
19.5
 34
0.0
 15
231.3
 25
175.5
 35
0.0
146
0.0
 13
0.0
 23
0.0
 33
0.0
 16
1.0
 26
0.0
 36
0.0
 17
0.0
 27
1.0
 37
0.0
 76
     0
330
B44F
1001
ACAD_PSEXT
1000
None
1000
None
1000
Not applicable
1000
The layout will not be plotted unless a new plotter configuration name is selected.
1070
     0
  0
LAYOUT
  5
B44C
102
{ACAD_REACTORS
330
B44D
102
}
330
B44D
100
AcDbPlotSettings
  1

  2
none_device
  4
ISO_A4_(210.00_x_297.00_MM)
  6

 40
7.5
 41
20.0
 42
7.5
 43
20.0
 44
210.0
 45
297.0
 46
11.549999
 47
-13.65
 48
0.0
 49
0.0
140
0.0
141
0.0
142
1.0
143
8.704085
 70
 11952
 72
     1
 73
     0
 74
     0
  7

 75
     0
147
0.114889
 76
     0
 77
     2
 78
   300
148
0.0
149
0.0
100
AcDbLayout
  1
Model
 70
     1
 71
     0
 10
0.0
 20
0.0
 11
12.0
 21
9.0
 12
0.0
 22
0.0
 32
0.0
 14
0.0
 24
0.0
 34
0.0
 15
0.0
 25
0.0
 35
0.0
146
0.0
 13
0.0
 23
0.0
 33
0.0
 16
1.0
 26
0.0
 36
0.0
 17
0.0
 27
1.0
 37
0.0
 76
     0
330
B43B
1001
ACAD_PSEXT
1000
None
1000
None
1000
Not applicable
1000
The layout will not be plotted unless a new plotter configuration name is selected.
1070
     0
  0
MATERIAL
  5
B474
102
{ACAD_XDICTIONARY
360
B475
102
}
102
{ACAD_REACTORS
330
B442
102
}
330
B442
100
AcDbMaterial
  1
ByBlock
 72
     0
 43
0.00082
 43
0.0
 43
0.0
 43
0.0
 43
0.0
 43
0.00082
 43
0.0
 43
0.0
 43
0.0
 43
0.0
 43
1.0
 43
0.0
 43
0.0
 43
0.0
 43
0.0
 43
1.0
 77
     0
 47
0.00082
 47
0.0
 47
0.0
 47
0.0
 47
0.0
 47
0.00082
 47
0.0
 47
0.0
 47
0.0
 47
0.0
 47
1.0
 47
0.0
 47
0.0
 47
0.0
 47
0.0
 47
1.0
171
     0
 49
0.00082
 49
0.0
 49
0.0
 49
0.0
 49
0.0
 49
0.00082
 49
0.0
 49
0.0
 49
0.0
 49
0.0
 49
1.0
 49
0.0
 49
0.0
 49
0.0
 49
0.0
 49
1.0
175
     0
142
0.00082
142
0.0
142
0.0
142
0.0
142
0.0
142
0.00082
142
0.0
142
0.0
142
0.0
142
0.0
142
1.0
142
0.0
142
0.0
142
0.0
142
0.0
142
1.0
179
     0
144
0.00082
144
0.0
144
0.0
144
0.0
144
0.0
144
0.00082
144
0.0
144
0.0
144
0.0
144
0.0
144
1.0
144
0.0
144
0.0
144
0.0
144
0.0
144
1.0
147
0.00082
147
0.0
147
0.0
147
0.0
147
0.0
147
0.00082
147
0.0
147
0.0
147
0.0
147
0.0
147
1.0
147
0.0
147
0.0
147
0.0
147
0.0
147
1.0
  0
MATERIAL
  5
B46C
102
{ACAD_XDICTIONARY
360
B46D
102
}
102
{ACAD_REACTORS
330
B442
102
}
330
B442
100
AcDbMaterial
  1
ByLayer
 72
     0
 43
0.00082
 43
0.0
 43
0.0
 43
0.0
 43
0.0
 43
0.00082
 43
0.0
 43
0.0
 43
0.0
 43
0.0
 43
1.0
 43
0.0
 43
0.0
 43
0.0
 43
0.0
 43
1.0
 77
     0
 47
0.00082
 47
0.0
 47
0.0
 47
0.0
 47
0.0
 47
0.00082
 47
0.0
 47
0.0
 47
0.0
 47
0.0
 47
1.0
 47
0.0
 47
0.0
 47
0.0
 47
0.0
 47
1.0
171
     0
 49
0.00082
 49
0.0
 49
0.0
 49
0.0
 49
0.0
 49
0.00082
 49
0.0
 49
0.0
 49
0.0
 49
0.0
 49
1.0
 49
0.0
 49
0.0
 49
0.0
 49
0.0
 49
1.0
175
     0
142
0.00082
142
0.0
142
0.0
142
0.0
142
0.0
142
0.00082
142
0.0
142
0.0
142
0.0
142
0.0
142
1.0
142
0.0
142
0.0
142
0.0
142
0.0
142
1.0
179
     0
144
0.00082
144
0.0
144
0.0
144
0.0
144
0.0
144
0.00082
144
0.0
144
0.0
144
0.0
144
0.0
144
1.0
144
0.0
144
0.0
144
0.0
144
0.0
144
1.0
147
0.00082
147
0.0
147
0.0
147
0.0
147
0.0
147
0.00082
147
0.0
147
0.0
147
0.0
147
0.0
147
1.0
147
0.0
147
0.0
147
0.0
147
0.0
147
1.0
  0
MATERIAL
  5
B441
102
{ACAD_XDICTIONARY
360
B443
102
}
102
{ACAD_REACTORS
330
B442
102
}
330
B442
100
AcDbMaterial
  1
Global
 72
     0
 43
0.00082
 43
0.0
 43
0.0
 43
0.0
 43
0.0
 43
0.00082
 43
0.0
 43
0.0
 43
0.0
 43
0.0
 43
1.0
 43
0.0
 43
0.0
 43
0.0
 43
0.0
 43
1.0
 77
     0
 47
0.00082
 47
0.0
 47
0.0
 47
0.0
 47
0.0
 47
0.00082
 47
0.0
 47
0.0
 47
0.0
 47
0.0
 47
1.0
 47
0.0
 47
0.0
 47
0.0
 47
0.0
 47
1.0
171
     0
 49
0.00082
 49
0.0
 49
0.0
 49
0.0
 49
0.0
 49
0.00082
 49
0.0
 49
0.0
 49
0.0
 49
0.0
 49
1.0
 49
0.0
 49
0.0
 49
0.0
 49
0.0
 49
1.0
175
     0
142
0.00082
142
0.0
142
0.0
142
0.0
142
0.0
142
0.00082
142
0.0
142
0.0
142
0.0
142
0.0
142
1.0
142
0.0
142
0.0
142
0.0
142
0.0
142
1.0
179
     0
144
0.00082
144
0.0
144
0.0
144
0.0
144
0.0
144
0.00082
144
0.0
144
0.0
144
0.0
144
0.0
144
1.0
144
0.0
144
0.0
144
0.0
144
0.0
144
1.0
147
0.00082
147
0.0
147
0.0
147
0.0
147
0.0
147
0.00082
147
0.0
147
0.0
147
0.0
147
0.0
147
1.0
147
0.0
147
0.0
147
0.0
147
0.0
147
1.0
  0
MLINESTYLE
  5
B480
102
{ACAD_REACTORS
330
B46A
102
}
330
B46A
100
AcDbMlineStyle
  2
STANDARD
 70
     0
  3

 62
   256
 51
90.0
 52
90.0
 71
     2
 49
0.5
 62
   256
  6
BYLAYER
 49
-0.5
 62
   256
  6
BYLAYER
  0
ACDBPLACEHOLDER
  5
B43E
102
{ACAD_REACTORS
330
B43F
102
}
330
B43F
  0
SCALE
  5
B484
102
{ACAD_REACTORS
330
B47D
102
}
330
B47D
100
AcDbScale
 70
     0
300
1:1
140
1.0
141
1.0
290
     1
  0
SCALE
  5
B485
102
{ACAD_REACTORS
330
B47D
102
}
330
B47D
100
AcDbScale
 70
     0
300
1:2
140
1.0
141
2.0
290
     0
  0
SCALE
  5
B486
102
{ACAD_REACTORS
330
B47D
102
}
330
B47D
100
AcDbScale
 70
     0
300
1:4
140
1.0
141
4.0
290
     0
  0
SCALE
  5
B487
102
{ACAD_REACTORS
330
B47D
102
}
330
B47D
100
AcDbScale
 70
     0
300
1:5
140
1.0
141
5.0
290
     0
  0
SCALE
  5
B488
102
{ACAD_REACTORS
330
B47D
102
}
330
B47D
100
AcDbScale
 70
     0
300
1:8
140
1.0
141
8.0
290
     0
  0
SCALE
  5
B489
102
{ACAD_REACTORS
330
B47D
102
}
330
B47D
100
AcDbScale
 70
     0
300
1:10
140
1.0
141
10.0
290
     0
  0
SCALE
  5
B48A
102
{ACAD_REACTORS
330
B47D
102
}
330
B47D
100
AcDbScale
 70
     0
300
1:16
140
1.0
141
16.0
290
     0
  0
SCALE
  5
B48B
102
{ACAD_REACTORS
330
B47D
102
}
330
B47D
100
AcDbScale
 70
     0
300
1:20
140
1.0
141
20.0
290
     0
  0
SCALE
  5
B48C
102
{ACAD_REACTORS
330
B47D
102
}
330
B47D
100
AcDbScale
 70
     0
300
1:30
140
1.0
141
30.0
290
     0
  0
SCALE
  5
B48D
102
{ACAD_REACTORS
330
B47D
102
}
330
B47D
100
AcDbScale
 70
     0
300
1:40
140
1.0
141
40.0
290
     0
  0
SCALE
  5
B48E
102
{ACAD_REACTORS
330
B47D
102
}
330
B47D
100
AcDbScale
 70
     0
300
1:50
140
1.0
141
50.0
290
     0
  0
SCALE
  5
B48F
102
{ACAD_REACTORS
330
B47D
102
}
330
B47D
100
AcDbScale
 70
     0
300
1:100
140
1.0
141
100.0
290
     0
  0
SCALE
  5
B490
102
{ACAD_REACTORS
330
B47D
102
}
330
B47D
100
AcDbScale
 70
     0
300
2:1
140
2.0
141
1.0
290
     0
  0
SCALE
  5
B491
102
{ACAD_REACTORS
330
B47D
102
}
330
B47D
100
AcDbScale
 70
     0
300
4:1
140
4.0
141
1.0
290
     0
  0
SCALE
  5
B492
102
{ACAD_REACTORS
330
B47D
102
}
330
B47D
100
AcDbScale
 70
     0
300
8:1
140
8.0
141
1.0
290
     0
  0
SCALE
  5
B493
102
{ACAD_REACTORS
330
B47D
102
}
330
B47D
100
AcDbScale
 70
     0
300
10:1
140
10.0
141
1.0
290
     0
  0
SCALE
  5
B494
102
{ACAD_REACTORS
330
B47D
102
}
330
B47D
100
AcDbScale
 70
     0
300
100:1
140
100.0
141
1.0
290
     0
  0
TABLESTYLE
  5
B481
102
{ACAD_XDICTIONARY
360
B4A6
102
}
102
{ACAD_REACTORS
330
B47E
102
}
330
B47E
100
AcDbTableStyle
  3
Standard
 70
     0
 71
     0
 40
1.5
 41
1.5
280
     0
281
     0
  7
Standard
140
4.5
170
     2
 62
     0
 63
     7
283
     0
274
    -2
284
     1
 64
     0
275
    -2
285
     1
 65
     0
276
    -2
286
     1
 66
     0
277
    -2
287
     1
 67
     0
278
    -2
288
     1
 68
     0
279
    -2
289
     1
 69
     0
  7
Standard
140
6.0
170
     5
 62
     0
 63
     7
283
     0
274
    -2
284
     1
 64
     0
275
    -2
285
     1
 65
     0
276
    -2
286
     1
 66
     0
277
    -2
287
     1
 67
     0
278
    -2
288
     1
 68
     0
279
    -2
289
     1
 69
     0
  7
Standard
140
4.5
170
     5
 62
     0
 63
     7
283
     0
274
    -2
284
     1
 64
     0
275
    -2
285
     1
 65
     0
276
    -2
286
     1
 66
     0
277
    -2
287
     1
 67
     0
278
    -2
288
     1
 68
     0
279
    -2
289
     1
 69
     0
  0
VISUALSTYLE
  5
B462
102
{ACAD_XDICTIONARY
360
B4AA
102
}
102
{ACAD_REACTORS
330
B463
102
}
330
B463
100
AcDbVisualStyle
  2
2dWireframe
 70
     4
 71
     0
 72
     2
 73
     0
 90
        0
 40
-0.6
 41
-30.0
 62
     5
 63
     7
421
 16777215
 74
     1
 91
        4
 64
     7
 65
   257
 75
     1
175
     1
 42
1.0
 92
        0
 66
   257
 43
1.0
 76
     1
 77
     6
 78
     2
 67
     7
 79
     5
170
     0
171
     0
290
     0
174
     0
 93
        1
 44
0.0
173
     0
291
     0
 45
0.0
1001
ACAD
1000
AcDbSavedByObjectVersion
1070
     0
  0
VISUALSTYLE
  5
B483
102
{ACAD_XDICTIONARY
360
B4B1
102
}
102
{ACAD_REACTORS
330
B463
102
}
330
B463
100
AcDbVisualStyle
  2
3dWireframe
 70
     5
 71
     0
 72
     2
 73
     0
 90
        0
 40
-0.6
 41
-30.0
 62
     5
 63
     7
421
 16777215
 74
     1
 91
        4
 64
     7
 65
   257
 75
     1
175
     1
 42
1.0
 92
        0
 66
   257
 43
1.0
 76
     1
 77
     6
 78
     2
 67
     7
 79
     5
170
     0
171
     0
290
     0
174
     0
 93
        1
 44
0.0
173
     0
291
     0
 45
0.0
1001
ACAD
1000
AcDbSavedByObjectVersion
1070
     0
  0
VISUALSTYLE
  5
B482
102
{ACAD_XDICTIONARY
360
B4AF
102
}
102
{ACAD_REACTORS
330
B463
102
}
330
B463
100
AcDbVisualStyle
  2
Realistic
 70
     8
 71
     2
 72
     2
 73
     0
 90
        0
 40
-0.6
 41
-30.0
 62
     5
 63
     7
421
 16777215
 74
     1
 91
        0
 64
     7
 65
   257
 75
     1
175
     1
 42
1.0
 92
        8
 66
     8
424
  7895160
 43
1.0
 76
     1
 77
     6
 78
     2
 67
     7
 79
     5
170
     0
171
     0
290
     0
174
     0
 93
       13
 44
0.0
173
     0
291
     0
 45
0.0
1001
ACAD
1000
AcDbSavedByObjectVersion
1070
     0
  0
DICTIONARYVAR
  5
B4A4
102
{ACAD_REACTORS
330
B4A1
102
}
330
B4A1
100
DictionaryVariables
280
     0
  1
1:1
  0
DICTIONARYVAR
  5
B4A3
102
{ACAD_REACTORS
330
B4A1
102
}
330
B4A1
100
DictionaryVariables
280
     0
  1
STANDARD
  0
DICTIONARYVAR
  5
B4A2
102
{ACAD_REACTORS
330
B4A1
102
}
330
B4A1
100
DictionaryVariables
280
     0
  1
STANDARD
  0
XRECORD
  5
5B
102
{ACAD_REACTORS
330
B497
102
}
330
B497
100
AcDbXrecord
280
     1
310
0800000000000000000000000600100200060030000000000000000000408F40E80300000A000000000000000000F03F000000000088C3400000000000805640000000000000F03F000000000000F03F000000000000F03F000000000000F03F000000000000F03F0000000000000000000000000000000000000000000000
310
000000000000000000000000000000000000000000CD065FC1000000807A914DC1000000000000000000000000E0A1094100000000A003EE4000000000000000006500000000000000010000002400000000000000000000000000000001000000000000000000000000000000000000000000000000004940000000000000
310
000000000000000000000000000000000000000000000000000000000000000000000000000000000000000000000000000000000000000000000004000000000000000000000094A140000000000094A140000000000000000000000000000000000000000000000000000000000000000000000000000000000000000000
310
00000000000000000000000000000000000000000000000000000000000000000000000000000000000000000000000000000000000000000000000000000000000000000000000000000000000000000000000000000000000000000000000000000000000000000000000000000000000000000000000000000000000000
310
00000000000000000000000000000000000000000000000000000000000000000000000000000000000000004A00000000000000000000000000090000000000020000400100000000000500070101000000000000000000000000000000000000000000000000000000000000000000000000000000000000000000000000
310
00000000000000000000000000000000000000000000000000000000000000000000000000000000000000000000000000000000000000000000000000000000000000000001000000000000000000000000000000000075006E006B0000000000000000000000000000000000000000000000000000000000000000000000
310
00000000000000000000000000000000000000000000000000000000000000000000000000000000000000000000000000000000000000000000000000000000000000000000000000000000000000000000000000000000000000000000000000000000000000000000000000000000000000000000000000000000000000
310
00000000000000000000000000000000000000000000000000000000000000000000000000000000000000000000000000000000000000000000000000000000000000000000000000000000000000000000000000000000000000000000000000000000000000000000000000000000000000000000000000000000000000
310
00000000000000000000000000000000000000000000000000000000000000000000000000000000000000000000000000000000000000000000000000000000000000000000000000000000000000000000000000000000000000000000000000000000000000000000000000000000000000000000000000000000000000
310
00000000000000000000000000000000000000000000000000000000000000000000000000000000000000000000000000000000000000000000000000000000000000000000000000000000000000000000000000000000000000000000000000000000000000000000000000000000000000000000000000000000000000
310
00000000000000000000000000000000000000000000000000000000000000000000000000000000000000000000000000000000000000000000000000000000000000000000000000000000000000000000000000000000000000000000000000000000000000000000000000000000000000000000000000000000000000
310
00000000000000000000000000000000000000000000000000000000000000000000000000000000000000000000000000000000000000000000000000000000000000000000000000000000000000000000000000000000000000000000000000000000000000000000000000000000000000000000000000000000000000
310
00000000000000000000000000000000000000000000000000000000000000000000000000000000000000000000000000000000000000000000000000000000000000000000000000000000000000000000000000000000000000000000000000000000000000000000000000000000000000000000000000000000000000
310
000000000000000000000000000000000000000000000000000000000000000000000000000000000000000000000000000000000000000000000000000000000000000000000000000000000000000000000000000000000000000000000075006E006B000000000000000000000000000000000000000000000000000000
310
00000000000000000000000000000000000000000000000000000000000000000000000000000000000000000000000000000000000000000000000000000000000000000000000000000000000000000000000000000000000000000000000000000000000000000000000000000000000000000000000000000000000000
310
00000000000000000000000000000000000000000000000000000000000000000000000000000000000000000000000000000000000000000000000000000000000000000000000000000000000000000000000000000000000000000000000000000000000000000000000000000000000000000000000000000000000000
310
00000000000000000000000000000000000000000000000000000000000000000000000000000000000000000000000000000000000000000000000000000000000000000000000000000000000000000000000000000000000000000000000000000000000000000000000000000000000000000000000000000000000000
310
00000000000000000000000000000000000000000000000000000000000000000000000000000000000000000000000000000000000000000000000000000000000000000000000000000000000000000000000000000000000000000000000000000000000000000000000000000000000000000000000000000000000000
310
00000000000000000000000000000000000000000000000000000000000000000000000000000000000000000000000000000000000000000000000000000000000000000000000000000000000000000000000000000000000000000000000000000000000000000000000000000000000000000000000000000000000000
310
00000000000000000000000000000000000000000000000000000000000000000000000000000000000000000000000000000000000000000000000000000000000000000000000000000000000000000000000000000000000000000000000000000000000000000000000000000000000000000000000000000000000000
310
00000000000000000000000000000000000000000000000000000000000000000000000000000000000000000000000000000000000000000000000000000000000000000000000000000000000000000000000000000000000000000000000000000000000000000000000000000000000000000000000000000000000000
310
0000000000000000000000000000000000000000000000000000000000000000000000000000000000000000000000000000000000000000000000000000000000000000000000000000000000000000000000000000000000000000000000000000000000000000000000F03F000075006E006B0000000000000000000000
310
00000000000000000000000000000000000000000000000000000000000000000000000000000000000000000000000000000000000000000000000000000000000000000000000000000000000000000000000000000000000000000000000000000000000000000000000000000000000000000000000000000000000000
310
00000000000000000000000000000000000000000000000000000000000000000000000000000000000000000000000000000000000000000000000000000000000000000000000000000000000000000000000000000000000000000000000000000000000000000000000000000000000000000000000000000000000000
310
00000000000000000000000000000000000000000000000000000000000000000000000000000000000000000000000000000000000000000000000000000000000000000000000000000000000000000000000000000000000000000000000000000000000000000000000000000000000000000000000000000000000000
310
00000000000000000000000000000000000000000000000000000000000000000000000000000000000000000000000000000000000000000000000000000000000000000000000000000000000000000000000000000000000000000000000000000000000000000000000000000000000000000000000000000000000000
310
00000000000000000000000000000000000000000000000000000000000000000000000000000000000000000000000000000000000000000000000000000000000000000000000000000000000000000000000000000000000000000000000000000000000000000000000000000000000000000000000000000000000000
310
00000000000000000000000000000000000000000000000000000000000000000000000000000000000000000000000000000000000000000000000000000000000000000000000000000000000000000000000000000000000000000000000000000000000000000000000000000000000000000000000000000000000000
310
00000000000000000000000000000000000000000000000000000000000000000000000000000000000000000000000000000000000000000000000000000000000000000000000000000000000000000000000000000000000000000000000000000000000000000000000000000000000000000000000000000000000000
310
000000000000000000000000000000000000000000000000000000000000000000000000000000000000000000000000000000000000000000000000000000000000000000000000000000000000000000000000000000000000000000000000000000000000000000000000000000000000000000000000000000F03F0000
310
00000080464000000000008046C0000000000088C340000000000088C3400000000000000000000000000000000075006E006B00000000000000000000000000000000000000000000000000000000000000000000000000000000000000000000000000000000000000000000000000000000000000000000000000000000
310
00000000000000000000000000000000000000000000000000000000000000000000000000000000000000000000000000000000000000000000000000000000000000000000000000000000000000000000000000000000000000000000000000000000000000000000000000000000000000000000000000000000000000
310
00000000000000000000000000000000000000000000000000000000000000000000000000000000000000000000000000000000000000000000000000000000000000000000000000000000000000000000000000000000000000000000000000000000000000000000000000000000000000000000000000000000000000
310
00000000000000000000000000000000000000000000000000000000000000000000000000000000000000000000000000000000000000000000000000000000000000000000000000000000000000000000000000000000000000000000000000000000000000000000000000000000000000000000000000000000000000
310
00000000000000000000000000000000000000000000000000000000000000000000000000000000000000000000000000000000000000000000000000000000000000000000000000000000000000000000000000000000000000000000000000000000000000000000000000000000000000000000000000000000000000
310
00000000000000000000000000000000000000000000000000000000000000000000000000000000000000000000000000000000000000000000000000000000000000000000000000000000000000000000000000000000000000000000000000000000000000000000000000000000000000000000000000000000000000
310
00000000000000000000000000000000000000000000000000000000000000000000000000000000000000000000000000000000000000000000000000000000000000000000000000000000000000000000000000000000000000000000000000000000000000000000000000000000000000000000000000000000000000
310
00000000000000000000000000000000000000000000000000000000000000000000000000000000000000000000000000000000000000000000000000000000000000000000000000000000000000000000000000000000000000000000000000000000000000000000000000000000000000000000000000000000000000
310
00000000000000000000000000000000000000000000000000000000000000000000000000000000000000000000000000000000000000000000000000000000000000000000000000000000000000000000000000000000000000000000000000000000000000000000000000000000000000000000000000000000000000
310
00000000000000000000000000000000000000000000000000000000000000000000000000000000000000000000000000000000000000000000000000000000000000000000000000000000408F400000000000409F4000000000000000000000000000000000000000000000000000000000000000000000000000000000
310
080000000700000000000000008046400000000000000000000000000088C340000000000088C3400000000000002440000000000088C340000000000088C3400000000000000000000000000088C340000000000088C34000000000000000000000000000003E40000000000088C340000000000088C340000000000088C3
310
40000000000088A3C000000000000000000000000000805640000000000088C34006000300040014000100000301010100000000000000000000000000000000000000000000000000000000000000F03F000000000000000000000000000000000000000000000000000000000000F03F0000000000000000000000000000
310
00000000000000000000000000000000F03F00000000000000000000000000000000000000000000000000000000000000000000000000000000000000000000000000000000000000000000000000000000000000000000000000000000000000000000000000000000000000000000000000000000000000000000000000
310
00000000000000000000000000000000000000152100000002000027003800B5FF0900010A0066D107000000000000000014C000000000000000000000000000000000000000000000000000000000000000000000000000000000000000000000F03F000000000000F03F000000000000F03F000000000000F03F00000000
310
0000F03F000000000000F03F000000000000F03F000000000000F03F333333333333D33F000000000000F03F000000000000F03F000000000000F03F333333333333D33F0000000000000000000000000000E83F0000000000000000000000000000F03F000000000000F03F000000000000F03F7B14AE47E17A943F000000
310
000000E03F00000700D0070000000000000000000000000000000000000000000000000000000000000000000000000000000000000000000000000000000000000000000000000000000000000000000000000000000000000000000000000000000000000000000000000000000000000000000000000000000000000000
310
0000000000000000000000000000000000000000000000000000000000000000000000000000000000000000000000000000000000000000000008000000003A5C756E6F5C563843454C4C5C574F4F442E43454C00000000000000000000000000000000000000000000000000000000000000000000000000000000000000
310
00000000000000000000000000000000000000000000000000000000000000000000000000000000000000000000000000000000000000000000000000000000000000000000000000000000000000000000000000000000000000000000000000000000000000000000000000000000000000000000000000000000000000
310
00000000000000000000000000000000000000000000000000000000000000000000000000000000000000000000000000000000000000000000000000000000000000000000000000000000000000000000000000000000000000000000000000000000000000000000000000000000000000000000000000000000000000
310
00000000000000000000000000000000000000000000000000000000000000000000000000000000000000000000000000000000000000000000000000000000000000000000000000000000000000000000000000000000000000000000000000000000000000000000000000000000000000000000000000000000000000
310
00000000000000000000000000000000000000000000000000000000000000000000000000000000000000000000000000000000000000000000000000000000000001000000000000000000000000000000000000000000000001000000000000000000000000000000000000000000000000000000140000000000000000
310
00000000000000000000000000000000000000000000000000000006000000000000004000000000000000000000000000F03F000000000000F03F000000000000F03F000000000000F03F000000000F00000000000000000000000000000006200000000000000000000000000000A00000000F0A00000000000000000000
310
00000000000000000088C34000000000000000000000000000000000000000000000000000000000000000000000000000000000000000000000000000000000000000000000000000000000000000000000000000000000000000000000000000000000000000000000000000000000000000000000000000000000000000
310
00000000000000000000000000000000000000000000000000000000000000000000000000000000000000000000000000000000000000000000000000000000000000000000000000000000000000000000000000000000000000000000000000000000000000000000000000000000000000000000000000000000000000
310
00000000000000000000000000000000000000000000000000000000000000000000000000000000000000000000000000000000000000000000000000000000000000000000000000000000000000000000000000000000000000000000000000000000000000000000000059400100000004000000000000000400000000
310
000000000000000000000001000000000000000000000000000000000000000000000000000000000000000000E83F000000000000D03F00000000000000000000000000000000000000000000000000000000000000000000000000000000000000000000000000000000000000000000000000000000FCA9F1D24D62503F
310
00000000000000000000000000002440000000000000000000000000008066400000000000000000000000000000000000840000000000000000000000000000000000000000000000000000000000000000000000000000000000000000000000000000000000000000000000000000000000000000000000000000000000
310
000000000000000000000000000000E03F0000000000000000000000000000000000000000000000000000000000000000000000000000000000000000000000000000000000000000000000000000000000000000000000000000000000000000000000000000000000000000000000000000000000000000000000000000
310
00000000000000000000100400000000000000000000000000000000000000000000000000000000000000000000000000000000000000000000000000000000000000000000000000000000000000000000000000000000000000000000000000000000000000000000000000000000000000000000000000000000000000
310
00000000000000000000000000000000000000000000000000000000000000000000000000000000000000000000000000000000000000000000000000000000000000000000000000000000000000000000000000000000000000000000000000000000000000000000000000000000000000000000000000F03F00000000
310
00000000000000000000F03F00000000000000000000000000000000000000000080564001020000040000000000000004000000000000000A000000040000000000000004000000000000000A0000000000000001000000000000000000000000000000000000000000000000000000000000000000000000000000000000
310
00000000000000000000000000000000000000000000000000000000000000000000000000000000000000000000000000000000000000000000000000000000000000000000000000000000000000000000000000000000000000000000000000000000000000000000000000000000000088C34000000000000000000000
310
00000088C3400000000000000000000000000088C3400000000000000000000000000088C340000000000000000000000000000000000000000000000000000000000000000000000000000000000000000000000000000000000000000041000000000000009A9999999999B93F9A9999999999B93F01000000000000009A
310
9999999999B93F9A9999999999B93F40010000000000000000000000000000000000000000000013030000000000000000000000000000000000000000000000000000000000000000000000000000000000000000000000000000000000000100000000000000000000000000000000000000000000000100000000000000
310
7B14AE47E17A843F0100000000000000000000000000E03F0100000000000000000000000000E03F000000000000000000000000000000000000000000000000000000000000000000000000000000000000000000000000000000000000000000000000000000000000000000000000000000000088C34000000000000000
310
00000000000088C3400000000000000000000000000088C34038000000000000000000000000000000000000000088C340FFFFFFFF00000000000000000088B34000000000000000000000000000000000000000000088C3400000000000000000000000000088C3400000000000000000000000000000000000000000006A
310
E840010000000000000000000000006AE840010000000000000000000000006AF840000000000000000000000000006AE840000000000000000028000000000000000000000000002440000000000000000000000000006AF84000000000000000000000000000000000000000000000000000000000000024400000000000
310
0000000100000000000000000000000000244040000800000000000000000000002440048000000000000000000000000024408800000014000000000000000000000000000000000000009A9999999999B93F9A9999999999B93F000000000088C34088808000140000001400000000000000000000000000000000000000
310
0000000000000000000000000000000000000000000000000000F03F9A9999999999B93F0000000000000000000000000A0000000A0000000000000000000000000000000000000000000000000000000000000000000000000000000000000000000000C00000000000000000000000000000009A9999999999B93F000000
310
0000000000000000000000000000000000000000000000000000000000000000000000000000000000000000000400000000000000000000000088C340000000000088C34000000000008036408DEDB5A0F7C6B03E000000004000000002000000010000000800000000000000000000000000F03F00000000000000000000
310
00000000F03F1000000000000000000000000000F03F9001000000000000000000000000F03F0000000000000000000000000000000000000000000000000000000000000000000000000000000000000000000000000100000000000000000000000000000000000000010000000000002000000000000000000000000000
310
00000000000000000100000000000000000000000000000000000000002440000000000000000000000000000000000000000000000000000000000000000000000000000000000000000000000000000000000000000000000000000000000000000000000000000000000000000000000000000000000000000000000000
310
00000000000000000000000000000000000000000000000000000000000000000000000000000000000000000000000000000000000000000000000000000000000000000000000000000000000000000000000000000000000000000000000000000000000000000000000000000000000000000000000000000000000000
310
00000000000000F03F000000000000F03F00000000000000000000000000000000000000000000F03F000000000000000000000000000000000000000000000000000000000000000000000000000000000000000000000000000000000000F03F000000000000F03F00000000008056400000000000000000000000000000
310
00000000000000002440000000000000444000000000000000000000000000000000000000000000000000000000000000000000000000000000000000000000000000000000000000000000000000000000000000000000000014000005010000000000000000000000000000000000000001000000000000000200000000
310
00000004000000E80300000010000000000000040000000000000000000000000000000000000000000000000000000000000000000000000000000000000000000000000000000000000000000000000000000000000000000000000000000000000000000000000000000000000000000000000000000000000000000000
310
00000000000000000000000000000000000000000000000000000000000000000000000000000000000000000000000000000000000000000000000000000000000000000000000000000000000000000000000000000000000000000000000000000000000000000000000000000000000000000000000000000000000000
310
00000000000000000000000000000000000000000000000000000000000000000000000000000000000000000000000000000000000000000000000000000000000000000000000000000000000000000000000000000000000000000000000000000000000000000000000000000000000000000000000000000000000000
310
00000000000000000000000000000000000000000000000000000000000000000000000000000000000000000000000000000000000000000000000000000000000000000000000000000000000000000000000000000000000000000000000000000000000000000000000000000000000000000000000000000000000000
310
00000000000000000000000000000000000000000000000000000000000000000000000000000000000000000000000000000000000000000000000000000000000000000000000000000000000000000000000000000000000000000000000000000000000000000000000000000000000000000000000000000000000000
310
00000000000000000000000000000000000000000000000000000000000000000000000000000000000000000000000000000000000000000000000000000000000000000000000000000000000000000000000000000000000000000000000000000000000000000000000000000000000000000000000000000000000000
310
00000000000000000000000000000000000000000000000000
  0
DICTIONARY
  5
B453
330
B452
100
AcDbDictionary
280
     1
281
     1
  3
ADSK_XREC_LAYOUTTHUMBNAIL
360
B454
  0
DICTIONARY
  5
B475
330
B474
100
AcDbDictionary
280
     1
281
     1
  3
ACAD_XREC_ROUNDTRIP
360
B4AD
  3
BUMPTILE
360
B476
  3
DIFFUSETILE
360
B477
  3
OPACITYTILE
360
B478
  3
REFLECTIONTILE
360
B479
  3
REFRACTIONTILE
360
B47A
  3
SPECULARTILE
360
B47B
  0
DICTIONARY
  5
B46D
330
B46C
100
AcDbDictionary
280
     1
281
     1
  3
ACAD_XREC_ROUNDTRIP
360
B4AC
  3
BUMPTILE
360
B46E
  3
DIFFUSETILE
360
B46F
  3
OPACITYTILE
360
B470
  3
REFLECTIONTILE
360
B471
  3
REFRACTIONTILE
360
B472
  3
SPECULARTILE
360
B473
  0
DICTIONARY
  5
B443
330
B441
100
AcDbDictionary
280
     1
281
     1
  3
ACAD_XREC_ROUNDTRIP
360
B4A9
  3
BUMPTILE
360
B444
  3
DIFFUSETILE
360
B445
  3
OPACITYTILE
360
B446
  3
REFLECTIONTILE
360
B447
  3
REFRACTIONTILE
360
B448
  3
SPECULARTILE
360
B449
  0
DICTIONARY
  5
B4A6
330
B481
100
AcDbDictionary
280
     1
281
     1
  3
ACAD_ROUNDTRIP_2008_TABLESTYLE_CELLSTYLEMAP
360
B4A7
  3
ACAD_XREC_ROUNDTRIP
360
B4AE
  0
DICTIONARY
  5
B4AA
330
B462
100
AcDbDictionary
280
     1
281
     1
  3
ACAD_XREC_ROUNDTRIP
360
B4AB
  0
DICTIONARY
  5
B4B1
330
B483
100
AcDbDictionary
280
     1
281
     1
  3
ACAD_XREC_ROUNDTRIP
360
B4B2
  0
DICTIONARY
  5
B4AF
330
B482
100
AcDbDictionary
280
     1
281
     1
  3
ACAD_XREC_ROUNDTRIP
360
B4B0
  0
XRECORD
  5
B454
102
{ACAD_REACTORS
330
B453
102
}
330
B453
100
AcDbXrecord
280
     1
310
28000000B40000007F00000001000800000000004C59000000000000000000000001000000000000FFFFFF0000000000FFFFFF000000000000000000000000000000000000000000000000000000000000000000330000006600000099000000CC000000FF00000000330000333300006633000099330000CC330000FF3300
310
0000660000336600006666000099660000CC660000FF66000000990000339900006699000099990000CC990000FF99000000CC000033CC000066CC000099CC0000CCCC0000FFCC000000FF000033FF000066FF000099FF0000CCFF0000FFFF000000003300330033006600330099003300CC003300FF003300003333003333
310
33006633330099333300CC333300FF33330000663300336633006666330099663300CC663300FF66330000993300339933006699330099993300CC993300FF99330000CC330033CC330066CC330099CC3300CCCC3300FFCC330000FF330033FF330066FF330099FF3300CCFF3300FFFF330000006600330066006600660099
310
006600CC006600FF00660000336600333366006633660099336600CC336600FF33660000666600336666006666660099666600CC666600FF66660000996600339966006699660099996600CC996600FF99660000CC660033CC660066CC660099CC6600CCCC6600FFCC660000FF660033FF660066FF660099FF6600CCFF6600
310
FFFF660000009900330099006600990099009900CC009900FF00990000339900333399006633990099339900CC339900FF33990000669900336699006666990099669900CC669900FF66990000999900339999006699990099999900CC999900FF99990000CC990033CC990066CC990099CC9900CCCC9900FFCC990000FF99
310
0033FF990066FF990099FF9900CCFF9900FFFF99000000CC003300CC006600CC009900CC00CC00CC00FF00CC000033CC003333CC006633CC009933CC00CC33CC00FF33CC000066CC003366CC006666CC009966CC00CC66CC00FF66CC000099CC003399CC006699CC009999CC00CC99CC00FF99CC0000CCCC0033CCCC0066CC
310
CC0099CCCC00CCCCCC00FFCCCC0000FFCC0033FFCC0066FFCC0099FFCC00CCFFCC00FFFFCC000000FF003300FF006600FF009900FF00CC00FF00FF00FF000033FF003333FF006633FF009933FF00CC33FF00FF33FF000066FF003366FF006666FF009966FF00CC66FF00FF66FF000099FF003399FF006699FF009999FF00CC
310
99FF00FF99FF0000CCFF0033CCFF0066CCFF0099CCFF00CCCCFF00FFCCFF0000FFFF0033FFFF0066FFFF0099FFFF00CCFFFF00FFFFFF00000000000D0D0D001A1A1A00282828003535350043434300505050005D5D5D006B6B6B00787878008686860093939300A1A1A100AEAEAE00BBBBBB00C9C9C900D6D6D600E4E4E400
310
F1F1F100FFFFFF0000000000000000000000000000000000000000000000000000000000000000000000000000000000E2E2E2E2E2E2E2E2E2E2E2E2E2E2E2E2E2E2E2E2E2E2E2E2E2E2E2E2E2E2E2E2E2E2E2E2E2E2E2E2E2E2E2E2E2E2E2E2E2E2E2E2E2E2E2E2E2E2E2E2E2E2E2E2E2E2E2E2E2E2E2E2E2E2E2E2E2E2E2
310
E2E2E2E2E2E2E2E2E2E2E2E2E2E2E2E2E2E2E2E2E2E2E2E2E2E2E2E2E2E2E2E2E2E2E2E2E2E2E2E2E2E2E2E2E2E2E2E2E2E2E2E2E2E2E2E2E2E2E2E2E2E2E2E2E2E2E2E2E2E2E2E2E2E2E2E2E2E2E2E2E2E2E2E2E2E2E2E2E2E2E2E2E2E2E2E2E2E2E2E2E2E2F5F5F5F5F5F5F5F5F5F5F5F5F5F5F5F5F5F5F5F5F5F5F5F5F5
310
F5F5F5F5F5F5F5F5F5F5F5F5F5F5F5F5F5F5F5F5F5F5F5F5F5F5F5F5F5F5F5F5F5F5F5F5F5F5F5F5F5F5F5F5F5F5F5F5F5F5F5F5F5F5F5F5F5F5F5F5F5F5F5F5F5F5F5F5F5F5F5F5F5F5F5F5F5F5F5F5F5F5F5F5F5F5F5F5F5F5F5F5F5F5F5F5F5F5F5F5F5F5F5F5F5F5F5F5F5F5F5F5F5F5F5F5F5F5F5F5F5F5F5F5F5F5F5
310
F5F5F5F5F5F5F5F5F5F5F5F5F5F5F5F5F5F5F5F5F5F5F5F5F5E2E2E2F5F5F5F5F5F5F5F5F5F5F5F5F5F5F5F5F5F5F5F5F5F5F5F5F5F5F5F5F5F5F5F5F5F5F5F5F5F5F5F5F5F5F5F5F5F5F5F5F5F5F5F5F5F5F5F5F5F5F5F5F5F5F5F5F5F5F5F5F5F5F5F5F5F5F5F5F5F5F5F5F5F5F5F5F5F5F5F5F5F5F5F5F5F5F5F5F5F5F5
310
F5F5F5F5F5F5F5F5F5F5F5F5F5F5F5F5F5F5F5F5F5F5F5F5F5F5F5F5F5F5F5F5F5F5F5F5F5F5F5F5F5F5F5F5F5F5F5F5F5F5F5F5F5F5F5F5F5F5F5F5F5F5F5F5F5F5F5F5F5F5F5F5F5F5F5F5F5F5E2E2E2F5F5F5F5F5F5F5F5F5F5F5F5F5F5F5F5F5F5F5F5F5F5F5F5F5F5F5F5F5F5F5F5F5F5F5F5F5F5F5F5F5F5F5F5F5F5
310
F5F5F5F5F5F5F5F5F5F5F5F5F5F5F5F5F5F5F5F5F5F5F5F5F5F5F5F5F5F5F5F5F5F5F5F5F5F5F5F5F5F5F5F5F5F5F5F5F5F5F5F5F5F5F5F5F5F5F5F5F5F5F5F5F5F5F5F5F5F5F5F5F5F5F5F5F5F5F5F5F5F5F5F5F5F5F5F5F5F5F5F5F5F5F5F5F5F5F5F5F5F5F5F5F5F5F5F5F5F5F5F5F5F5F5F5F5F5F5F5F5F5F5F5F5F5F5
310
F5F5F5F5E2E2E2F5F5F5F5F5F5F5F5F5F5F5F5F5F5F5F5F5F5F5F5F5F5F5F5F5F5F5F5F5F5F5F5F5F5F5F5F5F5F5F5F5F5F5F5F5F5F5F5F5F5F5F5F5F5F5F5F5F5F5F5F5F5F5F5F5F5F5F5F5F5F5F5F5F5F5F5F5F5F5F5F5F5F5F5F5F5F5F5F5F5F5F5F5F5F5F5F5F5F5F5F5F5F5F5F5F5F5F5F5F5F5F5F5F5F5F5F5F5F5F5
310
F5F5F5F5F5F5F5F5F5F5F5F5F5F5F5F5F5F5F5F5F5F5F5F5F5F5F5F5F5F5F5F5F5F5F5F5F5F5F5F5F5F5F5F5F5F5F5F5F5F5F5F5F5F5F5F5F5E2E2E2F5F5F5F5F5F5F5F5F5F5F5E2E2E2E2E2E2E2E2E2F5F5F5F5F5F5F5F5F5E2E2E2E2E2E2E2E2E2E2E2E2E2E2E2E2F5F5F5F5F5F5F5F5F5F5E2E2E2E2E2E2E2E2E2E2E2E2
310
E2E2E2E2F5F5F5F5F5F5F5F5F5E2E2E2E2E2E2E2E2E2E2E2E2E2E2E2E2E2F5F5F5F5F5F5F5F5F5E2E2E2E2E2E2E2E2E2E2E2E2E2E2E2E2F5F5F5F5F5F5F5F5F5F5E2E2E2E2E2E2E2E2E2E2E2E2E2E2E2E2F5F5F5F5F5F5F5F5F5E2E2E2E2E2E2E2E2E2F5F5F5F5F5F5F5F5F5F5F5E2E2E2F5F5F5F5F5F5F5F5F5F5F5E2F5F5
310
F5F5F5F5F5F5F5F5F5F5F5F5F5F5F5F5F5F5F5F5F5F5F5F5F5F5F5F5F5F5F5F5F5F5F5F5F5F5F5F5F5F5F5F5F5F5F5F5F5F5F5F5F5F5F5F5F5F5F5F5F5F5F5F5F5F5F5F5F5F5F5F5F5F5F5F5F5F5F5F5F5F5F5F5F5F5F5F5F5F5F5F5F5F5F5F5F5F5F5F5F5F5F5F5F5F5F5F5F5F5F5F5F5F5F5F5F5F5F5F5F5F5F5F5F5F5F5
310
F5F5F5F5F5F5F5F5F5F5F5F5F5F5F5F5F5F5F5F5F5F5F5F5E2F5F5F5F5F5F5F5F5F5F5F5E2E2E2F5F5F5F5F5F5F5F5F5F5F5E2F5F5F5F5F5F5F5F5F5F5F5F5F5F5F5F5F5F5F5F5F5F5F5F5F5F5F5F5F5F5F5F5F5F5F5F5F5F5F5F5F5F5F5F5F5F5F5F5F5F5F5F5F5F5F5F5F5F5F5F5F5F5F5F5F5F5F5F5F5F5F5F5F5F5F5F5
310
F5F5F5F5F5F5F5F5F5F5F5F5F5F5F5F5F5F5F5F5F5F5F5F5F5F5F5F5F5F5F5F5F5F5F5F5F5F5F5F5F5F5F5F5F5F5F5F5F5F5F5F5F5F5F5F5F5F5F5F5F5F5F5F5F5F5F5F5F5F5F5F5F5F5F5F5F5E2F5F5F5F5F5F5F5F5F5F5F5E2E2E2F5F5F5F5F5F5F5F5F5F5F5E2F5F5F5F5F5F5F5F5F5F5F5F5F5F5F5F5F5F5F5F5F5F5F5
310
F5F5F5F5F5F5F5F5F5F5F5F5F5F5F5F5F5F5F5F5F5F5F5F5F5F5F5F5F5F5F5F5F5F5F5F5F5F5F5F5F5F5F5F5F5F5F5F5F5F5F5F5F5F5F5F5F5F5F5F5F5F5F5F5F5F5F5F5F5F5F5F5F5F5F5F5F5F5F5F5F5F5F5F5F5F5F5F5F5F5F5F5F5F5F5F5F5F5F5F5F5F5F5F5F5F5F5F5F5F5F5F5F5F5F5F5F5F5F5F5F5F5F5F5F5F5F5
310
F5F5F5E2F5F5F5F5F5F5F5F5F5F5F5E2E2E2F5F5F5F5F5F5F5F5F5F5F5E2F5F5F5F5F5F5F5F5F5F5F5F5F5F5F5F5F5F5F5F5F5F5F5F5F5F5F5F5F5F5F5F5F5F5F5F5F5F5F5F5F5F5F5F5F5F5F5F5F5F5F5F5F5F5F5F5F5F5F5F5F5F5F5F5F5F5F5F5F5F5F5F5F5F5F5F5F5F5F5F5F5F5F5F5F5F5F5F5F5F5F5F5F5F5F5F5F5
310
F5F5F5F5F5F5F5F5F5F5F5F5F5F5F5F5F5F5F5F5F5F5F5F5F5F5F5F5F5F5F5F5F5F5F5F5F5F5F5F5F5F5F5F5F5F5F5F5F5F5F5F5F5F5F5F5E2F5F5F5F5F5F5F5F5F5F5F5E2E2E2F5F5F5F5F5F5F5F5F5F5F5E2F5F5F5F5F5F5F5F5F5F5F5F5F5F5F5F5F5F5F5F5F5F5F5F5F5F5F5F5F5F5F5F5F5F5F5F5F5F5F5F5F5F5F5F5
310
F5F5F5F5F5F5F5F5F5F5F5F5F5F5F5F5F5F5F5F5F5F5F5F5F5F5F5F5F5F5F5F5F5F5F5F5F5F5F5F5F5F5F5F5F5F5F5F5F5F5F5F5F5F5F5F5F5F5F5F5F5F5F5F5F5F5F5F5F5F5F5F5F5F5F5F5F5F5F5F5F5F5F5F5F5F5F5F5F5F5F5F5F5F5F5F5F5F5F5F5F5F5F5F5F5F5F5F5F5E2F5F5F5F5F5F5F5F5F5F5F5E2E2E2F5F5F5
310
F5F5F5F5F5F5F5F5E2F5F5F5F5F5F5F5F5F5F5F5F5F5F5F5F5F5F5F5F5F5F5F5F5F5F5F5F5F5F5F5F5F5F5F5F5F5F5F5F5F5F5F5F5F5F5F5F5F5F5F5F5F5F5F5F5F5F5F5F5F5F5F5F5F5F5F5F5F5F5F5F5F5F5F5F5F5F5F5F5F5F5F5F5F5F5F5F5F5F5F5F5F5F5F5F5F5F5F5F5F5F5F5F5F5F5F5F5F5F5F5F5F5F5F5F5F5F5
310
F5F5F5F5F5F5F5F5F5F5F5F5F5F5F5F5F5F5F5F5F5F5F5F5F5F5F5F5F5F5F5F5F5F5F5E2F5F5F5F5F5F5F5F5F5F5F5E2E2E2F5F5F5F5F5F5F5F5F5F5F5E2F5F5F5F5F5F5F5F5F5F5F5F5F5F5F5F5F5F5F5F5F5F5F5F5F5F5F5F5F5F5F5F5F5F5F5F5F5F5F5F5F5F5F5F5F5F5F5F5F5F5F5F5F5F5F5F5F5F5F5F5F5F5F5F5F5
310
F5F5F5F5F5F5F5F5F5F5F5F5F5F5F5F5F5F5F5F5F5F5F5F5F5F5F5F5F5F5F5F5F5F5F5F5F5F5F5F5F5F5F5F5F5F5F5F5F5F5F5F5F5F5F5F5F5F5F5F5F5F5F5F5F5F5F5F5F5F5F5F5F5F5F5F5F5F5F5F5F5F5F5F5F5F5F5F5E2F5F5F5F5F5F5F5F5F5F5F5E2E2E2F5F5F5F5F5F5F5F5F5F5F5F5F5F5F5F5F5F5F5F5F5F5F5F5
310
F5F5F5F5F5F5F5F5F5F5F5F5F5F5F5F5F5F5F5F5F5F5F5F5F5F5F5F5F5F5F5F5F5F5F5F5F5F5F5F5F5F5F5F5F5F5F5F5F5F5F5F5F5F5F5F5F5F5F5F5F5F5F5F5F5F5F5F5F5F5F5F5F5F5F5F5F5F5F5F5F5F5F5F5F5F5F5F5F5F5F5F5F5F5F5F5F5F5F5F5F5F5F5F5F5F5F5F5F5F5F5F5F5F5F5F5F5F5F5F5F5F5F5F5F5F5F5
310
F5F5F5F5F5F5F5F5F5F5F5F5F5F5F5F5F5F5F5F5F5F5F5F5F5F5E2E2E2F5F5F5F5F5F5F5F5F5F5F5F5F5F5F5F5F5F5F5F5F5F5F5F5F5F5F5F5F5F5F5F5F5F5F5F5F5F5F5F5F5F5F5F5F5F5F5F5F5F5F5F5F5F5F5F5F5F5F5F5F5F5F5F5F5F5F5F5F5F5F5F5F5F5F5F5F5F5F5F5F5F5F5F5F5F5F5F5F5F5F5F5F5F5F5F5F5F5
310
F5F5F5F5F5F5F5F5F5F5F5F5F5F5F5F5F5F5F5F5F5F5F5F5F5F5F5F5F5F5F5F5F5F5F5F5F5F5F5F5F5F5F5F5F5F5F5F5F5F5F5F5F5F5F5F5F5F5F5F5F5F5F5F5F5F5F5F5F5F5F5F5F5F5F5F5F5F5F5E2E2E2F5F5F5F5F5F5F5F5F5F5F5F5F5F5F5F5F5F5F5F5F5F5F5F5F5F5F5F5F5F5F5F5F5F5F5F5F5F5F5F5F5F5F5F5F5
310
F5F5F5F5F5F5F5F5F5F5F5F5F5F5F5F5F5F5F5F5F5F5F5F5F5F5F5F5F5F5F5F5F5F5F5F5F5F5F5F5F5F5F5F5F5F5F5F5F5F5F5F5F5F5F5F5F5F5F5F5F5F5F5F5F5F5F5F5F5F5F5F5F5F5F5F5F5F5F5F5F5F5F5F5F5F5F5F5F5F5F5F5F5F5F5F5F5F5F5F5F5F5F5F5F5F5F5F5F5F5F5F5F5F5F5F5F5F5F5F5F5F5F5F5F5F5F5
310
F5F5F5F5F5E2E2E2F5F5F5F5F5F5F5F5F5F5F5F5F5F5F5F5F5F5F5F5F5F5F5F5F5F5E2E2E2E2E2E2E2E2E2E2E2E2E2E2E2E2E2E2E2E2E2E2E2E2E2E2E2E2E2E2E2E2E2E2E2E2E2E2E2E2E2E2E2E2E2E2E2E2E2E2E2E2E2E2E2E2E2E2E2E2E2E2E2E2E2E2E2E2E2E2E2E2E2E2E2E2E2E2E2E2E2E2E2E2E2E2E2E2E2E2E2E2E2
310
E2E2E2E2E2E2E2E2E2E2E2E2E2E2E2E2E2E2E2E2E2E2E2E2E2E2E2E2E2E2E2E2F5F5F5F5F5F5F5F5F5F5F5F5F5F5F5F5F5F5F5F5F5F5F5F5F5F5E2E2E2F5F5F5F5F5F5F5F5F5F5F5F5F5F5F5F5F5F5F5F5F5F5F5F5F5F5E2F5F5F5F5F5F5F5F5F5F5F5F5F5F5F5F5F5F5F5F5F5F5F5F5F5F5F5F5F5F5F5F5F5F5F5F5F5F5F5
310
F5F5F5F5F5F5F5F5F5F5F5F5F5F5F5F5F5F5F5F5F5F5F5F5F5F5F5F5F5F5F5F5F5F5F5F5F5F5F5F5F5F5F5F5F5F5F5F5F5F5F5F5F5F5F5F5F5F5F5F5F5F5F5F5F5F5F5F5F5F5F5F5F5F5F5F5F5F5F5F5F5F5F5F5E2F5F5F5F5F5F5F5F5F5F5F5F5F5F5F5F5F5F5F5F5F5F5F5F5F5F5E2E2E2F5F5F5F5F5F5F5F5F5F5F5F5F5
310
F5F5F5F5F5F5F5F5F5F5F5F5F5E2F5F5F5F5F5F5F5F5F5F5F5F5F5F5F5F5F5F5F5F5F5F5F5F5F5F5F5F5F5F5F5F5F5F5F5F5F5F5F5F5F5F5F5F5F5F5F5F5F5F5F5F5F5F5F5F5F5F5F5F5F5F5F5F5F5F5F5F5F5F5F5F5F5F5F5F5F5F5F5F5F5F5F5F5F5F5F5F5F5F5F5F5F5F5F5F5F5F5F5F5F5F5F5F5F5F5F5F5F5F5F5F5F5
310
F5F5F5F5F5F5F5F5F5F5E2F5F5F5F5F5F5F5F5F5F5F5F5F5F5F5F5F5F5F5F5F5F5F5F5F5F5E2E2E2F5F5F5F5F5F5F5F5F5F5F5F5F5F5F5F5F5F5F5F5F5F5F5F5F5F5E2F5F5F5F5F5F5F5F5F5F5F5F5F5F5F5F5F5F5F5F5F5F5F5F5F5F5F5F5F5F5F5F5F5F5F5F5F5F5F5F5F5F5F5F5F5F5F5F5F5F5F5F5F5F5F5F5F5F5F5F5
310
F5F5F5F5F5F5F5F5F5F5F5F5F5F5F5F5F5F5F5F5F5F5F5F5F5F5F5F5F5F5F5F5F5F5F5F5F5F5F5F5F5F5F5F5F5F5F5F5F5F5F5F5F5F5F5F5F5F5F5F5F5F5F5E2F5F5F5F5F5F5F5F5F5F5F5F5F5F5F5F5F5F5F5F5F5F5F5F5F5F5E2E2E2F5F5F5F5F5F5F5F5F5F5F5F5F5F5F5F5F5F5F5F5F5F5F5F5F5F5E2F5F5F5F5F5F5F5
310
F5F5F5F5F5F5F5F5F5F5F5F5F5F5F5F5F5F5F5F5F5F5F5F5F5F5F5F5F5F5F5F5F5F5F5F5F5F5F5F5F5F5F5F5F5F5F5F5F5F5F5F5F5F5F5F5F5F5F5F5F5F5F5F5F5F5F5F5F5F5F5F5F5F5F5F5F5F5F5F5F5F5F5F5F5F5F5F5F5F5F5F5F5F5F5F5F5F5F5F5F5F5F5F5F5F5F5F5F5F5F5F5F5F5F5F5E2F5F5F5F5F5F5F5F5F5F5
310
F5F5F5F5F5F5F5F5F5F5F5F5F5F5F5F5E2E2E2F5F5F5F5F5F5F5F5F5F5F5E2F5F5F5F5F5F5F5F5F5F5F5F5F5F5E2F5F5F5F5F5F5F5F5F5F5F5F5F5F5F5F5F5F5F5F5F5F5F5F5F5F5F5F5F5F5F5F5F5F5F5F5F5F5F5F5F5F5F5F5F5F5F5F5F5F5F5F5F5F5F5F5F5F5F5F5F5F5F5F5F5F5F5F5F5F5F5F5F5F5F5F5F5F5F5F5F5
310
F5F5F5F5F5F5F5F5F5F5F5F5F5F5F5F5F5F5F5F5F5F5F5F5F5F5F5F5F5F5F5F5F5F5F5F5F5F5F5F5F5F5E2F5F5F5F5F5F5F5F5F5F5F5F5F5F5E2F5F5F5F5F5F5F5F5F5F5F5E2E2E2F5F5F5F5F5F5F5F5F5F5F5E2F5F5F5F5F5F5F5F5F5F5F5F5F5F5E2F5F5F5F5F5F5F5F5F5F5F5F5F5F5F5F5F5F5F5F5F5F5F5F5F5F5F5F5
310
F5F5F5F5F5F5F5F5F5F5F5F5F5F5F5F5F5F5F5F5F5F5F5F5F5F5F5F5F5F5F5F5F5F5F5F5F5F5F5F5F5F5F5F5F5F5F5F5F5F5F5F5F5F5F5F5F5F5F5F5F5F5F5F5F5F5F5F5F5F5F5F5F5F5F5F5F5F5F5F5F5F5F5F5F5F5F5F5F5F5F5F5F5F5F5E2F5F5F5F5F5F5F5F5F5F5F5F5F5F5E2F5F5F5F5F5F5F5F5F5F5F5E2E2E2F5F5
310
F5F5F5F5F5F5F5F5F5E2F5F5F5F5F5F5F5F5F5F5F5F5F5F5E2F5F5F5F5F5F5F5F5F5F5F5F5F5F5F5F5F5F5F5F5F5F5F5F5F5F5F5F5F5F5F5F5F5F5F5F5F5F5F5F5F5F5F5F5F5F5F5F5F5F5F5F5F5F5F5F5F5F5F5F5F5F5F5F5F5F5F5F5F5F5F5F5F5F5F5F5F5F5F5F5F5F5F5F5F5F5F5F5F5F5F5F5F5F5F5F5F5F5F5F5F5F5
310
F5F5F5F5F5F5F5F5F5F5F5F5F5F5F5F5F5F5F5F5F5E2F5F5F5F5F5F5F5F5F5F5F5F5F5F5E2F5F5F5F5F5F5F5F5F5F5F5E2E2E2F5F5F5F5F5F5F5F5F5F5F5E2F5F5F5F5F5F5F5F5F5F5F5F5F5F5E2F5F5F5F5F5F5F5F5F5F5F5F5F5F5F5F5F5F5F5F5F5F5F5F5F5F5F5F5F5F5F5F5F5F5F5F5F5F5F5F5F5F5F5F5F5F5F5F5F5
310
F5F5F5F5F5F5F5F5F5F5F5F5F5F5F5F5F5F5F5F5F5F5F5F5F5F5F5F5F5F5F5F5F5F5F5F5F5F5F5F5F5F5F5F5F5F5F5F5F5F5F5F5F5F5F5F5F5F5F5F5F5F5F5F5F5F5F5F5F5F5F5F5F5F5E2F5F5F5F5F5F5F5F5F5F5F5F5F5F5E2F5F5F5F5F5F5F5F5F5F5F5E2E2E2F5F5F5F5F5F5F5F5F5F5F5E2F5F5F5F5F5F5F5F5F5F5F5
310
F5F5F5E2F5F5F5F5F5F5F5F5F5F5F5F5F5F5F5F5F5F5F5F5F5F5F5F5F5F5F5F5F5F5F5F5F5F5F5F5F5F5F5F5F5F5F5F5F5F5F5F5F5F5F5F5F5F5F5F5F5F5F5F5F5F5F5F5F5F5F5F5F5F5F5F5F5F5F5F5F5F5F5F5F5F5F5F5F5F5F5F5F5F5F5F5F5F5F5F5F5F5F5F5F5F5F5F5F5F5F5F5F5F5F5F5F5F5F5F5F5F5F5F5F5F5F5
310
E2F5F5F5F5F5F5F5F5F5F5F5F5F5F5E2F5F5F5F5F5F5F5F5F5F5F5E2E2E2F5F5F5F5F5F5F5F5F5F5F5E2F5F5F5F5F5F5F5F5F5F5F5F5F5F5E2F5F5F5F5F5F5F5F5F5F5F5F5F5F5F5F5F5F5F5F5F5F5F5F5F5F5F5F5F5F5F5F5F5F5F5F5F5F5F5F5F5F5F5F5F5F5F5F5F5F5F5F5F5F5F5F5F5F5F5F5F5F5F5F5F5F5F5F5F5F5
310
F5F5F5F5F5F5F5F5F5F5F5F5F5F5F5F5F5F5F5F5F5F5F5F5F5F5F5F5F5F5F5F5F5F5F5F5F5F5F5F5F5F5F5F5F5F5F5F5F5F5F5F5F5E2F5F5F5F5F5F5F5F5F5F5F5F5F5F5E2F5F5F5F5F5F5F5F5F5F5F5E2E2E2F5F5F5F5F5F5F5F5F5F5F5E2F5F5F5F5F5F5F5F5F5F5F5F5F5F5E2F5F5F5F5F5F5F5F5F5F5F5F5F5F5F5F5F5
310
F5F5F5F5F5F5F5F5F5F5F5F5F5F5F5F5F5F5F5F5F5F5F5F5F5F5F5F5F5F5F5F5F5F5F5F5F5F5F5F5F5F5F5F5F5F5F5F5F5F5F5F5F5F5F5F5F5F5F5F5F5F5F5F5F5F5F5F5F5F5F5F5F5F5F5F5F5F5F5F5F5F5F5F5F5F5F5F5F5F5F5F5F5F5F5F5F5F5F5F5F5F5F5F5F5F5E2F5F5F5F5F5F5F5F5F5F5F5F5F5F5E2F5F5F5F5F5
310
F5F5F5F5F5F5E2E2E2F5F5F5F5F5F5F5F5F5F5F5E2F5F5F5F5F5F5F5F5F5F5F5F5F5F5E2F5F5F5F5F5F5F5F5F5F5F5F5F5F5F5F5F5F5F5F5F5F5F5F5F5F5F5F5F5F5F5F5F5F5F5F5F5F5F5F5F5F5F5F5F5F5F5F5F5F5F5F5F5F5F5F5F5F5F5F5F5F5F5F5F5F5F5F5F5F5F5F5F5F5F5F5F5F5F5F5F5F5F5F5F5F5F5F5F5F5F5
310
F5F5F5F5F5F5F5F5F5F5F5F5F5F5F5F5F5F5F5F5F5F5F5F5F5F5F5F5F5F5F5F5E2F5F5F5F5F5F5F5F5F5F5F5F5F5F5E2F5F5F5F5F5F5F5F5F5F5F5E2E2E2F5F5F5F5F5F5F5F5F5F5F5E2F5F5F5F5F5F5F5F5F5F5F5F5F5F5E2F5F5F5F5F5F5F5F5F5F5F5F5F5F5F5F5F5F5F5F5F5F5F5F5F5F5F5F5F5F5F5F5F5F5F5F5F5F5
310
F5F5F5F5F5F5F5F5F5F5F5F5F5F5F5F5F5F5F5F5F5F5F5F5F5F5F5F5F5F5F5F5F5F5F5F5F5F5F5F5F5F5F5F5F5F5F5F5F5F5F5F5F5F5F5F5F5F5F5F5F5F5F5F5F5F5F5F5F5F5F5F5F5F5F5F5F5F5F5F5F5F5F5F5F5E2F5F5F5F5F5F5F5F5F5F5F5F5F5F5E2F5F5F5F5F5F5F5F5F5F5F5E2E2E2F5F5F5F5F5F5F5F5F5F5F5E2
310
F5F5F5F5F5F5F5F5F5F5F5F5F5F5E2F5F5F5F5F5F5F5F5F5F5F5F5F5F5F5F5F5F5F5F5F5F5F5F5F5F5F5F5F5F5F5F5F5F5F5F5F5F5F5F5F5F5F5F5F5F5F5F5F5F5F5F5F5F5F5F5F5F5F5F5F5F5F5F5F5F5F5F5F5F5F5F5F5F5F5F5F5F5F5F5F5F5F5F5F5F5F5F5F5F5F5F5F5F5F5F5F5F5F5F5F5F5F5F5F5F5F5F5F5F5F5F5
310
F5F5F5F5F5F5F5F5F5F5F5E2F5F5F5F5F5F5F5F5F5F5F5F5F5F5E2F5F5F5F5F5F5F5F5F5F5F5E2E2E2F5F5F5F5F5F5F5F5F5F5F5E2F5F5F5F5F5F5F5F5F5F5F5F5F5F5E2F5F5F5F5F5F5F5F5F5F5F5F5F5F5F5F5F5F5F5F5F5F5F5F5F5F5F5F5F5F5F5F5F5F5F5F5F5F5F5F5F5F5F5F5F5F5F5F5F5F5F5F5F5F5F5F5F5F5F5
310
F5F5F5F5F5F5F5F5F5F5F5F5F5F5F5F5F5F5F5F5F5F5F5F5F5F5F5F5F5F5F5F5F5F5F5F5F5F5F5F5F5F5F5F5F5F5F5F5F5F5F5F5F5F5F5F5F5F5F5F5F5F5F5F5E2F5F5F5F5F5F5F5F5F5F5F5F5F5F5E2F5F5F5F5F5F5F5F5F5F5F5E2E2E2F5F5F5F5F5F5F5F5F5F5F5E2F5F5F5F5F5F5F5F5F5F5F5F5F5F5E2F5F5F5F5F5F5
310
F5F5F5F5F5F5F5F5F5F5F5F5F5F5F5F5F5F5F5F5F5F5F5F5F5F5F5F5F5F5F5F5F5F5F5F5F5F5F5F5F5F5F5F5F5F5F5F5F5F5F5F5F5F5F5F5F5F5F5F5F5F5F5F5F5F5F5F5F5F5F5F5F5F5F5F5F5F5F5F5F5F5F5F5F5F5F5F5F5F5F5F5F5F5F5F5F5F5F5F5F5F5F5F5F5F5F5F5F5F5F5F5F5F5F5F5F5E2F5F5F5F5F5F5F5F5F5
310
F5F5F5F5F5E2F5F5F5F5F5F5F5F5F5F5F5E2E2E2F5F5F5F5F5F5F5F5F5F5F5E2F5F5F5F5F5F5F5F5F5F5F5F5F5F5E2F5F5F5F5F5F5F5F5F5F5F5F5F5F5F5F5F5F5F5F5F5F5F5F5F5F5F5F5F5F5F5F5F5F5F5F5F5F5F5F5F5F5F5F5F5F5F5F5F5F5F5F5F5F5F5F5F5F5F5F5F5F5F5F5F5F5F5F5F5F5F5F5F5F5F5F5F5F5F5F5
310
F5F5F5F5F5F5F5F5F5F5F5F5F5F5F5F5F5F5F5F5F5F5F5F5F5F5F5F5F5F5F5F5F5F5F5F5F5F5F5F5F5F5F5E2F5F5F5F5F5F5F5F5F5F5F5F5F5F5E2F5F5F5F5F5F5F5F5F5F5F5E2E2E2F5F5F5F5F5F5F5F5F5F5F5E2F5F5F5F5F5F5F5F5F5F5F5F5F5F5E2F5F5F5F5F5F5F5F5F5F5F5F5F5F5F5F5F5F5F5F5F5F5F5F5F5F5F5
310
F5F5F5F5F5F5F5F5F5F5F5F5F5F5F5F5F5F5F5F5F5F5F5F5F5F5F5F5F5F5F5F5F5F5F5F5F5F5F5F5F5F5F5F5F5F5F5F5F5F5F5F5F5F5F5F5F5F5F5F5F5F5F5F5F5F5F5F5F5F5F5F5F5F5F5F5F5F5F5F5F5F5F5F5F5F5F5F5F5F5F5F5F5F5F5F5E2F5F5F5F5F5F5F5F5F5F5F5F5F5F5E2F5F5F5F5F5F5F5F5F5F5F5E2E2E2F5
310
F5F5F5F5F5F5F5F5F5F5E2F5F5F5F5F5F5F5F5F5F5F5F5F5F5E2F5F5F5F5F5F5F5F5F5F5F5F5F5F5F5F5F5F5F5F5F5F5F5F5F5F5F5F5F5F5F5F5F5F5F5F5F5F5F5F5F5F5F5F5F5F5F5F5F5F5F5F5F5F5F5F5F5F5F5F5F5F5F5F5F5F5F5F5F5F5F5F5F5F5F5F5F5F5F5F5F5F5F5F5F5F5F5F5F5F5F5F5F5F5F5F5F5F5F5F5F5
310
F5F5F5F5F5F5F5F5F5F5F5F5F5F5F5F5F5F5F5F5F5F5E2F5F5F5F5F5F5F5F5F5F5F5F5F5F5E2F5F5F5F5F5F5F5F5F5F5F5E2E2E2F5F5F5F5F5F5F5F5F5F5F5F5F5F5F5F5F5F5F5F5F5F5F5F5F5F5E2F5F5F5F5F5F5F5F5F5F5F5F5F5F5F5F5F5F5F5F5F5F5F5F5F5F5F5F5F5F5F5F5F5F5F5F5F5F5F5F5F5F5F5F5F5F5F5F5
310
F5F5F5F5F5F5F5F5F5F5F5F5F5F5F5F5F5F5F5F5F5F5F5F5F5F5F5F5F5F5F5F5F5F5F5F5F5F5F5F5F5F5F5F5F5F5F5F5F5F5F5F5F5F5F5F5F5F5F5F5F5F5F5F5F5F5F5F5F5F5F5F5F5F5F5E2F5F5F5F5F5F5F5F5F5F5F5F5F5F5F5F5F5F5F5F5F5F5F5F5F5F5E2E2E2F5F5F5F5F5F5F5F5F5F5F5F5F5F5F5F5F5F5F5F5F5F5
310
F5F5F5F5E2F5F5F5F5F5F5F5F5F5F5F5F5F5F5F5F5F5F5F5F5F5F5F5F5F5F5F5F5F5F5F5F5F5F5F5F5F5F5F5F5F5F5F5F5F5F5F5F5F5F5F5F5F5F5F5F5F5F5F5F5F5F5F5F5F5F5F5F5F5F5F5F5F5F5F5F5F5F5F5F5F5F5F5F5F5F5F5F5F5F5F5F5F5F5F5F5F5F5F5F5F5F5F5F5F5F5F5F5F5F5F5F5F5F5F5F5F5F5F5F5F5F5
310
F5E2F5F5F5F5F5F5F5F5F5F5F5F5F5F5F5F5F5F5F5F5F5F5F5F5F5F5E2E2E2F5F5F5F5F5F5F5F5F5F5F5F5F5F5F5F5F5F5F5F5F5F5F5F5F5F5E2F5F5F5F5F5F5F5F5F5F5F5F5F5F5F5F5F5F5F5F5F5F5F5F5F5F5F5F5F5F5F5F5F5F5F5F5F5F5F5F5F5F5F5F5F5F5F5F5F5F5F5F5F5F5F5F5F5F5F5F5F5F5F5F5F5F5F5F5F5
310
F5F5F5F5F5F5F5F5F5F5F5F5F5F5F5F5F5F5F5F5F5F5F5F5F5F5F5F5F5F5F5F5F5F5F5F5F5F5F5F5F5F5F5F5F5F5F5F5F5F5F5F5F5F5E2F5F5F5F5F5F5F5F5F5F5F5F5F5F5F5F5F5F5F5F5F5F5F5F5F5F5E2E2E2F5F5F5F5F5F5F5F5F5F5F5F5F5F5F5F5F5F5F5F5F5F5F5F5F5F5E2F5F5F5F5F5F5F5F5F5F5F5F5F5F5F5F5
310
F5F5F5F5F5F5F5F5F5F5F5F5F5F5F5F5F5F5F5F5F5F5F5F5F5F5F5F5F5F5F5F5F5F5F5F5F5F5F5F5F5F5F5F5F5F5F5F5F5F5F5F5F5F5F5F5F5F5F5F5F5F5F5F5F5F5F5F5F5F5F5F5F5F5F5F5F5F5F5F5F5F5F5F5F5F5F5F5F5F5F5F5F5F5F5F5F5F5F5F5F5F5F5F5F5F5F5E2F5F5F5F5F5F5F5F5F5F5F5F5F5F5F5F5F5F5F5
310
F5F5F5F5F5F5F5E2E2E2F5F5F5F5F5F5F5F5F5F5F5F5F5F5F5F5F5F5F5F5F5F5F5F5F5F5E2F5F5F5F5F5F5F5F5F5F5F5F5F5F5F5F5F5F5F5F5F5F5F5F5F5F5F5F5F5F5F5F5F5F5F5F5F5F5F5F5F5F5F5F5F5F5F5F5F5F5F5F5F5F5F5F5F5F5F5F5F5F5F5F5F5F5F5F5F5F5F5F5F5F5F5F5F5F5F5F5F5F5F5F5F5F5F5F5F5F5
310
F5F5F5F5F5F5F5F5F5F5F5F5F5F5F5F5F5F5F5F5F5F5F5F5F5F5F5F5F5F5F5F5F5E2F5F5F5F5F5F5F5F5F5F5F5F5F5F5F5F5F5F5F5F5F5F5F5F5F5F5E2E2E2F5F5F5F5F5F5F5F5F5F5F5F5F5F5F5F5F5F5F5F5F5F5F5F5F5F5E2F5F5F5F5F5F5F5F5F5F5F5F5F5F5F5F5F5F5F5F5F5F5F5F5F5F5F5F5F5F5F5F5F5F5F5F5F5
310
F5F5F5F5F5F5F5F5F5F5F5F5F5F5F5F5F5F5F5F5F5F5F5F5F5F5F5F5F5F5F5F5F5F5F5F5F5F5F5F5F5F5F5F5F5F5F5F5F5F5F5F5F5F5F5F5F5F5F5F5F5F5F5F5F5F5F5F5F5F5F5F5F5F5F5F5F5F5F5F5F5F5F5F5F5F5E2F5F5F5F5F5F5F5F5F5F5F5F5F5F5F5F5F5F5F5F5F5F5F5F5F5F5E2E2E2F5F5F5F5F5F5F5F5F5F5F5
310
F5F5F5F5F5F5F5F5F5F5F5F5F5F5F5E2F5F5F5F5F5F5F5F5F5F5F5F5F5F5F5F5F5F5F5F5F5F5F5F5F5F5F5F5F5F5F5F5F5F5F5F5F5F5F5F5F5F5F5F5F5F5F5F5F5F5F5F5F5F5F5F5F5F5F5F5F5F5F5F5F5F5F5F5F5F5F5F5F5F5F5F5F5F5F5F5F5F5F5F5F5F5F5F5F5F5F5F5F5F5F5F5F5F5F5F5F5F5F5F5F5F5F5F5F5F5F5
310
F5F5F5F5F5F5F5F5F5F5F5F5E2F5F5F5F5F5F5F5F5F5F5F5F5F5F5F5F5F5F5F5F5F5F5F5F5F5F5E2E2E2F5F5F5F5F5F5F5F5F5F5F5F5F5F5F5F5F5F5F5F5F5F5F5F5F5F5E2F5F5F5F5F5F5F5F5F5F5F5F5F5F5F5F5F5F5F5F5F5F5F5F5F5F5F5F5F5F5F5F5F5F5F5F5F5F5F5F5F5F5F5F5F5F5F5F5F5F5F5F5F5F5F5F5F5F5
310
F5F5F5F5F5F5F5F5F5F5F5F5F5F5F5F5F5F5F5F5F5F5F5F5F5F5F5F5F5F5F5F5F5F5F5F5F5F5F5F5F5F5F5F5F5F5F5F5F5F5F5F5F5F5F5F5F5F5F5F5F5F5F5F5F5E2F5F5F5F5F5F5F5F5F5F5F5F5F5F5F5F5F5F5F5F5F5F5F5F5F5F5E2E2E2F5F5F5F5F5F5F5F5F5F5F5E2F5F5F5F5F5F5F5F5F5F5F5F5F5F5E2F5F5F5F5F5
310
F5F5F5F5F5F5F5F5F5F5F5F5F5F5F5F5F5F5F5F5F5F5F5F5F5F5F5F5F5F5F5F5F5F5F5F5F5F5F5F5F5F5F5F5F5F5F5F5F5F5F5F5F5F5F5F5F5F5F5F5F5F5F5F5F5F5F5F5F5F5F5F5F5F5F5F5F5F5F5F5F5F5F5F5F5F5F5F5F5F5F5F5F5F5F5F5F5F5F5F5F5F5F5F5F5F5F5F5F5F5F5F5F5F5F5F5F5F5E2F5F5F5F5F5F5F5F5
310
F5F5F5F5F5F5E2F5F5F5F5F5F5F5F5F5F5F5E2E2E2F5F5F5F5F5F5F5F5F5F5F5E2F5F5F5F5F5F5F5F5F5F5F5F5F5F5E2F5F5F5F5F5F5F5F5F5F5F5F5F5F5F5F5F5F5F5F5F5F5F5F5F5F5F5F5F5F5F5F5F5F5F5F5F5F5F5F5F5F5F5F5F5F5F5F5F5F5F5F5F5F5F5F5F5F5F5F5F5F5F5F5F5F5F5F5F5F5F5F5F5F5F5F5F5F5F5
310
F5F5F5F5F5F5F5F5F5F5F5F5F5F5F5F5F5F5F5F5F5F5F5F5F5F5F5F5F5F5F5F5F5F5F5F5F5F5F5F5F5F5F5F5E2F5F5F5F5F5F5F5F5F5F5F5F5F5F5E2F5F5F5F5F5F5F5F5F5F5F5E2E2E2F5F5F5F5F5F5F5F5F5F5F5E2F5F5F5F5F5F5F5F5F5F5F5F5F5F5E2F5F5F5F5F5F5F5F5F5F5F5F5F5F5F5F5F5F5F5F5F5F5F5F5F5F5
310
F5F5F5F5F5F5F5F5F5F5F5F5F5F5F5F5F5F5F5F5F5F5F5F5F5F5F5F5F5F5F5F5F5F5F5F5F5F5F5F5F5F5F5F5F5F5F5F5F5F5F5F5F5F5F5F5F5F5F5F5F5F5F5F5F5F5F5F5F5F5F5F5F5F5F5F5F5F5F5F5F5F5F5F5F5F5F5F5F5F5F5F5F5F5F5F5F5E2F5F5F5F5F5F5F5F5F5F5F5F5F5F5E2F5F5F5F5F5F5F5F5F5F5F5E2E2E2
310
F5F5F5F5F5F5F5F5F5F5F5E2F5F5F5F5F5F5F5F5F5F5F5F5F5F5E2F5F5F5F5F5F5F5F5F5F5F5F5F5F5F5F5F5F5F5F5F5F5F5F5F5F5F5F5F5F5F5F5F5F5F5F5F5F5F5F5F5F5F5F5F5F5F5F5F5F5F5F5F5F5F5F5F5F5F5F5F5F5F5F5F5F5F5F5F5F5F5F5F5F5F5F5F5F5F5F5F5F5F5F5F5F5F5F5F5F5F5F5F5F5F5F5F5F5F5F5
310
F5F5F5F5F5F5F5F5F5F5F5F5F5F5F5F5F5F5F5F5F5F5F5E2F5F5F5F5F5F5F5F5F5F5F5F5F5F5E2F5F5F5F5F5F5F5F5F5F5F5E2E2E2F5F5F5F5F5F5F5F5F5F5F5E2F5F5F5F5F5F5F5F5F5F5F5F5F5F5E2F5F5F5F5F5F5F5F5F5F5F5F5F5F5F5F5F5F5F5F5F5F5F5F5F5F5F5F5F5F5F5F5F5F5F5F5F5F5F5F5F5F5F5F5F5F5F5
310
F5F5F5F5F5F5F5F5F5F5F5F5F5F5F5F5F5F5F5F5F5F5F5F5F5F5F5F5F5F5F5F5F5F5F5F5F5F5F5F5F5F5F5F5F5F5F5F5F5F5F5F5F5F5F5F5F5F5F5F5F5F5F5F5F5F5F5F5F5F5F5F5F5F5F5F5E2F5F5F5F5F5F5F5F5F5F5F5F5F5F5E2F5F5F5F5F5F5F5F5F5F5F5E2E2E2F5F5F5F5F5F5F5F5F5F5F5E2F5F5F5F5F5F5F5F5F5
310
F5F5F5F5F5E2F5F5F5F5F5F5F5F5F5F5F5F5F5F5F5F5F5F5F5F5F5F5F5F5F5F5F5F5F5F5F5F5F5F5F5F5F5F5F5F5F5F5F5F5F5F5F5F5F5F5F5F5F5F5F5F5F5F5F5F5F5F5F5F5F5F5F5F5F5F5F5F5F5F5F5F5F5F5F5F5F5F5F5F5F5F5F5F5F5F5F5F5F5F5F5F5F5F5F5F5F5F5F5F5F5F5F5F5F5F5F5F5F5F5F5F5F5F5F5F5F5
310
F5F5E2F5F5F5F5F5F5F5F5F5F5F5F5F5F5E2F5F5F5F5F5F5F5F5F5F5F5E2E2E2F5F5F5F5F5F5F5F5F5F5F5E2F5F5F5F5F5F5F5F5F5F5F5F5F5F5E2F5F5F5F5F5F5F5F5F5F5F5F5F5F5F5F5F5F5F5F5F5F5F5F5F5F5F5F5F5F5F5F5F5F5F5F5F5F5F5F5F5F5F5F5F5F5F5F5F5F5F5F5F5F5F5F5F5F5F5F5F5F5F5F5F5F5F5F5
310
F5F5F5F5F5F5F5F5F5F5F5F5F5F5F5F5F5F5F5F5F5F5F5F5F5F5F5F5F5F5F5F5F5F5F5F5F5F5F5F5F5F5F5F5F5F5F5F5F5F5F5F5F5F5F5E2F5F5F5F5F5F5F5F5F5F5F5F5F5F5E2F5F5F5F5F5F5F5F5F5F5F5E2E2E2F5F5F5F5F5F5F5F5F5F5F5E2F5F5F5F5F5F5F5F5F5F5F5F5F5F5E2F5F5F5F5F5F5F5F5F5F5F5F5F5F5F5
310
F5F5F5F5F5F5F5F5F5F5F5F5F5F5F5F5F5F5F5F5F5F5F5F5F5F5F5F5F5F5F5F5F5F5F5F5F5F5F5F5F5F5F5F5F5F5F5F5F5F5F5F5F5F5F5F5F5F5F5F5F5F5F5F5F5F5F5F5F5F5F5F5F5F5F5F5F5F5F5F5F5F5F5F5F5F5F5F5F5F5F5F5F5F5F5F5F5F5F5F5F5F5F5F5F5F5F5F5E2F5F5F5F5F5F5F5F5F5F5F5F5F5F5E2F5F5F5
310
F5F5F5F5F5F5F5F5E2E2E2F5F5F5F5F5F5F5F5F5F5F5E2F5F5F5F5F5F5F5F5F5F5F5F5F5F5E2F5F5F5F5F5F5F5F5F5F5F5F5F5F5F5F5F5F5F5F5F5F5F5F5F5F5F5F5F5F5F5F5F5F5F5F5F5F5F5F5F5F5F5F5F5F5F5F5F5F5F5F5F5F5F5F5F5F5F5F5F5F5F5F5F5F5F5F5F5F5F5F5F5F5F5F5F5F5F5F5F5F5F5F5F5F5F5F5F5
310
F5F5F5F5F5F5F5F5F5F5F5F5F5F5F5F5F5F5F5F5F5F5F5F5F5F5F5F5F5F5F5F5F5F5E2F5F5F5F5F5F5F5F5F5F5F5F5F5F5E2F5F5F5F5F5F5F5F5F5F5F5E2E2E2F5F5F5F5F5F5F5F5F5F5F5E2F5F5F5F5F5F5F5F5F5F5F5F5F5F5E2F5F5F5F5F5F5F5F5F5F5F5F5F5F5F5F5F5F5F5F5F5F5F5F5F5F5F5F5F5F5F5F5F5F5F5F5
310
F5F5F5F5F5F5F5F5F5F5F5F5F5F5F5F5F5F5F5F5F5F5F5F5F5F5F5F5F5F5F5F5F5F5F5F5F5F5F5F5F5F5F5F5F5F5F5F5F5F5F5F5F5F5F5F5F5F5F5F5F5F5F5F5F5F5F5F5F5F5F5F5F5F5F5F5F5F5F5F5F5F5F5F5F5F5F5E2F5F5F5F5F5F5F5F5F5F5F5F5F5F5E2F5F5F5F5F5F5F5F5F5F5F5E2E2E2F5F5F5F5F5F5F5F5F5F5
310
F5E2F5F5F5F5F5F5F5F5F5F5F5F5F5F5E2F5F5F5F5F5F5F5F5F5F5F5F5F5F5F5F5F5F5F5F5F5F5F5F5F5F5F5F5F5F5F5F5F5F5F5F5F5F5F5F5F5F5F5F5F5F5F5F5F5F5F5F5F5F5F5F5F5F5F5F5F5F5F5F5F5F5F5F5F5F5F5F5F5F5F5F5F5F5F5F5F5F5F5F5F5F5F5F5F5F5F5F5F5F5F5F5F5F5F5F5F5F5F5F5F5F5F5F5F5F5
310
F5F5F5F5F5F5F5F5F5F5F5F5F5E2F5F5F5F5F5F5F5F5F5F5F5F5F5F5E2F5F5F5F5F5F5F5F5F5F5F5E2E2E2F5F5F5F5F5F5F5F5F5F5F5E2F5F5F5F5F5F5F5F5F5F5F5F5F5F5E2F5F5F5F5F5F5F5F5F5F5F5F5F5F5F5F5F5F5F5F5F5F5F5F5F5F5F5F5F5F5F5F5F5F5F5F5F5F5F5F5F5F5F5F5F5F5F5F5F5F5F5F5F5F5F5F5F5
310
F5F5F5F5F5F5F5F5F5F5F5F5F5F5F5F5F5F5F5F5F5F5F5F5F5F5F5F5F5F5F5F5F5F5F5F5F5F5F5F5F5F5F5F5F5F5F5F5F5F5F5F5F5F5F5F5F5F5F5F5F5F5F5F5F5F5E2F5F5F5F5F5F5F5F5F5F5F5F5F5F5E2F5F5F5F5F5F5F5F5F5F5F5E2E2E2F5F5F5F5F5F5F5F5F5F5F5E2F5F5F5F5F5F5F5F5F5F5F5F5F5F5E2F5F5F5F5
310
F5F5F5F5F5F5F5F5F5F5F5F5F5F5F5F5F5F5F5F5F5F5F5F5F5F5F5F5F5F5F5F5F5F5F5F5F5F5F5F5F5F5F5F5F5F5F5F5F5F5F5F5F5F5F5F5F5F5F5F5F5F5F5F5F5F5F5F5F5F5F5F5F5F5F5F5F5F5F5F5F5F5F5F5F5F5F5F5F5F5F5F5F5F5F5F5F5F5F5F5F5F5F5F5F5F5F5F5F5F5F5F5F5F5F5F5F5F5F5E2F5F5F5F5F5F5F5
310
F5F5F5F5F5F5F5E2F5F5F5F5F5F5F5F5F5F5F5E2E2E2F5F5F5F5F5F5F5F5F5F5F5E2F5F5F5F5F5F5F5F5F5F5F5F5F5F5E2F5F5F5F5F5F5F5F5F5F5F5F5F5F5F5F5F5F5F5F5F5F5F5F5F5F5F5F5F5F5F5F5F5F5F5F5F5F5F5F5F5F5F5F5F5F5F5F5F5F5F5F5F5F5F5F5F5F5F5F5F5F5F5F5F5F5F5F5F5F5F5F5F5F5F5F5F5F5
310
F5F5F5F5F5F5F5F5F5F5F5F5F5F5F5F5F5F5F5F5F5F5F5F5F5F5F5F5F5F5F5F5F5F5F5F5F5F5F5F5F5F5F5F5F5E2F5F5F5F5F5F5F5F5F5F5F5F5F5F5E2F5F5F5F5F5F5F5F5F5F5F5E2E2E2F5F5F5F5F5F5F5F5F5F5F5E2F5F5F5F5F5F5F5F5F5F5F5F5F5F5E2F5F5F5F5F5F5F5F5F5F5F5F5F5F5F5F5F5F5F5F5F5F5F5F5F5
310
F5F5F5F5F5F5F5F5F5F5F5F5F5F5F5F5F5F5F5F5F5F5F5F5F5F5F5F5F5F5F5F5F5F5F5F5F5F5F5F5F5F5F5F5F5F5F5F5F5F5F5F5F5F5F5F5F5F5F5F5F5F5F5F5F5F5F5F5F5F5F5F5F5F5F5F5F5F5F5F5F5F5F5F5F5F5F5F5F5F5F5F5F5F5F5F5F5F5E2F5F5F5F5F5F5F5F5F5F5F5F5F5F5E2F5F5F5F5F5F5F5F5F5F5F5E2E2
310
E2F5F5F5F5F5F5F5F5F5F5F5F5F5F5F5F5F5F5F5F5F5F5F5F5F5F5E2F5F5F5F5F5F5F5F5F5F5F5F5F5F5F5F5F5F5F5F5F5F5F5F5F5F5F5F5F5F5F5F5F5F5F5F5F5F5F5F5F5F5F5F5F5F5F5F5F5F5F5F5F5F5F5F5F5F5F5F5F5F5F5F5F5F5F5F5F5F5F5F5F5F5F5F5F5F5F5F5F5F5F5F5F5F5F5F5F5F5F5F5F5F5F5F5F5F5F5
310
F5F5F5F5F5F5F5F5F5F5F5F5F5F5F5F5F5F5F5F5F5F5F5F5E2F5F5F5F5F5F5F5F5F5F5F5F5F5F5F5F5F5F5F5F5F5F5F5F5F5F5E2E2E2F5F5F5F5F5F5F5F5F5F5F5F5F5F5F5F5F5F5F5F5F5F5F5F5F5F5E2F5F5F5F5F5F5F5F5F5F5F5F5F5F5F5F5F5F5F5F5F5F5F5F5F5F5F5F5F5F5F5F5F5F5F5F5F5F5F5F5F5F5F5F5F5F5
310
F5F5F5F5F5F5F5F5F5F5F5F5F5F5F5F5F5F5F5F5F5F5F5F5F5F5F5F5F5F5F5F5F5F5F5F5F5F5F5F5F5F5F5F5F5F5F5F5F5F5F5F5F5F5F5F5F5F5F5F5F5F5F5F5F5F5F5F5F5F5F5F5F5F5F5F5F5E2F5F5F5F5F5F5F5F5F5F5F5F5F5F5F5F5F5F5F5F5F5F5F5F5F5F5E2E2E2F5F5F5F5F5F5F5F5F5F5F5F5F5F5F5F5F5F5F5F5
310
F5F5F5F5F5F5E2F5F5F5F5F5F5F5F5F5F5F5F5F5F5F5F5F5F5F5F5F5F5F5F5F5F5F5F5F5F5F5F5F5F5F5F5F5F5F5F5F5F5F5F5F5F5F5F5F5F5F5F5F5F5F5F5F5F5F5F5F5F5F5F5F5F5F5F5F5F5F5F5F5F5F5F5F5F5F5F5F5F5F5F5F5F5F5F5F5F5F5F5F5F5F5F5F5F5F5F5F5F5F5F5F5F5F5F5F5F5F5F5F5F5F5F5F5F5F5F5
310
F5F5F5E2F5F5F5F5F5F5F5F5F5F5F5F5F5F5F5F5F5F5F5F5F5F5F5F5F5F5E2E2E2F5F5F5F5F5F5F5F5F5F5F5F5F5F5F5F5F5F5F5F5F5F5F5F5F5F5E2F5F5F5F5F5F5F5F5F5F5F5F5F5F5F5F5F5F5F5F5F5F5F5F5F5F5F5F5F5F5F5F5F5F5F5F5F5F5F5F5F5F5F5F5F5F5F5F5F5F5F5F5F5F5F5F5F5F5F5F5F5F5F5F5F5F5F5
310
F5F5F5F5F5F5F5F5F5F5F5F5F5F5F5F5F5F5F5F5F5F5F5F5F5F5F5F5F5F5F5F5F5F5F5F5F5F5F5F5F5F5F5F5F5F5F5F5F5F5F5F5F5F5F5F5E2F5F5F5F5F5F5F5F5F5F5F5F5F5F5F5F5F5F5F5F5F5F5F5F5F5F5E2E2E2F5F5F5F5F5F5F5F5F5F5F5F5F5F5F5F5F5F5F5F5F5F5F5F5F5F5E2F5F5F5F5F5F5F5F5F5F5F5F5F5F5
310
F5F5F5F5F5F5F5F5F5F5F5F5F5F5F5F5F5F5F5F5F5F5F5F5F5F5F5F5F5F5F5F5F5F5F5F5F5F5F5F5F5F5F5F5F5F5F5F5F5F5F5F5F5F5F5F5F5F5F5F5F5F5F5F5F5F5F5F5F5F5F5F5F5F5F5F5F5F5F5F5F5F5F5F5F5F5F5F5F5F5F5F5F5F5F5F5F5F5F5F5F5F5F5F5F5F5F5F5F5E2F5F5F5F5F5F5F5F5F5F5F5F5F5F5F5F5F5
310
F5F5F5F5F5F5F5F5F5E2E2E2F5F5F5F5F5F5F5F5F5F5F5F5F5F5F5F5F5F5F5F5F5F5F5F5F5F5E2F5F5F5F5F5F5F5F5F5F5F5F5F5F5F5F5F5F5F5F5F5F5F5F5F5F5F5F5F5F5F5F5F5F5F5F5F5F5F5F5F5F5F5F5F5F5F5F5F5F5F5F5F5F5F5F5F5F5F5F5F5F5F5F5F5F5F5F5F5F5F5F5F5F5F5F5F5F5F5F5F5F5F5F5F5F5F5F5
310
F5F5F5F5F5F5F5F5F5F5F5F5F5F5F5F5F5F5F5F5F5F5F5F5F5F5F5F5F5F5F5F5F5F5F5E2F5F5F5F5F5F5F5F5F5F5F5F5F5F5F5F5F5F5F5F5F5F5F5F5F5F5E2E2E2F5F5F5F5F5F5F5F5F5F5F5F5F5F5F5F5F5F5F5F5F5F5F5F5F5F5E2F5F5F5F5F5F5F5F5F5F5F5F5F5F5F5F5F5F5F5F5F5F5F5F5F5F5F5F5F5F5F5F5F5F5F5
310
F5F5F5F5F5F5F5F5F5F5F5F5F5F5F5F5F5F5F5F5F5F5F5F5F5F5F5F5F5F5F5F5F5F5F5F5F5F5F5F5F5F5F5F5F5F5F5F5F5F5F5F5F5F5F5F5F5F5F5F5F5F5F5F5F5F5F5F5F5F5F5F5F5F5F5F5F5F5F5F5F5F5F5F5F5F5F5F5E2F5F5F5F5F5F5F5F5F5F5F5F5F5F5F5F5F5F5F5F5F5F5F5F5F5F5E2E2E2F5F5F5F5F5F5F5F5F5
310
F5F5F5F5F5F5F5F5F5F5F5F5F5F5F5F5F5E2F5F5F5F5F5F5F5F5F5F5F5F5F5F5F5F5F5F5F5F5F5F5F5F5F5F5F5F5F5F5F5F5F5F5F5F5F5F5F5F5F5F5F5F5F5F5F5F5F5F5F5F5F5F5F5F5F5F5F5F5F5F5F5F5F5F5F5F5F5F5F5F5F5F5F5F5F5F5F5F5F5F5F5F5F5F5F5F5F5F5F5F5F5F5F5F5F5F5F5F5F5F5F5F5F5F5F5F5F5
310
F5F5F5F5F5F5F5F5F5F5F5F5F5F5E2F5F5F5F5F5F5F5F5F5F5F5F5F5F5F5F5F5F5F5F5F5F5F5F5F5F5E2E2E2F5F5F5F5F5F5F5F5F5F5F5F5F5F5F5F5F5F5F5F5F5F5F5F5F5F5E2F5F5F5F5F5F5F5F5F5F5F5F5F5F5F5F5F5F5F5F5F5F5F5F5F5F5F5F5F5F5F5F5F5F5F5F5F5F5F5F5F5F5F5F5F5F5F5F5F5F5F5F5F5F5F5F5
310
F5F5F5F5F5F5F5F5F5F5F5F5F5F5F5F5F5F5F5F5F5F5F5F5F5F5F5F5F5F5F5F5F5F5F5F5F5F5F5F5F5F5F5F5F5F5F5F5F5F5F5F5F5F5F5F5F5F5F5F5F5F5F5F5F5F5F5E2F5F5F5F5F5F5F5F5F5F5F5F5F5F5F5F5F5F5F5F5F5F5F5F5F5F5E2E2E2F5F5F5F5F5F5F5F5F5F5F5E2F5F5F5F5F5F5F5F5F5F5F5F5F5F5E2F5F5F5
310
F5F5F5F5F5F5F5F5F5F5F5F5F5F5F5F5F5F5F5F5F5F5F5F5F5F5F5F5F5F5F5F5F5F5F5F5F5F5F5F5F5F5F5F5F5F5F5F5F5F5F5F5F5F5F5F5F5F5F5F5F5F5F5F5F5F5F5F5F5F5F5F5F5F5F5F5F5F5F5F5F5F5F5F5F5F5F5F5F5F5F5F5F5F5F5F5F5F5F5F5F5F5F5F5F5F5F5F5F5F5F5F5F5F5F5F5F5F5F5F5E2F5F5F5F5F5F5
310
F5F5F5F5F5F5F5F5E2F5F5F5F5F5F5F5F5F5F5F5E2E2E2F5F5F5F5F5F5F5F5F5F5F5E2F5F5F5F5F5F5F5F5F5F5F5F5F5F5E2F5F5F5F5F5F5F5F5F5F5F5F5F5F5F5F5F5F5F5F5F5F5F5F5F5F5F5F5F5F5F5F5F5F5F5F5F5F5F5F5F5F5F5F5F5F5F5F5F5F5F5F5F5F5F5F5F5F5F5F5F5F5F5F5F5F5F5F5F5F5F5F5F5F5F5F5F5
310
F5F5F5F5F5F5F5F5F5F5F5F5F5F5F5F5F5F5F5F5F5F5F5F5F5F5F5F5F5F5F5F5F5F5F5F5F5F5F5F5F5F5F5F5F5F5E2F5F5F5F5F5F5F5F5F5F5F5F5F5F5E2F5F5F5F5F5F5F5F5F5F5F5E2E2E2F5F5F5F5F5F5F5F5F5F5F5E2F5F5F5F5F5F5F5F5F5F5F5F5F5F5E2F5F5F5F5F5F5F5F5F5F5F5F5F5F5F5F5F5F5F5F5F5F5F5F5
310
F5F5F5F5F5F5F5F5F5F5F5F5F5F5F5F5F5F5F5F5F5F5F5F5F5F5F5F5F5F5F5F5F5F5F5F5F5F5F5F5F5F5F5F5F5F5F5F5F5F5F5F5F5F5F5F5F5F5F5F5F5F5F5F5F5F5F5F5F5F5F5F5F5F5F5F5F5F5F5F5F5F5F5F5F5F5F5F5F5F5F5F5F5F5F5F5F5F5F5E2F5F5F5F5F5F5F5F5F5F5F5F5F5F5E2F5F5F5F5F5F5F5F5F5F5F5E2
310
E2E2F5F5F5F5F5F5F5F5F5F5F5E2F5F5F5F5F5F5F5F5F5F5F5F5F5F5E2F5F5F5F5F5F5F5F5F5F5F5F5F5F5F5F5F5F5F5F5F5F5F5F5F5F5F5F5F5F5F5F5F5F5F5F5F5F5F5F5F5F5F5F5F5F5F5F5F5F5F5F5F5F5F5F5F5F5F5F5F5F5F5F5F5F5F5F5F5F5F5F5F5F5F5F5F5F5F5F5F5F5F5F5F5F5F5F5F5F5F5F5F5F5F5F5F5F5
310
F5F5F5F5F5F5F5F5F5F5F5F5F5F5F5F5F5F5F5F5F5F5F5F5F5E2F5F5F5F5F5F5F5F5F5F5F5F5F5F5E2F5F5F5F5F5F5F5F5F5F5F5E2E2E2F5F5F5F5F5F5F5F5F5F5F5E2F5F5F5F5F5F5F5F5F5F5F5F5F5F5E2F5F5F5F5F5F5F5F5F5F5F5F5F5F5F5F5F5F5F5F5F5F5F5F5F5F5F5F5F5F5F5F5F5F5F5F5F5F5F5F5F5F5F5F5F5
310
F5F5F5F5F5F5F5F5F5F5F5F5F5F5F5F5F5F5F5F5F5F5F5F5F5F5F5F5F5F5F5F5F5F5F5F5F5F5F5F5F5F5F5F5F5F5F5F5F5F5F5F5F5F5F5F5F5F5F5F5F5F5F5F5F5F5F5F5F5F5F5F5F5F5F5F5F5F5E2F5F5F5F5F5F5F5F5F5F5F5F5F5F5E2F5F5F5F5F5F5F5F5F5F5F5E2E2E2F5F5F5F5F5F5F5F5F5F5F5E2F5F5F5F5F5F5F5
310
F5F5F5F5F5F5F5E2F5F5F5F5F5F5F5F5F5F5F5F5F5F5F5F5F5F5F5F5F5F5F5F5F5F5F5F5F5F5F5F5F5F5F5F5F5F5F5F5F5F5F5F5F5F5F5F5F5F5F5F5F5F5F5F5F5F5F5F5F5F5F5F5F5F5F5F5F5F5F5F5F5F5F5F5F5F5F5F5F5F5F5F5F5F5F5F5F5F5F5F5F5F5F5F5F5F5F5F5F5F5F5F5F5F5F5F5F5F5F5F5F5F5F5F5F5F5F5
310
F5F5F5F5E2F5F5F5F5F5F5F5F5F5F5F5F5F5F5E2F5F5F5F5F5F5F5F5F5F5F5E2E2E2F5F5F5F5F5F5F5F5F5F5F5E2F5F5F5F5F5F5F5F5F5F5F5F5F5F5E2F5F5F5F5F5F5F5F5F5F5F5F5F5F5F5F5F5F5F5F5F5F5F5F5F5F5F5F5F5F5F5F5F5F5F5F5F5F5F5F5F5F5F5F5F5F5F5F5F5F5F5F5F5F5F5F5F5F5F5F5F5F5F5F5F5F5
310
F5F5F5F5F5F5F5F5F5F5F5F5F5F5F5F5F5F5F5F5F5F5F5F5F5F5F5F5F5F5F5F5F5F5F5F5F5F5F5F5F5F5F5F5F5F5F5F5F5F5F5F5F5F5F5F5F5E2F5F5F5F5F5F5F5F5F5F5F5F5F5F5E2F5F5F5F5F5F5F5F5F5F5F5E2E2E2F5F5F5F5F5F5F5F5F5F5F5E2F5F5F5F5F5F5F5F5F5F5F5F5F5F5E2F5F5F5F5F5F5F5F5F5F5F5F5F5
310
F5F5F5F5F5F5F5F5F5F5F5F5F5F5F5F5F5F5F5F5F5F5F5F5F5F5F5F5F5F5F5F5F5F5F5F5F5F5F5F5F5F5F5F5F5F5F5F5F5F5F5F5F5F5F5F5F5F5F5F5F5F5F5F5F5F5F5F5F5F5F5F5F5F5F5F5F5F5F5F5F5F5F5F5F5F5F5F5F5F5F5F5F5F5F5F5F5F5F5F5F5F5F5F5F5F5F5F5F5F5E2F5F5F5F5F5F5F5F5F5F5F5F5F5F5E2F5
310
F5F5F5F5F5F5F5F5F5F5E2E2E2F5F5F5F5F5F5F5F5F5F5F5E2F5F5F5F5F5F5F5F5F5F5F5F5F5F5E2F5F5F5F5F5F5F5F5F5F5F5F5F5F5F5F5F5F5F5F5F5F5F5F5F5F5F5F5F5F5F5F5F5F5F5F5F5F5F5F5F5F5F5F5F5F5F5F5F5F5F5F5F5F5F5F5F5F5F5F5F5F5F5F5F5F5F5F5F5F5F5F5F5F5F5F5F5F5F5F5F5F5F5F5F5F5F5
310
F5F5F5F5F5F5F5F5F5F5F5F5F5F5F5F5F5F5F5F5F5F5F5F5F5F5F5F5F5F5F5F5F5F5F5F5E2F5F5F5F5F5F5F5F5F5F5F5F5F5F5E2F5F5F5F5F5F5F5F5F5F5F5E2E2E2F5F5F5F5F5F5F5F5F5F5F5E2F5F5F5F5F5F5F5F5F5F5F5F5F5F5E2F5F5F5F5F5F5F5F5F5F5F5F5F5F5F5F5F5F5F5F5F5F5F5F5F5F5F5F5F5F5F5F5F5F5
310
F5F5F5F5F5F5F5F5F5F5F5F5F5F5F5F5F5F5F5F5F5F5F5F5F5F5F5F5F5F5F5F5F5F5F5F5F5F5F5F5F5F5F5F5F5F5F5F5F5F5F5F5F5F5F5F5F5F5F5F5F5F5F5F5F5F5F5F5F5F5F5F5F5F5F5F5F5F5F5F5F5F5F5F5F5F5F5F5F5E2F5F5F5F5F5F5F5F5F5F5F5F5F5F5E2F5F5F5F5F5F5F5F5F5F5F5E2E2E2F5F5F5F5F5F5F5F5
310
F5F5F5E2F5F5F5F5F5F5F5F5F5F5F5F5F5F5E2F5F5F5F5F5F5F5F5F5F5F5F5F5F5F5F5F5F5F5F5F5F5F5F5F5F5F5F5F5F5F5F5F5F5F5F5F5F5F5F5F5F5F5F5F5F5F5F5F5F5F5F5F5F5F5F5F5F5F5F5F5F5F5F5F5F5F5F5F5F5F5F5F5F5F5F5F5F5F5F5F5F5F5F5F5F5F5F5F5F5F5F5F5F5F5F5F5F5F5F5F5F5F5F5F5F5F5F5
310
F5F5F5F5F5F5F5F5F5F5F5F5F5F5F5E2F5F5F5F5F5F5F5F5F5F5F5F5F5F5E2F5F5F5F5F5F5F5F5F5F5F5E2E2E2F5F5F5F5F5F5F5F5F5F5F5E2F5F5F5F5F5F5F5F5F5F5F5F5F5F5E2F5F5F5F5F5F5F5F5F5F5F5F5F5F5F5F5F5F5F5F5F5F5F5F5F5F5F5F5F5F5F5F5F5F5F5F5F5F5F5F5F5F5F5F5F5F5F5F5F5F5F5F5F5F5F5
310
F5F5F5F5F5F5F5F5F5F5F5F5F5F5F5F5F5F5F5F5F5F5F5F5F5F5F5F5F5F5F5F5F5F5F5F5F5F5F5F5F5F5F5F5F5F5F5F5F5F5F5F5F5F5F5F5F5F5F5F5F5F5F5F5F5F5F5F5E2F5F5F5F5F5F5F5F5F5F5F5F5F5F5E2F5F5F5F5F5F5F5F5F5F5F5E2E2E2F5F5F5F5F5F5F5F5F5F5F5E2F5F5F5F5F5F5F5F5F5F5F5F5F5F5E2F5F5
310
F5F5F5F5F5F5F5F5F5F5F5F5F5F5F5F5F5F5F5F5F5F5F5F5F5F5F5F5F5F5F5F5F5F5F5F5F5F5F5F5F5F5F5F5F5F5F5F5F5F5F5F5F5F5F5F5F5F5F5F5F5F5F5F5F5F5F5F5F5F5F5F5F5F5F5F5F5F5F5F5F5F5F5F5F5F5F5F5F5F5F5F5F5F5F5F5F5F5F5F5F5F5F5F5F5F5F5F5F5F5F5F5F5F5F5F5F5F5F5F5F5E2F5F5F5F5F5
310
F5F5F5F5F5F5F5F5F5E2F5F5F5F5F5F5F5F5F5F5F5E2E2E2F5F5F5F5F5F5F5F5F5F5F5E2F5F5F5F5F5F5F5F5F5F5F5F5F5F5E2F5F5F5F5F5F5F5F5F5F5F5F5F5F5F5F5F5F5F5F5F5F5F5F5F5F5F5F5F5F5F5F5F5F5F5F5F5F5F5F5F5F5F5F5F5F5F5F5F5F5F5F5F5F5F5F5F5F5F5F5F5F5F5F5F5F5F5F5F5F5F5F5F5F5F5F5
310
F5F5F5F5F5F5F5F5F5F5F5F5F5F5F5F5F5F5F5F5F5F5F5F5F5F5F5F5F5F5F5F5F5F5F5F5F5F5F5F5F5F5F5F5F5F5F5E2F5F5F5F5F5F5F5F5F5F5F5F5F5F5E2F5F5F5F5F5F5F5F5F5F5F5E2E2E2F5F5F5F5F5F5F5F5F5F5F5E2F5F5F5F5F5F5F5F5F5F5F5F5F5F5E2F5F5F5F5F5F5F5F5F5F5F5F5F5F5F5F5F5F5F5F5F5F5F5
310
F5F5F5F5F5F5F5F5F5F5F5F5F5F5F5F5F5F5F5F5F5F5F5F5F5F5F5F5F5F5F5F5F5F5F5F5F5F5F5F5F5F5F5F5F5F5F5F5F5F5F5F5F5F5F5F5F5F5F5F5F5F5F5F5F5F5F5F5F5F5F5F5F5F5F5F5F5F5F5F5F5F5F5F5F5F5F5F5F5F5F5F5F5F5F5F5F5F5F5F5E2F5F5F5F5F5F5F5F5F5F5F5F5F5F5E2F5F5F5F5F5F5F5F5F5F5F5
310
E2E2E2F5F5F5F5F5F5F5F5F5F5F5F5F5F5F5F5F5F5F5F5F5F5F5F5F5F5E2F5F5F5F5F5F5F5F5F5F5F5F5F5F5F5F5F5F5F5F5F5F5F5F5F5F5F5F5F5F5F5F5F5F5F5F5F5F5F5F5F5F5F5F5F5F5F5F5F5F5F5F5F5F5F5F5F5F5F5F5F5F5F5F5F5F5F5F5F5F5F5F5F5F5F5F5F5F5F5F5F5F5F5F5F5F5F5F5F5F5F5F5F5F5F5F5F5
310
F5F5F5F5F5F5F5F5F5F5F5F5F5F5F5F5F5F5F5F5F5F5F5F5F5F5E2F5F5F5F5F5F5F5F5F5F5F5F5F5F5F5F5F5F5F5F5F5F5F5F5F5F5E2E2E2F5F5F5F5F5F5F5F5F5F5F5F5F5F5F5F5F5F5F5F5F5F5F5F5F5F5E2F5F5F5F5F5F5F5F5F5F5F5F5F5F5F5F5F5F5F5F5F5F5F5F5F5F5F5F5F5F5F5F5F5F5F5F5F5F5F5F5F5F5F5F5
310
F5F5F5F5F5F5F5F5F5F5F5F5F5F5F5F5F5F5F5F5F5F5F5F5F5F5F5F5F5F5F5F5F5F5F5F5F5F5F5F5F5F5F5F5F5F5F5F5F5F5F5F5F5F5F5F5F5F5F5F5F5F5F5F5F5F5F5F5F5F5F5F5F5F5F5F5F5F5F5E2F5F5F5F5F5F5F5F5F5F5F5F5F5F5F5F5F5F5F5F5F5F5F5F5F5F5E2E2E2F5F5F5F5F5F5F5F5F5F5F5F5F5F5F5F5F5F5
310
F5F5F5F5F5F5F5F5E2F5F5F5F5F5F5F5F5F5F5F5F5F5F5F5F5F5F5F5F5F5F5F5F5F5F5F5F5F5F5F5F5F5F5F5F5F5F5F5F5F5F5F5F5F5F5F5F5F5F5F5F5F5F5F5F5F5F5F5F5F5F5F5F5F5F5F5F5F5F5F5F5F5F5F5F5F5F5F5F5F5F5F5F5F5F5F5F5F5F5F5F5F5F5F5F5F5F5F5F5F5F5F5F5F5F5F5F5F5F5F5F5F5F5F5F5F5F5
310
F5F5F5F5F5E2F5F5F5F5F5F5F5F5F5F5F5F5F5F5F5F5F5F5F5F5F5F5F5F5F5F5E2E2E2F5F5F5F5F5F5F5F5F5F5F5F5F5F5F5F5F5F5F5F5F5F5F5F5F5F5E2F5F5F5F5F5F5F5F5F5F5F5F5F5F5F5F5F5F5F5F5F5F5F5F5F5F5F5F5F5F5F5F5F5F5F5F5F5F5F5F5F5F5F5F5F5F5F5F5F5F5F5F5F5F5F5F5F5F5F5F5F5F5F5F5F5
310
F5F5F5F5F5F5F5F5F5F5F5F5F5F5F5F5F5F5F5F5F5F5F5F5F5F5F5F5F5F5F5F5F5F5F5F5F5F5F5F5F5F5F5F5F5F5F5F5F5F5F5F5F5F5F5F5F5F5E2F5F5F5F5F5F5F5F5F5F5F5F5F5F5F5F5F5F5F5F5F5F5F5F5F5F5E2E2E2F5F5F5F5F5F5F5F5F5F5F5F5F5F5F5F5F5F5F5F5F5F5F5F5F5F5E2F5F5F5F5F5F5F5F5F5F5F5F5
310
F5F5F5F5F5F5F5F5F5F5F5F5F5F5F5F5F5F5F5F5F5F5F5F5F5F5F5F5F5F5F5F5F5F5F5F5F5F5F5F5F5F5F5F5F5F5F5F5F5F5F5F5F5F5F5F5F5F5F5F5F5F5F5F5F5F5F5F5F5F5F5F5F5F5F5F5F5F5F5F5F5F5F5F5F5F5F5F5F5F5F5F5F5F5F5F5F5F5F5F5F5F5F5F5F5F5F5F5F5F5F5E2F5F5F5F5F5F5F5F5F5F5F5F5F5F5F5
310
F5F5F5F5F5F5F5F5F5F5F5E2E2E2F5F5F5F5F5F5F5F5F5F5F5F5F5F5F5F5F5F5F5F5F5F5F5F5F5F5E2F5F5F5F5F5F5F5F5F5F5F5F5F5F5F5F5F5F5F5F5F5F5F5F5F5F5F5F5F5F5F5F5F5F5F5F5F5F5F5F5F5F5F5F5F5F5F5F5F5F5F5F5F5F5F5F5F5F5F5F5F5F5F5F5F5F5F5F5F5F5F5F5F5F5F5F5F5F5F5F5F5F5F5F5F5F5
310
F5F5F5F5F5F5F5F5F5F5F5F5F5F5F5F5F5F5F5F5F5F5F5F5F5F5F5F5F5F5F5F5F5F5F5F5F5E2F5F5F5F5F5F5F5F5F5F5F5F5F5F5F5F5F5F5F5F5F5F5F5F5F5F5E2E2E2F5F5F5F5F5F5F5F5F5F5F5F5F5F5F5F5F5F5F5F5F5F5F5F5F5F5E2F5F5F5F5F5F5F5F5F5F5F5F5F5F5F5F5F5F5F5F5F5F5F5F5F5F5F5F5F5F5F5F5F5
310
F5F5F5F5F5F5F5F5F5F5F5F5F5F5F5F5F5F5F5F5F5F5F5F5F5F5F5F5F5F5F5F5F5F5F5F5F5F5F5F5F5F5F5F5F5F5F5F5F5F5F5F5F5F5F5F5F5F5F5F5F5F5F5F5F5F5F5F5F5F5F5F5F5F5F5F5F5F5F5F5F5F5F5F5F5F5F5F5F5F5E2F5F5F5F5F5F5F5F5F5F5F5F5F5F5F5F5F5F5F5F5F5F5F5F5F5F5E2E2E2F5F5F5F5F5F5F5
310
F5F5F5F5F5F5F5F5F5F5F5F5F5F5F5F5F5F5F5E2F5F5F5F5F5F5F5F5F5F5F5F5F5F5F5F5F5F5F5F5F5F5F5F5F5F5F5F5F5F5F5F5F5F5F5F5F5F5F5F5F5F5F5F5F5F5F5F5F5F5F5F5F5F5F5F5F5F5F5F5F5F5F5F5F5F5F5F5F5F5F5F5F5F5F5F5F5F5F5F5F5F5F5F5F5F5F5F5F5F5F5F5F5F5F5F5F5F5F5F5F5F5F5F5F5F5F5
310
F5F5F5F5F5F5F5F5F5F5F5F5F5F5F5F5E2F5F5F5F5F5F5F5F5F5F5F5F5F5F5F5F5F5F5F5F5F5F5F5F5F5F5E2E2E2F5F5F5F5F5F5F5F5F5F5F5E2F5F5F5F5F5F5F5F5F5F5F5F5F5F5E2F5F5F5F5F5F5F5F5F5F5F5F5F5F5F5F5F5F5F5F5F5F5F5F5F5F5F5F5F5F5F5F5F5F5F5F5F5F5F5F5F5F5F5F5F5F5F5F5F5F5F5F5F5F5
310
F5F5F5F5F5F5F5F5F5F5F5F5F5F5F5F5F5F5F5F5F5F5F5F5F5F5F5F5F5F5F5F5F5F5F5F5F5F5F5F5F5F5F5F5F5F5F5F5F5F5F5F5F5F5F5F5F5F5F5F5F5F5F5F5F5F5F5F5F5E2F5F5F5F5F5F5F5F5F5F5F5F5F5F5E2F5F5F5F5F5F5F5F5F5F5F5E2E2E2F5F5F5F5F5F5F5F5F5F5F5E2F5F5F5F5F5F5F5F5F5F5F5F5F5F5E2F5
310
F5F5F5F5F5F5F5F5F5F5F5F5F5F5F5F5F5F5F5F5F5F5F5F5F5F5F5F5F5F5F5F5F5F5F5F5F5F5F5F5F5F5F5F5F5F5F5F5F5F5F5F5F5F5F5F5F5F5F5F5F5F5F5F5F5F5F5F5F5F5F5F5F5F5F5F5F5F5F5F5F5F5F5F5F5F5F5F5F5F5F5F5F5F5F5F5F5F5F5F5F5F5F5F5F5F5F5F5F5F5F5F5F5F5F5F5F5F5F5F5F5F5E2F5F5F5F5
310
F5F5F5F5F5F5F5F5F5F5E2F5F5F5F5F5F5F5F5F5F5F5E2E2E2F5F5F5F5F5F5F5F5F5F5F5E2F5F5F5F5F5F5F5F5F5F5F5F5F5F5E2F5F5F5F5F5F5F5F5F5F5F5F5F5F5F5F5F5F5F5F5F5F5F5F5F5F5F5F5F5F5F5F5F5F5F5F5F5F5F5F5F5F5F5F5F5F5F5F5F5F5F5F5F5F5F5F5F5F5F5F5F5F5F5F5F5F5F5F5F5F5F5F5F5F5F5
310
F5F5F5F5F5F5F5F5F5F5F5F5F5F5F5F5F5F5F5F5F5F5F5F5F5F5F5F5F5F5F5F5F5F5F5F5F5F5F5F5F5F5F5F5F5F5F5F5E2F5F5F5F5F5F5F5F5F5F5F5F5F5F5E2F5F5F5F5F5F5F5F5F5F5F5E2E2E2F5F5F5F5F5F5F5F5F5F5F5E2F5F5F5F5F5F5F5F5F5F5F5F5F5F5E2F5F5F5F5F5F5F5F5F5F5F5F5F5F5F5F5F5F5F5F5F5F5
310
F5F5F5F5F5F5F5F5F5F5F5F5F5F5F5F5F5F5F5F5F5F5F5F5F5F5F5F5F5F5F5F5F5F5F5F5F5F5F5F5F5F5F5F5F5F5F5F5F5F5F5F5F5F5F5F5F5F5F5F5F5F5F5F5F5F5F5F5F5F5F5F5F5F5F5F5F5F5F5F5F5F5F5F5F5F5F5F5F5F5F5F5F5F5F5F5F5F5F5F5F5E2F5F5F5F5F5F5F5F5F5F5F5F5F5F5E2F5F5F5F5F5F5F5F5F5F5
310
F5E2E2E2F5F5F5F5F5F5F5F5F5F5F5E2F5F5F5F5F5F5F5F5F5F5F5F5F5F5E2F5F5F5F5F5F5F5F5F5F5F5F5F5F5F5F5F5F5F5F5F5F5F5F5F5F5F5F5F5F5F5F5F5F5F5F5F5F5F5F5F5F5F5F5F5F5F5F5F5F5F5F5F5F5F5F5F5F5F5F5F5F5F5F5F5F5F5F5F5F5F5F5F5F5F5F5F5F5F5F5F5F5F5F5F5F5F5F5F5F5F5F5F5F5F5F5
310
F5F5F5F5F5F5F5F5F5F5F5F5F5F5F5F5F5F5F5F5F5F5F5F5F5F5F5E2F5F5F5F5F5F5F5F5F5F5F5F5F5F5E2F5F5F5F5F5F5F5F5F5F5F5E2E2E2F5F5F5F5F5F5F5F5F5F5F5E2F5F5F5F5F5F5F5F5F5F5F5F5F5F5E2F5F5F5F5F5F5F5F5F5F5F5F5F5F5F5F5F5F5F5F5F5F5F5F5F5F5F5F5F5F5F5F5F5F5F5F5F5F5F5F5F5F5F5
310
F5F5F5F5F5F5F5F5F5F5F5F5F5F5F5F5F5F5F5F5F5F5F5F5F5F5F5F5F5F5F5F5F5F5F5F5F5F5F5F5F5F5F5F5F5F5F5F5F5F5F5F5F5F5F5F5F5F5F5F5F5F5F5F5F5F5F5F5F5F5F5F5F5F5F5F5F5F5F5F5E2F5F5F5F5F5F5F5F5F5F5F5F5F5F5E2F5F5F5F5F5F5F5F5F5F5F5E2E2E2F5F5F5F5F5F5F5F5F5F5F5E2F5F5F5F5F5
310
F5F5F5F5F5F5F5F5F5E2F5F5F5F5F5F5F5F5F5F5F5F5F5F5F5F5F5F5F5F5F5F5F5F5F5F5F5F5F5F5F5F5F5F5F5F5F5F5F5F5F5F5F5F5F5F5F5F5F5F5F5F5F5F5F5F5F5F5F5F5F5F5F5F5F5F5F5F5F5F5F5F5F5F5F5F5F5F5F5F5F5F5F5F5F5F5F5F5F5F5F5F5F5F5F5F5F5F5F5F5F5F5F5F5F5F5F5F5F5F5F5F5F5F5F5F5F5
310
F5F5F5F5F5F5E2F5F5F5F5F5F5F5F5F5F5F5F5F5F5E2F5F5F5F5F5F5F5F5F5F5F5E2E2E2F5F5F5F5F5F5F5F5F5F5F5E2F5F5F5F5F5F5F5F5F5F5F5F5F5F5E2F5F5F5F5F5F5F5F5F5F5F5F5F5F5F5F5F5F5F5F5F5F5F5F5F5F5F5F5F5F5F5F5F5F5F5F5F5F5F5F5F5F5F5F5F5F5F5F5F5F5F5F5F5F5F5F5F5F5F5F5F5F5F5F5
310
F5F5F5F5F5F5F5F5F5F5F5F5F5F5F5F5F5F5F5F5F5F5F5F5F5F5F5F5F5F5F5F5F5F5F5F5F5F5F5F5F5F5F5F5F5F5F5F5F5F5F5F5F5F5F5F5F5F5F5E2F5F5F5F5F5F5F5F5F5F5F5F5F5F5E2F5F5F5F5F5F5F5F5F5F5F5E2E2E2F5F5F5F5F5F5F5F5F5F5F5E2F5F5F5F5F5F5F5F5F5F5F5F5F5F5E2F5F5F5F5F5F5F5F5F5F5F5
310
F5F5F5F5F5F5F5F5F5F5F5F5F5F5F5F5F5F5F5F5F5F5F5F5F5F5F5F5F5F5F5F5F5F5F5F5F5F5F5F5F5F5F5F5F5F5F5F5F5F5F5F5F5F5F5F5F5F5F5F5F5F5F5F5F5F5F5F5F5F5F5F5F5F5F5F5F5F5F5F5F5F5F5F5F5F5F5F5F5F5F5F5F5F5F5F5F5F5F5F5F5F5F5F5F5F5F5F5F5F5F5F5E2F5F5F5F5F5F5F5F5F5F5F5F5F5F5
310
E2F5F5F5F5F5F5F5F5F5F5F5E2E2E2F5F5F5F5F5F5F5F5F5F5F5E2F5F5F5F5F5F5F5F5F5F5F5F5F5F5E2F5F5F5F5F5F5F5F5F5F5F5F5F5F5F5F5F5F5F5F5F5F5F5F5F5F5F5F5F5F5F5F5F5F5F5F5F5F5F5F5F5F5F5F5F5F5F5F5F5F5F5F5F5F5F5F5F5F5F5F5F5F5F5F5F5F5F5F5F5F5F5F5F5F5F5F5F5F5F5F5F5F5F5F5F5
310
F5F5F5F5F5F5F5F5F5F5F5F5F5F5F5F5F5F5F5F5F5F5F5F5F5F5F5F5F5F5F5F5F5F5F5F5F5F5E2F5F5F5F5F5F5F5F5F5F5F5F5F5F5E2F5F5F5F5F5F5F5F5F5F5F5E2E2E2F5F5F5F5F5F5F5F5F5F5F5E2F5F5F5F5F5F5F5F5F5F5F5F5F5F5E2F5F5F5F5F5F5F5F5F5F5F5F5F5F5F5F5F5F5F5F5F5F5F5F5F5F5F5F5F5F5F5F5
310
F5F5F5F5F5F5F5F5F5F5F5F5F5F5F5F5F5F5F5F5F5F5F5F5F5F5F5F5F5F5F5F5F5F5F5F5F5F5F5F5F5F5F5F5F5F5F5F5F5F5F5F5F5F5F5F5F5F5F5F5F5F5F5F5F5F5F5F5F5F5F5F5F5F5F5F5F5F5F5F5F5F5F5F5F5F5F5F5F5F5F5E2F5F5F5F5F5F5F5F5F5F5F5F5F5F5E2F5F5F5F5F5F5F5F5F5F5F5E2E2E2F5F5F5F5F5F5
310
F5F5F5F5F5E2F5F5F5F5F5F5F5F5F5F5F5F5F5F5E2F5F5F5F5F5F5F5F5F5F5F5F5F5F5F5F5F5F5F5F5F5F5F5F5F5F5F5F5F5F5F5F5F5F5F5F5F5F5F5F5F5F5F5F5F5F5F5F5F5F5F5F5F5F5F5F5F5F5F5F5F5F5F5F5F5F5F5F5F5F5F5F5F5F5F5F5F5F5F5F5F5F5F5F5F5F5F5F5F5F5F5F5F5F5F5F5F5F5F5F5F5F5F5F5F5F5
310
F5F5F5F5F5F5F5F5F5F5F5F5F5F5F5F5F5E2F5F5F5F5F5F5F5F5F5F5F5F5F5F5E2F5F5F5F5F5F5F5F5F5F5F5E2E2E2F5F5F5F5F5F5F5F5F5F5F5E2F5F5F5F5F5F5F5F5F5F5F5F5F5F5E2F5F5F5F5F5F5F5F5F5F5F5F5F5F5F5F5F5F5F5F5F5F5F5F5F5F5F5F5F5F5F5F5F5F5F5F5F5F5F5F5F5F5F5F5F5F5F5F5F5F5F5F5F5
310
F5F5F5F5F5F5F5F5F5F5F5F5F5F5F5F5F5F5F5F5F5F5F5F5F5F5F5F5F5F5F5F5F5F5F5F5F5F5F5F5F5F5F5F5F5F5F5F5F5F5F5F5F5F5F5F5F5F5F5F5F5F5F5F5F5F5F5F5F5F5E2F5F5F5F5F5F5F5F5F5F5F5F5F5F5E2F5F5F5F5F5F5F5F5F5F5F5E2E2E2F5F5F5F5F5F5F5F5F5F5F5E2F5F5F5F5F5F5F5F5F5F5F5F5F5F5E2
310
F5F5F5F5F5F5F5F5F5F5F5F5F5F5F5F5F5F5F5F5F5F5F5F5F5F5F5F5F5F5F5F5F5F5F5F5F5F5F5F5F5F5F5F5F5F5F5F5F5F5F5F5F5F5F5F5F5F5F5F5F5F5F5F5F5F5F5F5F5F5F5F5F5F5F5F5F5F5F5F5F5F5F5F5F5F5F5F5F5F5F5F5F5F5F5F5F5F5F5F5F5F5F5F5F5F5F5F5F5F5F5F5F5F5F5F5F5F5F5F5F5F5F5E2F5F5F5
310
F5F5F5F5F5F5F5F5F5F5F5E2F5F5F5F5F5F5F5F5F5F5F5E2E2E2F5F5F5F5F5F5F5F5F5F5F5E2F5F5F5F5F5F5F5F5F5F5F5F5F5F5E2F5F5F5F5F5F5F5F5F5F5F5F5F5F5F5F5F5F5F5F5F5F5F5F5F5F5F5F5F5F5F5F5F5F5F5F5F5F5F5F5F5F5F5F5F5F5F5F5F5F5F5F5F5F5F5F5F5F5F5F5F5F5F5F5F5F5F5F5F5F5F5F5F5F5
310
F5F5F5F5F5F5F5F5F5F5F5F5F5F5F5F5F5F5F5F5F5F5F5F5F5F5F5F5F5F5F5F5F5F5F5F5F5F5F5F5F5F5F5F5F5F5F5F5F5E2F5F5F5F5F5F5F5F5F5F5F5F5F5F5E2F5F5F5F5F5F5F5F5F5F5F5E2E2E2F5F5F5F5F5F5F5F5F5F5F5F5F5F5F5F5F5F5F5F5F5F5F5F5F5F5E2F5F5F5F5F5F5F5F5F5F5F5F5F5F5F5F5F5F5F5F5F5
310
F5F5F5F5F5F5F5F5F5F5F5F5F5F5F5F5F5F5F5F5F5F5F5F5F5F5F5F5F5F5F5F5F5F5F5F5F5F5F5F5F5F5F5F5F5F5F5F5F5F5F5F5F5F5F5F5F5F5F5F5F5F5F5F5F5F5F5F5F5F5F5F5F5F5F5F5F5F5F5F5F5F5F5F5F5F5F5F5F5F5F5F5F5F5F5F5F5F5F5F5F5F5E2F5F5F5F5F5F5F5F5F5F5F5F5F5F5F5F5F5F5F5F5F5F5F5F5
310
F5F5E2E2E2F5F5F5F5F5F5F5F5F5F5F5F5F5F5F5F5F5F5F5F5F5F5F5F5F5F5E2F5F5F5F5F5F5F5F5F5F5F5F5F5F5F5F5F5F5F5F5F5F5F5F5F5F5F5F5F5F5F5F5F5F5F5F5F5F5F5F5F5F5F5F5F5F5F5F5F5F5F5F5F5F5F5F5F5F5F5F5F5F5F5F5F5F5F5F5F5F5F5F5F5F5F5F5F5F5F5F5F5F5F5F5F5F5F5F5F5F5F5F5F5F5F5
310
F5F5F5F5F5F5F5F5F5F5F5F5F5F5F5F5F5F5F5F5F5F5F5F5F5F5F5F5E2F5F5F5F5F5F5F5F5F5F5F5F5F5F5F5F5F5F5F5F5F5F5F5F5F5F5E2E2E2F5F5F5F5F5F5F5F5F5F5F5F5F5F5F5F5F5F5F5F5F5F5F5F5F5F5E2F5F5F5F5F5F5F5F5F5F5F5F5F5F5F5F5F5F5F5F5F5F5F5F5F5F5F5F5F5F5F5F5F5F5F5F5F5F5F5F5F5F5
310
F5F5F5F5F5F5F5F5F5F5F5F5F5F5F5F5F5F5F5F5F5F5F5F5F5F5F5F5F5F5F5F5F5F5F5F5F5F5F5F5F5F5F5F5F5F5F5F5F5F5F5F5F5F5F5F5F5F5F5F5F5F5F5F5F5F5F5F5F5F5F5F5F5F5F5F5F5F5F5F5F5E2F5F5F5F5F5F5F5F5F5F5F5F5F5F5F5F5F5F5F5F5F5F5F5F5F5F5E2E2E2F5F5F5F5F5F5F5F5F5F5F5F5F5F5F5F5
310
F5F5F5F5F5F5F5F5F5F5E2F5F5F5F5F5F5F5F5F5F5F5F5F5F5F5F5F5F5F5F5F5F5F5F5F5F5F5F5F5F5F5F5F5F5F5F5F5F5F5F5F5F5F5F5F5F5F5F5F5F5F5F5F5F5F5F5F5F5F5F5F5F5F5F5F5F5F5F5F5F5F5F5F5F5F5F5F5F5F5F5F5F5F5F5F5F5F5F5F5F5F5F5F5F5F5F5F5F5F5F5F5F5F5F5F5F5F5F5F5F5F5F5F5F5F5F5
310
F5F5F5F5F5F5F5E2F5F5F5F5F5F5F5F5F5F5F5F5F5F5F5F5F5F5F5F5F5F5F5F5F5F5E2E2E2F5F5F5F5F5F5F5F5F5F5F5F5F5F5F5F5F5F5F5F5F5F5F5F5F5F5E2E2E2E2E2E2E2E2E2E2E2E2E2E2E2E2E2E2E2E2E2E2E2E2E2E2E2E2E2E2E2E2E2E2E2E2E2E2E2E2E2E2E2E2E2E2E2E2E2E2E2E2E2E2E2E2E2E2E2E2E2E2E2E2
310
E2E2E2E2E2E2E2E2E2E2E2E2E2E2E2E2E2E2E2E2E2E2E2E2E2E2E2E2E2E2E2E2E2E2E2E2E2E2E2E2E2E2E2E2E2E2E2E2E2E2E2E2E2E2E2E2E2E2E2E2E2F5F5F5F5F5F5F5F5F5F5F5F5F5F5F5F5F5F5F5F5F5F5F5F5F5F5E2E2E2F5F5F5F5F5F5F5F5F5F5F5F5F5F5F5F5F5F5F5F5F5F5F5F5F5F5F5F5F5F5F5F5F5F5F5F5F5
310
F5F5F5F5F5F5F5F5F5F5F5F5F5F5F5F5F5F5F5F5F5F5F5F5F5F5F5F5F5F5F5F5F5F5F5F5F5F5F5F5F5F5F5F5F5F5F5F5F5F5F5F5F5F5F5F5F5F5F5F5F5F5F5F5F5F5F5F5F5F5F5F5F5F5F5F5F5F5F5F5F5F5F5F5F5F5F5F5F5F5F5F5F5F5F5F5F5F5F5F5F5F5F5F5F5F5F5F5F5F5F5F5F5F5F5F5F5F5F5F5F5F5F5F5F5F5F5
310
F5F5F5F5F5F5F5F5F5F5F5F5F5E2E2E2F5F5F5F5F5F5F5F5F5F5F5F5F5F5F5F5F5F5F5F5F5F5F5F5F5F5F5F5F5F5F5F5F5F5F5F5F5F5F5F5F5F5F5F5F5F5F5F5F5F5F5F5F5F5F5F5F5F5F5F5F5F5F5F5F5F5F5F5F5F5F5F5F5F5F5F5F5F5F5F5F5F5F5F5F5F5F5F5F5F5F5F5F5F5F5F5F5F5F5F5F5F5F5F5F5F5F5F5F5F5F5
310
F5F5F5F5F5F5F5F5F5F5F5F5F5F5F5F5F5F5F5F5F5F5F5F5F5F5F5F5F5F5F5F5F5F5F5F5F5F5F5F5F5F5F5F5F5F5F5F5F5F5F5F5F5F5F5F5F5F5F5F5F5F5F5F5F5F5E2E2E2F5F5F5F5F5F5F5F5F5F5F5F5F5F5F5F5F5F5F5F5F5F5F5F5F5F5F5F5F5F5F5F5F5F5F5F5F5F5F5F5F5F5F5F5F5F5F5F5F5F5F5F5F5F5F5F5F5F5
310
F5F5F5F5F5F5F5F5F5F5F5F5F5F5F5F5F5F5F5F5F5F5F5F5F5F5F5F5F5F5F5F5F5F5F5F5F5F5F5F5F5F5F5F5F5F5F5F5F5F5F5F5F5F5F5F5F5F5F5F5F5F5F5F5F5F5F5F5F5F5F5F5F5F5F5F5F5F5F5F5F5F5F5F5F5F5F5F5F5F5F5F5F5F5F5F5F5F5F5F5F5F5F5F5F5F5F5F5F5F5F5F5F5F5F5F5F5F5F5E2E2E2F5F5F5F5F5
310
F5F5F5F5F5F5E2F5F5F5F5F5F5F5F5F5F5F5F5F5F5F5F5F5F5F5F5F5F5F5F5F5F5F5F5F5F5F5F5F5F5F5F5F5F5F5F5F5F5F5F5F5F5F5F5F5F5F5F5F5F5F5F5F5F5F5F5F5F5F5F5F5F5F5F5F5F5F5F5F5F5F5F5F5F5F5F5F5F5F5F5F5F5F5F5F5F5F5F5F5F5F5F5F5F5F5F5F5F5F5F5F5F5F5F5F5F5F5F5F5F5F5F5F5F5F5F5
310
F5F5F5F5F5F5F5F5F5F5F5F5F5F5F5F5F5F5F5F5F5F5F5F5F5F5F5F5F5F5F5F5F5E2F5F5F5F5F5F5F5F5F5F5F5E2E2E2F5F5F5F5F5F5F5F5F5F5F5E2F5F5F5F5F5F5F5F5F5F5F5F5F5F5F5F5F5F5F5F5F5F5F5F5F5F5F5F5F5F5F5F5F5F5F5F5F5F5F5F5F5F5F5F5F5F5F5F5F5F5F5F5F5F5F5F5F5F5F5F5F5F5F5F5F5F5F5
310
F5F5F5F5F5F5F5F5F5F5F5F5F5F5F5F5F5F5F5F5F5F5F5F5F5F5F5F5F5F5F5F5F5F5F5F5F5F5F5F5F5F5F5F5F5F5F5F5F5F5F5F5F5F5F5F5F5F5F5F5F5F5F5F5F5F5F5F5F5F5F5F5F5F5F5F5F5F5F5F5F5F5F5F5F5F5E2F5F5F5F5F5F5F5F5F5F5F5E2E2E2F5F5F5F5F5F5F5F5F5F5F5E2F5F5F5F5F5F5F5F5F5F5F5F5F5F5
310
F5F5F5F5F5F5F5F5F5F5F5F5F5F5F5F5F5F5F5F5F5F5F5F5F5F5F5F5F5F5F5F5F5F5F5F5F5F5F5F5F5F5F5F5F5F5F5F5F5F5F5F5F5F5F5F5F5F5F5F5F5F5F5F5F5F5F5F5F5F5F5F5F5F5F5F5F5F5F5F5F5F5F5F5F5F5F5F5F5F5F5F5F5F5F5F5F5F5F5F5F5F5F5F5F5F5F5F5F5F5F5F5F5F5F5F5F5F5F5F5F5F5F5F5F5F5F5
310
F5F5F5F5F5F5F5F5F5F5F5F5E2F5F5F5F5F5F5F5F5F5F5F5E2E2E2F5F5F5F5F5F5F5F5F5F5F5E2F5F5F5F5F5F5F5F5F5F5F5F5F5F5F5F5F5F5F5F5F5F5F5F5F5F5F5F5F5F5F5F5F5F5F5F5F5F5F5F5F5F5F5F5F5F5F5F5F5F5F5F5F5F5F5F5F5F5F5F5F5F5F5F5F5F5F5F5F5F5F5F5F5F5F5F5F5F5F5F5F5F5F5F5F5F5F5F5
310
F5F5F5F5F5F5F5F5F5F5F5F5F5F5F5F5F5F5F5F5F5F5F5F5F5F5F5F5F5F5F5F5F5F5F5F5F5F5F5F5F5F5F5F5F5F5F5F5F5F5F5F5F5F5F5F5F5F5F5F5F5F5F5F5F5E2F5F5F5F5F5F5F5F5F5F5F5E2E2E2F5F5F5F5F5F5F5F5F5F5F5E2F5F5F5F5F5F5F5F5F5F5F5F5F5F5F5F5F5F5F5F5F5F5F5F5F5F5F5F5F5F5F5F5F5F5F5
310
F5F5F5F5F5F5F5F5F5F5F5F5F5F5F5F5F5F5F5F5F5F5F5F5F5F5F5F5F5F5F5F5F5F5F5F5F5F5F5F5F5F5F5F5F5F5F5F5F5F5F5F5F5F5F5F5F5F5F5F5F5F5F5F5F5F5F5F5F5F5F5F5F5F5F5F5F5F5F5F5F5F5F5F5F5F5F5F5F5F5F5F5F5F5F5F5F5F5F5F5F5F5F5F5F5F5F5F5F5F5F5F5F5F5F5F5F5F5E2F5F5F5F5F5F5F5F5
310
F5F5F5E2E2E2F5F5F5F5F5F5F5F5F5F5F5E2F5F5F5F5F5F5F5F5F5F5F5F5F5F5F5F5F5F5F5F5F5F5F5F5F5F5F5F5F5F5F5F5F5F5F5F5F5F5F5F5F5F5F5F5F5F5F5F5F5F5F5F5F5F5F5F5F5F5F5F5F5F5F5F5F5F5F5F5F5F5F5F5F5F5F5F5F5F5F5F5F5F5F5F5F5F5F5F5F5F5F5F5F5F5F5F5F5F5F5F5F5F5F5F5F5F5F5F5F5
310
F5F5F5F5F5F5F5F5F5F5F5F5F5F5F5F5F5F5F5F5F5F5F5F5F5F5F5F5F5F5F5F5F5F5F5F5F5F5F5F5F5F5F5F5E2F5F5F5F5F5F5F5F5F5F5F5E2E2E2F5F5F5F5F5F5F5F5F5F5F5E2F5F5F5F5F5F5F5F5F5F5F5F5F5F5F5F5F5F5F5F5F5F5F5F5F5F5F5F5F5F5F5F5F5F5F5F5F5F5F5F5F5F5F5F5F5F5F5F5F5F5F5F5F5F5F5F5
310
F5F5F5F5F5F5F5F5F5F5F5F5F5F5F5F5F5F5F5F5F5F5F5F5F5F5F5F5F5F5F5F5F5F5F5F5F5F5F5F5F5F5F5F5F5F5F5F5F5F5F5F5F5F5F5F5F5F5F5F5F5F5F5F5F5F5F5F5F5F5F5F5F5F5F5F5F5F5F5F5F5F5F5F5F5F5F5F5F5F5F5F5F5F5F5F5F5E2F5F5F5F5F5F5F5F5F5F5F5E2E2E2F5F5F5F5F5F5F5F5F5F5F5E2E2E2E2
310
E2E2E2E2E2F5F5F5F5F5F5F5F5F5E2E2E2E2E2E2E2E2E2E2E2E2E2E2E2E2F5F5F5F5F5F5F5F5F5F5E2E2E2E2E2E2E2E2E2E2E2E2E2E2E2E2F5F5F5F5F5F5F5F5F5E2E2E2E2E2E2E2E2E2E2E2E2E2E2E2E2E2F5F5F5F5F5F5F5F5F5E2E2E2E2E2E2E2E2E2E2E2E2E2E2E2E2F5F5F5F5F5F5F5F5F5F5E2E2E2E2E2E2E2E2E2E2
310
E2E2E2E2E2E2F5F5F5F5F5F5F5F5F5E2E2E2E2E2E2E2E2E2F5F5F5F5F5F5F5F5F5F5F5E2E2E2F5F5F5F5F5F5F5F5F5F5F5F5F5F5F5F5F5F5F5F5F5F5F5F5F5F5F5F5F5F5F5F5F5F5F5F5F5F5F5F5F5F5F5F5F5F5F5F5F5F5F5F5F5F5F5F5F5F5F5F5F5F5F5F5F5F5F5F5F5F5F5F5F5F5F5F5F5F5F5F5F5F5F5F5F5F5F5F5F5
310
F5F5F5F5F5F5F5F5F5F5F5F5F5F5F5F5F5F5F5F5F5F5F5F5F5F5F5F5F5F5F5F5F5F5F5F5F5F5F5F5F5F5F5F5F5F5F5F5F5F5F5F5F5F5F5F5F5F5F5F5F5F5F5F5F5F5F5F5F5F5F5F5F5F5F5F5F5F5F5F5F5F5F5F5F5F5F5F5E2E2E2F5F5F5F5F5F5F5F5F5F5F5F5F5F5F5F5F5F5F5F5F5F5F5F5F5F5F5F5F5F5F5F5F5F5F5F5
310
F5F5F5F5F5F5F5F5F5F5F5F5F5F5F5F5F5F5F5F5F5F5F5F5F5F5F5F5F5F5F5F5F5F5F5F5F5F5F5F5F5F5F5F5F5F5F5F5F5F5F5F5F5F5F5F5F5F5F5F5F5F5F5F5F5F5F5F5F5F5F5F5F5F5F5F5F5F5F5F5F5F5F5F5F5F5F5F5F5F5F5F5F5F5F5F5F5F5F5F5F5F5F5F5F5F5F5F5F5F5F5F5F5F5F5F5F5F5F5F5F5F5F5F5F5F5F5
310
F5F5F5F5F5F5F5F5F5F5F5F5F5F5E2E2E2F5F5F5F5F5F5F5F5F5F5F5F5F5F5F5F5F5F5F5F5F5F5F5F5F5F5F5F5F5F5F5F5F5F5F5F5F5F5F5F5F5F5F5F5F5F5F5F5F5F5F5F5F5F5F5F5F5F5F5F5F5F5F5F5F5F5F5F5F5F5F5F5F5F5F5F5F5F5F5F5F5F5F5F5F5F5F5F5F5F5F5F5F5F5F5F5F5F5F5F5F5F5F5F5F5F5F5F5F5F5
310
F5F5F5F5F5F5F5F5F5F5F5F5F5F5F5F5F5F5F5F5F5F5F5F5F5F5F5F5F5F5F5F5F5F5F5F5F5F5F5F5F5F5F5F5F5F5F5F5F5F5F5F5F5F5F5F5F5F5F5F5F5F5F5F5F5F5F5E2E2E2F5F5F5F5F5F5F5F5F5F5F5F5F5F5F5F5F5F5F5F5F5F5F5F5F5F5F5F5F5F5F5F5F5F5F5F5F5F5F5F5F5F5F5F5F5F5F5F5F5F5F5F5F5F5F5F5F5
310
F5F5F5F5F5F5F5F5F5F5F5F5F5F5F5F5F5F5F5F5F5F5F5F5F5F5F5F5F5F5F5F5F5F5F5F5F5F5F5F5F5F5F5F5F5F5F5F5F5F5F5F5F5F5F5F5F5F5F5F5F5F5F5F5F5F5F5F5F5F5F5F5F5F5F5F5F5F5F5F5F5F5F5F5F5F5F5F5F5F5F5F5F5F5F5F5F5F5F5F5F5F5F5F5F5F5F5F5F5F5F5F5F5F5F5F5F5F5F5F5E2EFE2E2E2E2E2
310
E2E2E2E2E2E2E2E2E2E2E2E2E2E2E2E2E2E2E2E2E2E2E2E2E2E2E2E2E2E2E2E2E2E2E2E2E2E2E2E2E2E2E2E2E2E2E2E2E2E2E2E2E2E2E2E2E2E2E2E2E2E2E2E2E2E2E2E2E2E2E2E2E2E2E2E2E2E2E2E2E2E2E2E2E2E2E2E2E2E2E2E2E2E2E2E2E2E2E2E2E2E2E2E2E2E2E2E2E2E2E2E2E2E2E2E2E2E2E2E2E2E2E2E2E2E2E2
310
E2E2E2E2E2E2E2E2E2E2E2E2E2E2E2E2E2E2E2E2E2E2E2E2E2E2E2E2E2E2E2E2E2E2E2E2E2E2E2E2E2E2E2E2E2E2E2EF
  0
XRECORD
  5
B4AD
102
{ACAD_REACTORS
330
B475
102
}
330
B475
100
AcDbXrecord
280
     1
102
MATERIAL
148
0.0
149
0.0
149
0.0
 93
        0
 94
      127
282
     0
 72
     0
 77
     0
171
     0
175
     0
179
     0
273
     0
  0
XRECORD
  5
B476
102
{ACAD_REACTORS
330
B475
102
}
330
B475
100
AcDbXrecord
280
     1
270
     1
271
     1
  0
XRECORD
  5
B477
102
{ACAD_REACTORS
330
B475
102
}
330
B475
100
AcDbXrecord
280
     1
270
     1
271
     1
  0
XRECORD
  5
B478
102
{ACAD_REACTORS
330
B475
102
}
330
B475
100
AcDbXrecord
280
     1
270
     1
271
     1
  0
XRECORD
  5
B479
102
{ACAD_REACTORS
330
B475
102
}
330
B475
100
AcDbXrecord
280
     1
270
     1
271
     1
  0
XRECORD
  5
B47A
102
{ACAD_REACTORS
330
B475
102
}
330
B475
100
AcDbXrecord
280
     1
270
     1
271
     1
  0
XRECORD
  5
B47B
102
{ACAD_REACTORS
330
B475
102
}
330
B475
100
AcDbXrecord
280
     1
270
     1
271
     1
  0
XRECORD
  5
B4AC
102
{ACAD_REACTORS
330
B46D
102
}
330
B46D
100
AcDbXrecord
280
     1
102
MATERIAL
148
0.0
149
0.0
149
0.0
 93
        0
 94
      127
282
     0
 72
     0
 77
     0
171
     0
175
     0
179
     0
273
     0
  0
XRECORD
  5
B46E
102
{ACAD_REACTORS
330
B46D
102
}
330
B46D
100
AcDbXrecord
280
     1
270
     1
271
     1
  0
XRECORD
  5
B46F
102
{ACAD_REACTORS
330
B46D
102
}
330
B46D
100
AcDbXrecord
280
     1
270
     1
271
     1
  0
XRECORD
  5
B470
102
{ACAD_REACTORS
330
B46D
102
}
330
B46D
100
AcDbXrecord
280
     1
270
     1
271
     1
  0
XRECORD
  5
B471
102
{ACAD_REACTORS
330
B46D
102
}
330
B46D
100
AcDbXrecord
280
     1
270
     1
271
     1
  0
XRECORD
  5
B472
102
{ACAD_REACTORS
330
B46D
102
}
330
B46D
100
AcDbXrecord
280
     1
270
     1
271
     1
  0
XRECORD
  5
B473
102
{ACAD_REACTORS
330
B46D
102
}
330
B46D
100
AcDbXrecord
280
     1
270
     1
271
     1
  0
XRECORD
  5
B4A9
102
{ACAD_REACTORS
330
B443
102
}
330
B443
100
AcDbXrecord
280
     1
102
MATERIAL
148
0.0
149
0.0
149
0.0
 93
        0
 94
      127
282
     0
 72
     0
 77
     0
171
     0
175
     0
179
     0
273
     0
  0
XRECORD
  5
B444
102
{ACAD_REACTORS
330
B443
102
}
330
B443
100
AcDbXrecord
280
     1
270
     1
271
     1
  0
XRECORD
  5
B445
102
{ACAD_REACTORS
330
B443
102
}
330
B443
100
AcDbXrecord
280
     1
270
     1
271
     1
  0
XRECORD
  5
B446
102
{ACAD_REACTORS
330
B443
102
}
330
B443
100
AcDbXrecord
280
     1
270
     1
271
     1
  0
XRECORD
  5
B447
102
{ACAD_REACTORS
330
B443
102
}
330
B443
100
AcDbXrecord
280
     1
270
     1
271
     1
  0
XRECORD
  5
B448
102
{ACAD_REACTORS
330
B443
102
}
330
B443
100
AcDbXrecord
280
     1
270
     1
271
     1
  0
XRECORD
  5
B449
102
{ACAD_REACTORS
330
B443
102
}
330
B443
100
AcDbXrecord
280
     1
270
     1
271
     1
  0
CELLSTYLEMAP
  5
B4A7
102
{ACAD_REACTORS
330
B4A6
102
}
330
B4A6
100
AcDbCellStyleMap
 90
        3
300
CELLSTYLE
  1
TABLEFORMAT_BEGIN
 90
        5
170
     1
 91
        0
 92
    32768
 62
   257
 93
        1
300
CONTENTFORMAT
  1
CONTENTFORMAT_BEGIN
 90
        0
 91
        0
 92
        4
 93
        0
300

 40
0.0
140
1.0
 94
        5
 62
     0
340
B459
144
6.0
309
CONTENTFORMAT_END
171
     1
301
MARGIN
  1
CELLMARGIN_BEGIN
 40
1.5
 40
1.5
 40
1.5
 40
1.5
 40
0.18
 40
0.18
309
CELLMARGIN_END
 94
        6
 95
        1
302
GRIDFORMAT
  1
GRIDFORMAT_BEGIN
 90
        0
 91
        1
 62
     0
 92
       -2
340
0
 93
        0
 40
0.045
309
GRIDFORMAT_END
 95
        2
302
GRIDFORMAT
  1
GRIDFORMAT_BEGIN
 90
        0
 91
        1
 62
     0
 92
       -2
340
0
 93
        0
 40
0.045
309
GRIDFORMAT_END
 95
        4
302
GRIDFORMAT
  1
GRIDFORMAT_BEGIN
 90
        0
 91
        1
 62
     0
 92
       -2
340
0
 93
        0
 40
0.045
309
GRIDFORMAT_END
 95
        8
302
GRIDFORMAT
  1
GRIDFORMAT_BEGIN
 90
        0
 91
        1
 62
     0
 92
       -2
340
0
 93
        0
 40
0.045
309
GRIDFORMAT_END
 95
       16
302
GRIDFORMAT
  1
GRIDFORMAT_BEGIN
 90
        0
 91
        1
 62
     0
 92
       -2
340
0
 93
        0
 40
0.045
309
GRIDFORMAT_END
 95
       32
302
GRIDFORMAT
  1
GRIDFORMAT_BEGIN
 90
        0
 91
        1
 62
     0
 92
       -2
340
0
 93
        0
 40
0.045
309
GRIDFORMAT_END
309
TABLEFORMAT_END
  1
CELLSTYLE_BEGIN
 90
        1
 91
        1
300
_TITLE
309
CELLSTYLE_END
300
CELLSTYLE
  1
TABLEFORMAT_BEGIN
 90
        5
170
     1
 91
        0
 92
        0
 62
   257
 93
        1
300
CONTENTFORMAT
  1
CONTENTFORMAT_BEGIN
 90
        0
 91
        0
 92
        4
 93
        0
300

 40
0.0
140
1.0
 94
        5
 62
     0
340
B459
144
4.5
309
CONTENTFORMAT_END
171
     1
301
MARGIN
  1
CELLMARGIN_BEGIN
 40
1.5
 40
1.5
 40
1.5
 40
1.5
 40
0.18
 40
0.18
309
CELLMARGIN_END
 94
        6
 95
        1
302
GRIDFORMAT
  1
GRIDFORMAT_BEGIN
 90
        0
 91
        1
 62
     0
 92
       -2
340
0
 93
        0
 40
0.045
309
GRIDFORMAT_END
 95
        2
302
GRIDFORMAT
  1
GRIDFORMAT_BEGIN
 90
        0
 91
        1
 62
     0
 92
       -2
340
0
 93
        0
 40
0.045
309
GRIDFORMAT_END
 95
        4
302
GRIDFORMAT
  1
GRIDFORMAT_BEGIN
 90
        0
 91
        1
 62
     0
 92
       -2
340
0
 93
        0
 40
0.045
309
GRIDFORMAT_END
 95
        8
302
GRIDFORMAT
  1
GRIDFORMAT_BEGIN
 90
        0
 91
        1
 62
     0
 92
       -2
340
0
 93
        0
 40
0.045
309
GRIDFORMAT_END
 95
       16
302
GRIDFORMAT
  1
GRIDFORMAT_BEGIN
 90
        0
 91
        1
 62
     0
 92
       -2
340
0
 93
        0
 40
0.045
309
GRIDFORMAT_END
 95
       32
302
GRIDFORMAT
  1
GRIDFORMAT_BEGIN
 90
        0
 91
        1
 62
     0
 92
       -2
340
0
 93
        0
 40
0.045
309
GRIDFORMAT_END
309
TABLEFORMAT_END
  1
CELLSTYLE_BEGIN
 90
        2
 91
        1
300
_HEADER
309
CELLSTYLE_END
300
CELLSTYLE
  1
TABLEFORMAT_BEGIN
 90
        5
170
     1
 91
        0
 92
        0
 62
   257
 93
        1
300
CONTENTFORMAT
  1
CONTENTFORMAT_BEGIN
 90
        0
 91
        0
 92
        4
 93
        0
300

 40
0.0
140
1.0
 94
        2
 62
     0
340
B459
144
4.5
309
CONTENTFORMAT_END
171
     1
301
MARGIN
  1
CELLMARGIN_BEGIN
 40
1.5
 40
1.5
 40
1.5
 40
1.5
 40
0.18
 40
0.18
309
CELLMARGIN_END
 94
        6
 95
        1
302
GRIDFORMAT
  1
GRIDFORMAT_BEGIN
 90
        0
 91
        1
 62
     0
 92
       -2
340
0
 93
        0
 40
0.045
309
GRIDFORMAT_END
 95
        2
302
GRIDFORMAT
  1
GRIDFORMAT_BEGIN
 90
        0
 91
        1
 62
     0
 92
       -2
340
0
 93
        0
 40
0.045
309
GRIDFORMAT_END
 95
        4
302
GRIDFORMAT
  1
GRIDFORMAT_BEGIN
 90
        0
 91
        1
 62
     0
 92
       -2
340
0
 93
        0
 40
0.045
309
GRIDFORMAT_END
 95
        8
302
GRIDFORMAT
  1
GRIDFORMAT_BEGIN
 90
        0
 91
        1
 62
     0
 92
       -2
340
0
 93
        0
 40
0.045
309
GRIDFORMAT_END
 95
       16
302
GRIDFORMAT
  1
GRIDFORMAT_BEGIN
 90
        0
 91
        1
 62
     0
 92
       -2
340
0
 93
        0
 40
0.045
309
GRIDFORMAT_END
 95
       32
302
GRIDFORMAT
  1
GRIDFORMAT_BEGIN
 90
        0
 91
        1
 62
     0
 92
       -2
340
0
 93
        0
 40
0.045
309
GRIDFORMAT_END
309
TABLEFORMAT_END
  1
CELLSTYLE_BEGIN
 90
        3
 91
        2
300
_DATA
309
CELLSTYLE_END
  0
XRECORD
  5
B4AE
102
{ACAD_REACTORS
330
B4A6
102
}
330
B4A6
100
AcDbXrecord
280
     1
102
ACAD_ROUNDTRIP_PRE2007_TABLESTYLE
 90
        4
 91
        0
  1

 92
        4
 93
        0
  2

 94
        4
 95
        0
  3

  0
XRECORD
  5
B4AB
102
{ACAD_REACTORS
330
B4AA
102
}
330
B4AA
100
AcDbXrecord
280
     1
102
RTVSPropertyOp0
 70
     1
102
RTVSPropertyOp1
 70
     1
102
RTVSPropertyOp2
 70
     1
102
RTVSPropertyOp3
 70
     1
102
RTVSPropertyOp4
 70
     1
102
RTVSPropertyOp5
 70
     1
102
RTVSPropertyOp6
 70
     1
102
RTVSPropertyOp7
 70
     1
102
RTVSPropertyOp8
 70
     1
102
RTVSPropertyOp9
 70
     1
102
RTVSPropertyOp10
 70
     1
102
RTVSPropertyOp11
 70
     1
102
RTVSPropertyOp12
 70
     1
102
RTVSPropertyOp13
 70
     1
102
RTVSPropertyOp14
 70
     1
102
RTVSPropertyOp15
 70
     1
102
RTVSPropertyOp16
 70
     1
102
RTVSPropertyOp17
 70
     1
102
RTVSPropertyOp18
 70
     1
102
RTVSPropertyOp19
 70
     1
102
RTVSPropertyOp20
 70
     1
102
RTVSPropertyOp21
 70
     1
102
RTVSPropertyOp22
 70
     1
102
RTVSPropertyOp23
 70
     1
102
RTVSPropertyOp24
 70
     1
102
RTVSPropertyOp25
 70
     1
102
RTVSPropertyOp26
 70
     1
102
RTVSPropertyOp27
 70
     1
  0
XRECORD
  5
B4B2
102
{ACAD_REACTORS
330
B4B1
102
}
330
B4B1
100
AcDbXrecord
280
     1
102
RTVSPropertyOp0
 70
     1
102
RTVSPropertyOp1
 70
     1
102
RTVSPropertyOp2
 70
     1
102
RTVSPropertyOp3
 70
     1
102
RTVSPropertyOp4
 70
     1
102
RTVSPropertyOp5
 70
     1
102
RTVSPropertyOp6
 70
     1
102
RTVSPropertyOp7
 70
     1
102
RTVSPropertyOp8
 70
     1
102
RTVSPropertyOp9
 70
     1
102
RTVSPropertyOp10
 70
     1
102
RTVSPropertyOp11
 70
     1
102
RTVSPropertyOp12
 70
     1
102
RTVSPropertyOp13
 70
     1
102
RTVSPropertyOp14
 70
     1
102
RTVSPropertyOp15
 70
     1
102
RTVSPropertyOp16
 70
     1
102
RTVSPropertyOp17
 70
     1
102
RTVSPropertyOp18
 70
     1
102
RTVSPropertyOp19
 70
     1
102
RTVSPropertyOp20
 70
     1
102
RTVSPropertyOp21
 70
     1
102
RTVSPropertyOp22
 70
     1
102
RTVSPropertyOp23
 70
     1
102
RTVSPropertyOp24
 70
     1
102
RTVSPropertyOp25
 70
     1
102
RTVSPropertyOp26
 70
     1
102
RTVSPropertyOp27
 70
     1
  0
XRECORD
  5
B4B0
102
{ACAD_REACTORS
330
B4AF
102
}
330
B4AF
100
AcDbXrecord
280
     1
102
RTVSPropertyOp0
 70
     1
102
RTVSPropertyOp1
 70
     1
102
RTVSPropertyOp2
 70
     1
102
RTVSPropertyOp3
 70
     1
102
RTVSPropertyOp4
 70
     1
102
RTVSPropertyOp5
 70
     1
102
RTVSPropertyOp6
 70
     1
102
RTVSPropertyOp7
 70
     1
102
RTVSPropertyOp8
 70
     1
102
RTVSPropertyOp9
 70
     1
102
RTVSPropertyOp10
 70
     1
102
RTVSPropertyOp11
 70
     1
102
RTVSPropertyOp12
 70
     1
102
RTVSPropertyOp13
 70
     1
102
RTVSPropertyOp14
 70
     1
102
RTVSPropertyOp15
 70
     1
102
RTVSPropertyOp16
 70
     1
102
RTVSPropertyOp17
 70
     1
102
RTVSPropertyOp18
 70
     1
102
RTVSPropertyOp19
 70
     1
102
RTVSPropertyOp20
 70
     1
102
RTVSPropertyOp21
 70
     1
102
RTVSPropertyOp22
 70
     1
102
RTVSPropertyOp23
 70
     1
102
RTVSPropertyOp24
 70
     1
102
RTVSPropertyOp25
 70
     1
102
RTVSPropertyOp26
 70
     1
102
RTVSPropertyOp27
 70
     1
  0
ENDSEC
  0
EOF
