  0
SECTION
  2
HEADER
  9
$ACADVER
  1
AC1018
  9
$ACADMAINTVER
 70
   104
  9
$DWGCODEPAGE
  3
ANSI_932
  9
$AUTHOR
  1
pyxis04
  9
$LASTSAVEDBY
  1
pyxis04
  9
$INSBASE
 10
0.0
 20
0.0
 30
0.0
  9
$EXTMIN
 10
171873.1
 20
70369.1
 30
0.0
  9
$EXTMAX
 10
201573.2
 20
91369.2
 30
0.0
  9
$LIMMIN
 10
113974.262998
 20
8120.262998
  9
$LIMMAX
 10
259472.037002
 20
153618.037002
  9
$ORTHOMODE
 70
     0
  9
$REGENMODE
 70
     1
  9
$FILLMODE
 70
     1
  9
$QTEXTMODE
 70
     0
  9
$MIRRTEXT
 70
     0
  9
$LTSCALE
 40
1.0
  9
$ATTMODE
 70
     1
  9
$TEXTSIZE
 40
275.0
  9
$TRACEWID
 40
1.0
  9
$TEXTSTYLE
  7
Standard
  9
$CLAYER
  8
A221_記入文字
  9
$CELTYPE
  6
Continuous
  9
$CECOLOR
 62
     7
  9
$CELTSCALE
 40
50.0
  9
$DISPSILH
 70
     0
  9
$DIMSCALE
 40
1.0
  9
$DIMASZ
 40
2.5
  9
$DIMEXO
 40
0.625
  9
$DIMDLI
 40
3.75
  9
$DIMRND
 40
0.0
  9
$DIMDLE
 40
0.0
  9
$DIMEXE
 40
1.25
  9
$DIMTP
 40
0.0
  9
$DIMTM
 40
0.0
  9
$DIMTXT
 40
2.5
  9
$DIMCEN
 40
2.5
  9
$DIMTSZ
 40
0.0
  9
$DIMTOL
 70
     0
  9
$DIMLIM
 70
     0
  9
$DIMTIH
 70
     0
  9
$DIMTOH
 70
     0
  9
$DIMSE1
 70
     0
  9
$DIMSE2
 70
     0
  9
$DIMTAD
 70
     1
  9
$DIMZIN
 70
     8
  9
$DIMBLK
  1

  9
$DIMASO
 70
     1
  9
$DIMSHO
 70
     1
  9
$DIMPOST
  1

  9
$DIMAPOST
  1

  9
$DIMALT
 70
     0
  9
$DIMALTD
 70
     3
  9
$DIMALTF
 40
0.03937
  9
$DIMLFAC
 40
1.0
  9
$DIMTOFL
 70
     1
  9
$DIMTVP
 40
0.0
  9
$DIMTIX
 70
     0
  9
$DIMSOXD
 70
     0
  9
$DIMSAH
 70
     0
  9
$DIMBLK1
  1

  9
$DIMBLK2
  1

  9
$DIMSTYLE
  2
ISO-25
  9
$DIMCLRD
 70
     0
  9
$DIMCLRE
 70
     0
  9
$DIMCLRT
 70
     0
  9
$DIMTFAC
 40
1.0
  9
$DIMGAP
 40
0.625
  9
$DIMJUST
 70
     0
  9
$DIMSD1
 70
     0
  9
$DIMSD2
 70
     0
  9
$DIMTOLJ
 70
     0
  9
$DIMTZIN
 70
     8
  9
$DIMALTZ
 70
     0
  9
$DIMALTTZ
 70
     0
  9
$DIMUPT
 70
     0
  9
$DIMDEC
 70
     2
  9
$DIMTDEC
 70
     2
  9
$DIMALTU
 70
     2
  9
$DIMALTTD
 70
     3
  9
$DIMTXSTY
  7
Standard
  9
$DIMAUNIT
 70
     0
  9
$DIMADEC
 70
     0
  9
$DIMALTRND
 40
0.0
  9
$DIMAZIN
 70
     0
  9
$DIMDSEP
 70
    44
  9
$DIMATFIT
 70
     3
  9
$DIMFRAC
 70
     0
  9
$DIMLDRBLK
  1

  9
$DIMLUNIT
 70
     2
  9
$DIMLWD
 70
    -2
  9
$DIMLWE
 70
    -2
  9
$DIMTMOVE
 70
     0
  9
$LUNITS
 70
     2
  9
$LUPREC
 70
     6
  9
$SKETCHINC
 40
1.0
  9
$FILLETRAD
 40
0.0
  9
$AUNITS
 70
     0
  9
$AUPREC
 70
     8
  9
$MENU
  1
.
  9
$ELEVATION
 40
0.0
  9
$PELEVATION
 40
0.0
  9
$THICKNESS
 40
0.0
  9
$LIMCHECK
 70
     0
  9
$CHAMFERA
 40
0.0
  9
$CHAMFERB
 40
0.0
  9
$CHAMFERC
 40
0.0
  9
$CHAMFERD
 40
0.0
  9
$SKPOLY
 70
     0
  9
$TDCREATE
 40
2454145.195247280
  9
$TDUCREATE
 40
2454144.820247280
  9
$TDUPDATE
 40
2454145.196122512
  9
$TDUUPDATE
 40
2454144.821122512
  9
$TDINDWG
 40
0.0008793750
  9
$TDUSRTIMER
 40
0.0008775231
  9
$USRTIMER
 70
     1
  9
$ANGBASE
 50
0.0
  9
$ANGDIR
 70
     0
  9
$PDMODE
 70
     0
  9
$PDSIZE
 40
0.0
  9
$PLINEWID
 40
0.0
  9
$SPLFRAME
 70
     0
  9
$SPLINETYPE
 70
     6
  9
$SPLINESEGS
 70
     8
  9
$HANDSEED
  5
CDD5
  9
$SURFTAB1
 70
     6
  9
$SURFTAB2
 70
     6
  9
$SURFTYPE
 70
     6
  9
$SURFU
 70
     6
  9
$SURFV
 70
     6
  9
$UCSBASE
  2

  9
$UCSNAME
  2

  9
$UCSORG
 10
0.0
 20
0.0
 30
0.0
  9
$UCSXDIR
 10
1.0
 20
0.0
 30
0.0
  9
$UCSYDIR
 10
0.0
 20
1.0
 30
0.0
  9
$UCSORTHOREF
  2

  9
$UCSORTHOVIEW
 70
     0
  9
$UCSORGTOP
 10
0.0
 20
0.0
 30
0.0
  9
$UCSORGBOTTOM
 10
0.0
 20
0.0
 30
0.0
  9
$UCSORGLEFT
 10
0.0
 20
0.0
 30
0.0
  9
$UCSORGRIGHT
 10
0.0
 20
0.0
 30
0.0
  9
$UCSORGFRONT
 10
0.0
 20
0.0
 30
0.0
  9
$UCSORGBACK
 10
0.0
 20
0.0
 30
0.0
  9
$PUCSBASE
  2

  9
$PUCSNAME
  2

  9
$PUCSORG
 10
0.0
 20
0.0
 30
0.0
  9
$PUCSXDIR
 10
1.0
 20
0.0
 30
0.0
  9
$PUCSYDIR
 10
0.0
 20
1.0
 30
0.0
  9
$PUCSORTHOREF
  2

  9
$PUCSORTHOVIEW
 70
     0
  9
$PUCSORGTOP
 10
0.0
 20
0.0
 30
0.0
  9
$PUCSORGBOTTOM
 10
0.0
 20
0.0
 30
0.0
  9
$PUCSORGLEFT
 10
0.0
 20
0.0
 30
0.0
  9
$PUCSORGRIGHT
 10
0.0
 20
0.0
 30
0.0
  9
$PUCSORGFRONT
 10
0.0
 20
0.0
 30
0.0
  9
$PUCSORGBACK
 10
0.0
 20
0.0
 30
0.0
  9
$USERI1
 70
     0
  9
$USERI2
 70
     0
  9
$USERI3
 70
     0
  9
$USERI4
 70
     0
  9
$USERI5
 70
     0
  9
$USERR1
 40
0.0
  9
$USERR2
 40
0.0
  9
$USERR3
 40
0.0
  9
$USERR4
 40
0.0
  9
$USERR5
 40
0.0
  9
$WORLDVIEW
 70
     1
  9
$SHADEDGE
 70
     3
  9
$SHADEDIF
 70
    70
  9
$TILEMODE
 70
     1
  9
$MAXACTVP
 70
    64
  9
$PINSBASE
 10
0.0
 20
0.0
 30
0.0
  9
$PLIMCHECK
 70
     0
  9
$PEXTMIN
 10
25.7
 20
19.5
 30
0.0
  9
$PEXTMAX
 10
231.3
 20
175.5
 30
0.0
  9
$PLIMMIN
 10
-20.0
 20
-7.5
  9
$PLIMMAX
 10
277.0
 20
202.5
  9
$UNITMODE
 70
     0
  9
$VISRETAIN
 70
     1
  9
$PLINEGEN
 70
     0
  9
$PSLTSCALE
 70
     0
  9
$TREEDEPTH
 70
  3020
  9
$CMLSTYLE
  2
Standard
  9
$CMLJUST
 70
     0
  9
$CMLSCALE
 40
20.0
  9
$PROXYGRAPHICS
 70
     1
  9
$MEASUREMENT
 70
     1
  9
$CELWEIGHT
370
    13
  9
$ENDCAPS
280
     0
  9
$JOINSTYLE
280
     0
  9
$LWDISPLAY
290
     1
  9
$INSUNITS
 70
     4
  9
$HYPERLINKBASE
  1

  9
$STYLESHEET
  1

  9
$XEDIT
290
     1
  9
$CEPSNTYPE
380
     0
  9
$PSTYLEMODE
290
     1
  9
$FINGERPRINTGUID
  2
{5EE78407-091D-4B59-8411-47A490BADE94}
  9
$VERSIONGUID
  2
{387A601E-E697-4F95-A263-71BCBFF6BFF5}
  9
$EXTNAMES
290
     1
  9
$PSVPSCALE
 40
0.0
  9
$OLESTARTUP
290
     0
  9
$SORTENTS
280
   127
  9
$INDEXCTL
280
     0
  9
$HIDETEXT
280
     1
  9
$XCLIPFRAME
290
     0
  9
$HALOGAP
280
     0
  9
$OBSCOLOR
 70
   257
  9
$OBSLTYPE
280
     0
  9
$INTERSECTIONDISPLAY
280
     0
  9
$INTERSECTIONCOLOR
 70
   257
  9
$DIMASSOC
280
     1
  9
$PROJECTNAME
  1

  0
ENDSEC
  0
SECTION
  2
CLASSES
  0
CLASS
  1
ACDBDICTIONARYWDFLT
  2
AcDbDictionaryWithDefault
  3
ObjectDBX Classes
 90
        0
 91
        1
280
     0
281
     0
  0
CLASS
  1
DICTIONARYVAR
  2
AcDbDictionaryVar
  3
ObjectDBX Classes
 90
        0
 91
        3
280
     0
281
     0
  0
CLASS
  1
TABLESTYLE
  2
AcDbTableStyle
  3
ObjectDBX Classes
 90
     4095
 91
        1
280
     0
281
     0
  0
CLASS
  1
MATERIAL
  2
AcDbMaterial
  3
ObjectDBX Classes
 90
     1153
 91
        3
280
     0
281
     0
  0
CLASS
  1
VISUALSTYLE
  2
AcDbVisualStyle
  3
ObjectDBX Classes
 90
     4095
 91
        3
280
     0
281
     0
  0
CLASS
  1
SCALE
  2
AcDbScale
  3
ObjectDBX Classes
 90
     1153
 91
       17
280
     0
281
     0
  0
CLASS
  1
MLEADERSTYLE
  2
AcDbMLeaderStyle
  3
ACDB_MLEADERSTYLE_CLASS
 90
     4095
 91
        0
280
     0
281
     0
  0
CLASS
  1
CELLSTYLEMAP
  2
AcDbCellStyleMap
  3
ObjectDBX Classes
 90
     1152
 91
        1
280
     0
281
     0
  0
ENDSEC
  0
SECTION
  2
TABLES
  0
TABLE
  2
VPORT
  5
CD82
330
0
100
AcDbSymbolTable
 70
     2
  0
VPORT
  5
4B
330
CD82
100
AcDbSymbolTableRecord
100
AcDbViewportTableRecord
  2
*ACTIVE
 70
     0
 10
0.0
 20
0.0
 11
1.0
 21
1.0
 12
186723.137725
 22
80869.154865
 13
0.0
 23
0.0
 14
100.0
 24
100.0
 15
100.0
 25
100.0
 16
0.0
 26
0.0
 36
1.0
 17
0.0
 27
0.0
 37
0.0
 40
21840.0
 41
3.442559
 42
50.0
 43
0.0
 44
0.0
 50
0.0
 51
0.0
 71
     0
 72
   100
 73
     1
 74
     0
 75
     0
 76
     0
 77
     0
 78
     1
281
     0
 65
     1
110
0.0
120
0.0
130
0.0
111
1.0
121
0.0
131
0.0
112
0.0
122
1.0
132
0.0
 79
     0
146
0.0
  0
ENDTAB
  0
TABLE
  2
LTYPE
  5
CD7D
330
0
100
AcDbSymbolTable
 70
    13
  0
LTYPE
  5
CD7E
330
CD7D
100
AcDbSymbolTableRecord
100
AcDbLinetypeTableRecord
  2
ByBlock
 70
     0
  3

 72
    65
 73
     0
 40
0.0
  0
LTYPE
  5
CD7F
330
CD7D
100
AcDbSymbolTableRecord
100
AcDbLinetypeTableRecord
  2
ByLayer
 70
     0
  3

 72
    65
 73
     0
 40
0.0
  0
LTYPE
  5
CD6C
330
CD7D
100
AcDbSymbolTableRecord
100
AcDbLinetypeTableRecord
  2
Continuous
 70
     0
  3
Solid line
 72
    65
 73
     0
 40
0.0
  0
LTYPE
  5
442B
330
CD7D
100
AcDbSymbolTableRecord
100
AcDbLinetypeTableRecord
  2
4_CENTER2
 70
     0
  3

 72
    65
 73
     4
 40
1.88
 49
1.4
 74
     0
 49
-0.16
 74
     0
 49
0.16
 74
     0
 49
-0.16
 74
     0
  0
LTYPE
  5
442D
330
CD7D
100
AcDbSymbolTableRecord
100
AcDbLinetypeTableRecord
  2
7_CENTER
 70
     0
  3

 72
    65
 73
     4
 40
6.68
 49
6.2
 74
     0
 49
-0.16
 74
     0
 49
0.16
 74
     0
 49
-0.16
 74
     0
  0
LTYPE
  5
4510
330
CD7D
100
AcDbSymbolTableRecord
100
AcDbLinetypeTableRecord
  2
2_HIDDEN2
 70
     0
  3

 72
    65
 73
     2
 40
0.34
 49
0.24
 74
     0
 49
-0.1
 74
     0
  0
LTYPE
  5
454A
330
CD7D
100
AcDbSymbolTableRecord
100
AcDbLinetypeTableRecord
  2
1_HIDDEN
 70
     0
  3

 72
    65
 73
     2
 40
0.1
 49
0.0
 74
     0
 49
-0.1
 74
     0
  0
LTYPE
  5
455C
330
CD7D
100
AcDbSymbolTableRecord
100
AcDbLinetypeTableRecord
  2
6_PHANTOM
 70
     0
  3

 72
    65
 73
     6
 40
4.9
 49
4.2
 74
     0
 49
-0.14
 74
     0
 49
0.14
 74
     0
 49
-0.14
 74
     0
 49
0.14
 74
     0
 49
-0.14
 74
     0
  0
LTYPE
  5
456E
330
CD7D
100
AcDbSymbolTableRecord
100
AcDbLinetypeTableRecord
  2
3_DASHED
 70
     0
  3

 72
    65
 73
     2
 40
0.58
 49
0.48
 74
     0
 49
-0.1
 74
     0
  0
LTYPE
  5
4D7E
330
CD7D
100
AcDbSymbolTableRecord
100
AcDbLinetypeTableRecord
  2
CENTER
 70
     0
  3

 72
    65
 73
     4
 40
50.8
 49
31.75
 74
     0
 49
-6.35
 74
     0
 49
6.35
 74
     0
 49
-6.35
 74
     0
  0
LTYPE
  5
CDBA
330
CD7D
100
AcDbSymbolTableRecord
100
AcDbLinetypeTableRecord
  2
DGN Style 1
 70
     0
  3
Dgn Style 1
 72
    65
 73
     2
 40
0.6
 49
0.0
 74
     0
 49
-0.6
 74
     0
  0
LTYPE
  5
CDBB
330
CD7D
100
AcDbSymbolTableRecord
100
AcDbLinetypeTableRecord
  2
DGN Style 2
 70
     0
  3
Dgn Style 2
 72
    65
 73
     2
 40
1.0
 49
0.6
 74
     0
 49
-0.4
 74
     0
  0
LTYPE
  5
CDBC
330
CD7D
100
AcDbSymbolTableRecord
100
AcDbLinetypeTableRecord
  2
DGN Style 6
 70
     0
  3
Dgn Style 6
 72
    65
 73
     6
 40
1.9
 49
0.0
 74
     0
 49
-0.4
 74
     0
 49
0.7
 74
     0
 49
-0.4
 74
     0
 49
0.0
 74
     0
 49
-0.4
 74
     0
  0
LTYPE
  5
CDBD
330
CD7D
100
AcDbSymbolTableRecord
100
AcDbLinetypeTableRecord
  2
DGN Style 4
 70
     0
  3
Dgn Style 4
 72
    65
 73
     4
 40
1.6
 49
0.8
 74
     0
 49
-0.4
 74
     0
 49
0.0
 74
     0
 49
-0.4
 74
     0
  0
LTYPE
  5
CDBE
330
CD7D
100
AcDbSymbolTableRecord
100
AcDbLinetypeTableRecord
  2
DGN Style 3
 70
     0
  3
Dgn Style 3
 72
    65
 73
     2
 40
1.4
 49
1.0
 74
     0
 49
-0.4
 74
     0
  0
ENDTAB
  0
TABLE
  2
LAYER
  5
CD77
102
{ACAD_XDICTIONARY
360
CD78
102
}
330
0
100
AcDbSymbolTable
 70
   139
  0
LAYER
  5
CD5F
330
CD77
100
AcDbSymbolTableRecord
100
AcDbLayerTableRecord
  2
0
 70
     0
 62
     7
  6
Continuous
370
    -3
390
CD60
  0
LAYER
  5
53C2
330
CD77
100
AcDbSymbolTableRecord
100
AcDbLayerTableRecord
  2
A231_壁：種別
 70
     0
 62
     7
  6
Continuous
370
     9
390
CD60
  0
LAYER
  5
9B55
330
CD77
100
AcDbSymbolTableRecord
100
AcDbLayerTableRecord
  2
1階座席
 70
     0
 62
     3
  6
Continuous
370
     9
390
CD60
  0
LAYER
  5
9BED
330
CD77
100
AcDbSymbolTableRecord
100
AcDbLayerTableRecord
  2
3-0通芯
 70
     0
 62
     7
  6
Continuous
370
     9
390
CD60
  0
LAYER
  5
AEB3
330
CD77
100
AcDbSymbolTableRecord
100
AcDbLayerTableRecord
  2
枠
 70
     0
 62
     7
  6
Continuous
290
     0
370
     9
390
CD60
  0
LAYER
  5
AEB4
330
CD77
100
AcDbSymbolTableRecord
100
AcDbLayerTableRecord
  2
2階座席
 70
     0
 62
     5
  6
Continuous
370
     9
390
CD60
  0
LAYER
  5
AEB5
330
CD77
100
AcDbSymbolTableRecord
100
AcDbLayerTableRecord
  2
_1-A_平面__断面図_008_地下１階平面図
 70
     0
 62
     7
  6
Continuous
370
     9
390
CD60
  0
LAYER
  5
4D86
330
CD77
100
AcDbSymbolTableRecord
100
AcDbLayerTableRecord
  2
A242_記号２
 70
     0
 62
     7
  6
Continuous
370
     9
390
CD60
  0
LAYER
  5
4D87
330
CD77
100
AcDbSymbolTableRecord
100
AcDbLayerTableRecord
  2
A670_細点線
 70
     0
 62
     7
  6
DGN Style 1
370
     9
390
CD60
  0
LAYER
  5
4D88
330
CD77
100
AcDbSymbolTableRecord
100
AcDbLayerTableRecord
  2
A661_中破線
 70
     0
 62
     7
  6
DGN Style 2
370
    13
390
CD60
  0
LAYER
  5
4D89
330
CD77
100
AcDbSymbolTableRecord
100
AcDbLayerTableRecord
  2
A622_シャッター
 70
     0
 62
     7
  6
DGN Style 6
370
    13
390
CD60
  0
LAYER
  5
4D8A
330
CD77
100
AcDbSymbolTableRecord
100
AcDbLayerTableRecord
  2
A854_衛生設備_記号
 70
     0
 62
   250
  6
Continuous
370
    13
390
CD60
  0
LAYER
  5
4D8B
330
CD77
100
AcDbSymbolTableRecord
100
AcDbLayerTableRecord
  2
A322_ハッチング点線
 70
     0
 62
     7
  6
DGN Style 1
370
     9
390
CD60
  0
LAYER
  5
4D8C
330
CD77
100
AcDbSymbolTableRecord
100
AcDbLayerTableRecord
  2
A743_駐車場
 70
     0
 62
     7
  6
Continuous
370
     9
390
CD60
  0
LAYER
  5
4D8D
330
CD77
100
AcDbSymbolTableRecord
100
AcDbLayerTableRecord
  2
A740_外構
 70
     0
 62
     7
  6
Continuous
370
     9
390
CD60
  0
LAYER
  5
4D8E
330
CD77
100
AcDbSymbolTableRecord
100
AcDbLayerTableRecord
  2
A823_サイン
 70
     0
 62
     7
  6
Continuous
370
     9
390
CD60
  0
LAYER
  5
4D8F
330
CD77
100
AcDbSymbolTableRecord
100
AcDbLayerTableRecord
  2
A856_消防設備
 70
     0
 62
     7
  6
DGN Style 6
370
    13
390
CD60
  0
LAYER
  5
4D90
330
CD77
100
AcDbSymbolTableRecord
100
AcDbLayerTableRecord
  2
A571_床ピット
 70
     0
 62
     7
  6
Continuous
370
     9
390
CD60
  0
LAYER
  5
4D91
330
CD77
100
AcDbSymbolTableRecord
100
AcDbLayerTableRecord
  2
C132_ＧＬ
 70
     0
 62
     7
  6
DGN Style 4
370
     9
390
CD60
  0
LAYER
  5
4D92
330
CD77
100
AcDbSymbolTableRecord
100
AcDbLayerTableRecord
  2
A343_基礎
 70
     0
 62
     7
  6
Continuous
370
     9
390
CD60
  0
LAYER
  5
4D93
330
CD77
100
AcDbSymbolTableRecord
100
AcDbLayerTableRecord
  2
A344_樋
 70
     0
 62
     7
  6
Continuous
370
     9
390
CD60
  0
LAYER
  5
AEB6
330
CD77
100
AcDbSymbolTableRecord
100
AcDbLayerTableRecord
  2
_0-D_平面__断面図_4-1建具
 70
     0
 62
     7
  6
Continuous
370
     9
390
CD60
  0
LAYER
  5
4D95
330
CD77
100
AcDbSymbolTableRecord
100
AcDbLayerTableRecord
  2
A711_自敷地境界線
 70
     0
 62
     7
  6
DGN Style 6
370
    30
390
CD60
  0
LAYER
  5
4D96
330
CD77
100
AcDbSymbolTableRecord
100
AcDbLayerTableRecord
  2
A733_工作物
 70
     0
 62
     7
  6
Continuous
370
     9
390
CD60
  0
LAYER
  5
4D97
330
CD77
100
AcDbSymbolTableRecord
100
AcDbLayerTableRecord
  2
A732_舗装
 70
     0
 62
     7
  6
Continuous
370
     9
390
CD60
  0
LAYER
  5
4D98
330
CD77
100
AcDbSymbolTableRecord
100
AcDbLayerTableRecord
  2
A741_擁壁
 70
     0
 62
     7
  6
Continuous
370
     9
390
CD60
  0
LAYER
  5
4D99
330
CD77
100
AcDbSymbolTableRecord
100
AcDbLayerTableRecord
  2
A742_解体建物
 70
     0
 62
     7
  6
Continuous
370
     9
390
CD60
  0
LAYER
  5
4D9A
330
CD77
100
AcDbSymbolTableRecord
100
AcDbLayerTableRecord
  2
A650_細実線
 70
     0
 62
    30
  6
Continuous
370
     9
390
CD60
  0
LAYER
  5
4D9B
330
CD77
100
AcDbSymbolTableRecord
100
AcDbLayerTableRecord
  2
A651_中実線
 70
     0
 62
     7
  6
Continuous
370
    13
390
CD60
  0
LAYER
  5
4D9C
330
CD77
100
AcDbSymbolTableRecord
100
AcDbLayerTableRecord
  2
A652_太実線
 70
     0
 62
     7
  6
Continuous
370
    30
390
CD60
  0
LAYER
  5
4D9D
330
CD77
100
AcDbSymbolTableRecord
100
AcDbLayerTableRecord
  2
A660_細破線
 70
     0
 62
     7
  6
DGN Style 2
370
     9
390
CD60
  0
LAYER
  5
4D9E
330
CD77
100
AcDbSymbolTableRecord
100
AcDbLayerTableRecord
  2
A662_太破線
 70
     0
 62
     7
  6
DGN Style 2
370
    30
390
CD60
  0
LAYER
  5
4D9F
330
CD77
100
AcDbSymbolTableRecord
100
AcDbLayerTableRecord
  2
A671_中点線
 70
     0
 62
     7
  6
DGN Style 1
370
    13
390
CD60
  0
LAYER
  5
4DA0
330
CD77
100
AcDbSymbolTableRecord
100
AcDbLayerTableRecord
  2
A672_太点線
 70
     0
 62
     7
  6
DGN Style 1
370
    30
390
CD60
  0
LAYER
  5
4DA1
330
CD77
100
AcDbSymbolTableRecord
100
AcDbLayerTableRecord
  2
A680_細鎖線
 70
     0
 62
     7
  6
DGN Style 6
370
     9
390
CD60
  0
LAYER
  5
4DA2
330
CD77
100
AcDbSymbolTableRecord
100
AcDbLayerTableRecord
  2
A681_中鎖線
 70
     0
 62
     7
  6
DGN Style 6
370
    13
390
CD60
  0
LAYER
  5
4DA3
330
CD77
100
AcDbSymbolTableRecord
100
AcDbLayerTableRecord
  2
A682_太鎖線
 70
     0
 62
     7
  6
DGN Style 6
370
    30
390
CD60
  0
LAYER
  5
4DA4
330
CD77
100
AcDbSymbolTableRecord
100
AcDbLayerTableRecord
  2
A244_記号中線
 70
     0
 62
     7
  6
Continuous
370
    13
390
CD60
  0
LAYER
  5
4DA5
330
CD77
100
AcDbSymbolTableRecord
100
AcDbLayerTableRecord
  2
A245_記号太線
 70
     0
 62
     7
  6
Continuous
370
    30
390
CD60
  0
LAYER
  5
4DA6
330
CD77
100
AcDbSymbolTableRecord
100
AcDbLayerTableRecord
  2
A246_記号点線
 70
     0
 62
     7
  6
DGN Style 1
370
     9
390
CD60
  0
LAYER
  5
4DA7
330
CD77
100
AcDbSymbolTableRecord
100
AcDbLayerTableRecord
  2
A247_記号破線
 70
     0
 62
     7
  6
DGN Style 2
370
     9
390
CD60
  0
LAYER
  5
4DA8
330
CD77
100
AcDbSymbolTableRecord
100
AcDbLayerTableRecord
  2
A323_ハッチング破線
 70
     0
 62
     7
  6
DGN Style 2
370
     9
390
CD60
  0
LAYER
  5
4DA9
330
CD77
100
AcDbSymbolTableRecord
100
AcDbLayerTableRecord
  2
A714_各種制限線
 70
     0
 62
     7
  6
DGN Style 6
370
     9
390
CD60
  0
LAYER
  5
4DAA
330
CD77
100
AcDbSymbolTableRecord
100
AcDbLayerTableRecord
  2
A565_目地点線
 70
     0
 62
     7
  6
DGN Style 1
370
     9
390
CD60
  0
LAYER
  5
4DAB
330
CD77
100
AcDbSymbolTableRecord
100
AcDbLayerTableRecord
  2
A566_目地破線
 70
     0
 62
     7
  6
DGN Style 2
370
     9
390
CD60
  0
LAYER
  5
4DAC
330
CD77
100
AcDbSymbolTableRecord
100
AcDbLayerTableRecord
  2
A347_防水
 70
     0
 62
     7
  6
DGN Style 6
370
    13
390
CD60
  0
LAYER
  5
4DAD
330
CD77
100
AcDbSymbolTableRecord
100
AcDbLayerTableRecord
  2
A222_引出線
 70
     0
 62
     7
  6
Continuous
370
     9
390
CD60
  0
LAYER
  5
4DAE
330
CD77
100
AcDbSymbolTableRecord
100
AcDbLayerTableRecord
  2
A712_他敷地境界線
 70
     0
 62
     7
  6
DGN Style 6
370
     9
390
CD60
  0
LAYER
  5
4DAF
330
CD77
100
AcDbSymbolTableRecord
100
AcDbLayerTableRecord
  2
A614_カーテン実線
 70
     0
 62
     7
  6
Continuous
370
     9
390
CD60
  0
LAYER
  5
4DB0
330
CD77
100
AcDbSymbolTableRecord
100
AcDbLayerTableRecord
  2
A842_搬送機破線
 70
     0
 62
     7
  6
DGN Style 2
370
     9
390
CD60
  0
LAYER
  5
4DB1
330
CD77
100
AcDbSymbolTableRecord
100
AcDbLayerTableRecord
  2
C131_通芯
 70
     0
 62
     7
  6
DGN Style 4
370
     9
390
CD60
  0
LAYER
  5
4DB2
330
CD77
100
AcDbSymbolTableRecord
100
AcDbLayerTableRecord
  2
C151_壁芯
 70
     0
 62
     7
  6
DGN Style 4
370
     9
390
CD60
  0
LAYER
  5
4DB3
330
CD77
100
AcDbSymbolTableRecord
100
AcDbLayerTableRecord
  2
C135_捨芯
 70
     0
 62
     7
  6
DGN Style 4
290
     0
370
     9
390
CD60
  0
LAYER
  5
AEB7
330
CD77
100
AcDbSymbolTableRecord
100
AcDbLayerTableRecord
  2
_0-6_平面__断面図_3-4ALC
 70
     0
 62
   253
  6
Continuous
370
     9
390
CD60
  0
LAYER
  5
4999
330
CD77
100
AcDbSymbolTableRecord
100
AcDbLayerTableRecord
  2
A221_記入文字
 70
     0
 62
     7
  6
Continuous
370
     9
390
CD60
  0
LAYER
  5
4C79
330
CD77
100
AcDbSymbolTableRecord
100
AcDbLayerTableRecord
  2
A341_床ピット
 70
     0
 62
   201
  6
Continuous
370
    13
390
CD60
  0
LAYER
  5
4C7B
330
CD77
100
AcDbSymbolTableRecord
100
AcDbLayerTableRecord
  2
C111_図枠
 70
     0
 62
     7
  6
Continuous
370
     9
390
CD60
  0
LAYER
  5
4C7D
330
CD77
100
AcDbSymbolTableRecord
100
AcDbLayerTableRecord
  2
C121_図面名称
 70
     0
 62
     7
  6
Continuous
370
    53
390
CD60
  0
LAYER
  5
4C7F
330
CD77
100
AcDbSymbolTableRecord
100
AcDbLayerTableRecord
  2
C115_OFF
 70
     0
 62
     7
  6
Continuous
290
     0
370
     9
390
CD60
  0
LAYER
  5
4C83
330
CD77
100
AcDbSymbolTableRecord
100
AcDbLayerTableRecord
  2
C132_FL
 70
     0
 62
     7
  6
Continuous
370
    40
390
CD60
  0
LAYER
  5
4C87
330
CD77
100
AcDbSymbolTableRecord
100
AcDbLayerTableRecord
  2
C133_雑芯
 70
     0
 62
     7
  6
DGN Style 4
370
     9
390
CD60
  0
LAYER
  5
4C89
330
CD77
100
AcDbSymbolTableRecord
100
AcDbLayerTableRecord
  2
C134_雑芯２
 70
     0
 62
     7
  6
DGN Style 4
370
     9
390
CD60
  0
LAYER
  5
4C8D
330
CD77
100
AcDbSymbolTableRecord
100
AcDbLayerTableRecord
  2
C136_雑芯３
 70
     0
 62
     7
  6
DGN Style 4
370
     9
390
CD60
  0
LAYER
  5
4C8F
330
CD77
100
AcDbSymbolTableRecord
100
AcDbLayerTableRecord
  2
C137_雑芯４
 70
     0
 62
   254
  6
DGN Style 4
370
     9
390
CD60
  0
LAYER
  5
4C91
330
CD77
100
AcDbSymbolTableRecord
100
AcDbLayerTableRecord
  2
C138_雑芯５
 70
     0
 62
    40
  6
DGN Style 4
370
     9
390
CD60
  0
LAYER
  5
4459
330
CD77
100
AcDbSymbolTableRecord
100
AcDbLayerTableRecord
  2
C161_通心寸法
 70
     0
 62
     7
  6
Continuous
370
     9
390
CD60
  0
LAYER
  5
445D
330
CD77
100
AcDbSymbolTableRecord
100
AcDbLayerTableRecord
  2
C162_その他寸法
 70
     0
 62
     7
  6
Continuous
370
     9
390
CD60
  0
LAYER
  5
4C95
330
CD77
100
AcDbSymbolTableRecord
100
AcDbLayerTableRecord
  2
A211_室名
 70
     0
 62
     7
  6
Continuous
370
     9
390
CD60
  0
LAYER
  5
4C97
330
CD77
100
AcDbSymbolTableRecord
100
AcDbLayerTableRecord
  2
A241_方位
 70
     0
 62
     7
  6
Continuous
370
     9
390
CD60
  0
LAYER
  5
4C99
330
CD77
100
AcDbSymbolTableRecord
100
AcDbLayerTableRecord
  2
A242_記号
 70
     0
 62
     7
  6
Continuous
370
     9
390
CD60
  0
LAYER
  5
4C9B
330
CD77
100
AcDbSymbolTableRecord
100
AcDbLayerTableRecord
  2
A243_建具記号
 70
     0
 62
     7
  6
Continuous
370
     9
390
CD60
  0
LAYER
  5
4C9D
330
CD77
100
AcDbSymbolTableRecord
100
AcDbLayerTableRecord
  2
A245_雲マーク
 70
     0
 62
     7
  6
Continuous
370
    40
390
CD60
  0
LAYER
  5
4C9F
330
CD77
100
AcDbSymbolTableRecord
100
AcDbLayerTableRecord
  2
A311_吹抜線
 70
     0
 62
     7
  6
DGN Style 4
370
     9
390
CD60
  0
LAYER
  5
4CA1
330
CD77
100
AcDbSymbolTableRecord
100
AcDbLayerTableRecord
  2
A321_ハッチング
 70
     0
 62
     7
  6
Continuous
370
     9
390
CD60
  0
LAYER
  5
4CA3
330
CD77
100
AcDbSymbolTableRecord
100
AcDbLayerTableRecord
  2
A342_屋根・庇
 70
     0
 62
     7
  6
Continuous
370
     9
390
CD60
  0
LAYER
  5
4CA5
330
CD77
100
AcDbSymbolTableRecord
100
AcDbLayerTableRecord
  2
A343_機械基礎
 70
     0
 62
     7
  6
Continuous
370
     9
390
CD60
  0
LAYER
  5
4CA7
330
CD77
100
AcDbSymbolTableRecord
100
AcDbLayerTableRecord
  2
A361_ＯＦＦ
 70
     0
 62
     7
  6
Continuous
370
     9
390
CD60
  0
LAYER
  5
4CA9
330
CD77
100
AcDbSymbolTableRecord
100
AcDbLayerTableRecord
  2
A411_柱：ＲＣ
 70
     0
 62
     7
  6
DGN Style 2
370
     9
390
CD60
  0
LAYER
  5
4CAB
330
CD77
100
AcDbSymbolTableRecord
100
AcDbLayerTableRecord
  2
A412_柱：Ｓ
 70
     0
 62
     7
  6
Continuous
370
    30
390
CD60
  0
LAYER
  5
4CAD
330
CD77
100
AcDbSymbolTableRecord
100
AcDbLayerTableRecord
  2
A421_壁：ＲＣ
 70
     0
 62
     7
  6
Continuous
370
    30
390
CD60
  0
LAYER
  5
4CAF
330
CD77
100
AcDbSymbolTableRecord
100
AcDbLayerTableRecord
  2
A422_壁：ＡＬＣ
 70
     0
 62
     7
  6
Continuous
370
    13
390
CD60
  0
LAYER
  5
4CB1
330
CD77
100
AcDbSymbolTableRecord
100
AcDbLayerTableRecord
  2
A431_梁
 70
     0
 62
     7
  6
Continuous
370
     9
390
CD60
  0
LAYER
  5
4CB3
330
CD77
100
AcDbSymbolTableRecord
100
AcDbLayerTableRecord
  2
A441_壁：ＬＧＳ
 70
     0
 62
     7
  6
Continuous
370
    13
390
CD60
  0
LAYER
  5
4CB5
330
CD77
100
AcDbSymbolTableRecord
100
AcDbLayerTableRecord
  2
A442_壁：木軸
 70
     0
 62
     7
  6
Continuous
370
    13
390
CD60
  0
LAYER
  5
4CB7
330
CD77
100
AcDbSymbolTableRecord
100
AcDbLayerTableRecord
  2
A444_壁：下地鉄骨、間柱
 70
     0
 62
     7
  6
Continuous
370
     9
390
CD60
  0
LAYER
  5
4CB9
330
CD77
100
AcDbSymbolTableRecord
100
AcDbLayerTableRecord
  2
A521_壁：仕上
 70
     0
 62
     7
  6
Continuous
370
    30
390
CD60
  0
LAYER
  5
4CBB
330
CD77
100
AcDbSymbolTableRecord
100
AcDbLayerTableRecord
  2
R003_防火区画
 70
     0
 62
     7
  6
Continuous
370
    70
390
CD60
  0
LAYER
  5
4CBD
330
CD77
100
AcDbSymbolTableRecord
100
AcDbLayerTableRecord
  2
R004_防煙区画
 70
     0
 62
     7
  6
Continuous
370
    70
390
CD60
  0
LAYER
  5
4CBF
330
CD77
100
AcDbSymbolTableRecord
100
AcDbLayerTableRecord
  2
A522_壁：仕上
 70
     0
 62
     7
  6
Continuous
370
    30
390
CD60
  0
LAYER
  5
4CC1
330
CD77
100
AcDbSymbolTableRecord
100
AcDbLayerTableRecord
  2
A523_壁：仕上
 70
     0
 62
     7
  6
Continuous
370
    30
390
CD60
  0
LAYER
  5
4CC3
330
CD77
100
AcDbSymbolTableRecord
100
AcDbLayerTableRecord
  2
A524_壁：仕上
 70
     0
 62
     7
  6
Continuous
370
    30
390
CD60
  0
LAYER
  5
4CC5
330
CD77
100
AcDbSymbolTableRecord
100
AcDbLayerTableRecord
  2
A525_壁：仕上
 70
     0
 62
     7
  6
Continuous
370
    30
390
CD60
  0
LAYER
  5
4CC7
330
CD77
100
AcDbSymbolTableRecord
100
AcDbLayerTableRecord
  2
A531_パーティション
 70
     0
 62
     7
  6
Continuous
370
    13
390
CD60
  0
LAYER
  5
4CC9
330
CD77
100
AcDbSymbolTableRecord
100
AcDbLayerTableRecord
  2
A551_階段
 70
     0
 62
     7
  6
Continuous
370
     9
390
CD60
  0
LAYER
  5
4CCB
330
CD77
100
AcDbSymbolTableRecord
100
AcDbLayerTableRecord
  2
A561_耐火被覆
 70
     0
 62
     7
  6
Continuous
370
     9
390
CD60
  0
LAYER
  5
4CCD
330
CD77
100
AcDbSymbolTableRecord
100
AcDbLayerTableRecord
  2
A562_断熱材
 70
     0
 62
     7
  6
Continuous
370
     9
390
CD60
  0
LAYER
  5
4CCF
330
CD77
100
AcDbSymbolTableRecord
100
AcDbLayerTableRecord
  2
A563_手摺
 70
     0
 62
     7
  6
Continuous
370
     9
390
CD60
  0
LAYER
  5
4CD1
330
CD77
100
AcDbSymbolTableRecord
100
AcDbLayerTableRecord
  2
A564_目地
 70
     0
 62
     7
  6
Continuous
370
     9
390
CD60
  0
LAYER
  5
4CD3
330
CD77
100
AcDbSymbolTableRecord
100
AcDbLayerTableRecord
  2
A565_側溝
 70
     0
 62
     7
  6
Continuous
370
     9
390
CD60
  0
LAYER
  5
4CD5
330
CD77
100
AcDbSymbolTableRecord
100
AcDbLayerTableRecord
  2
A566_樋
 70
     0
 62
     7
  6
Continuous
370
     9
390
CD60
  0
LAYER
  5
4CD7
330
CD77
100
AcDbSymbolTableRecord
100
AcDbLayerTableRecord
  2
A568_EXP．J
 70
     0
 62
     7
  6
Continuous
370
     9
390
CD60
  0
LAYER
  5
4CD9
330
CD77
100
AcDbSymbolTableRecord
100
AcDbLayerTableRecord
  2
A569_雑金物
 70
     0
 62
     7
  6
Continuous
370
     9
390
CD60
  0
LAYER
  5
4CDB
330
CD77
100
AcDbSymbolTableRecord
100
AcDbLayerTableRecord
  2
A611_窓
 70
     0
 62
     7
  6
Continuous
370
     9
390
CD60
  0
LAYER
  5
4CDD
330
CD77
100
AcDbSymbolTableRecord
100
AcDbLayerTableRecord
  2
A621_扉枠
 70
     0
 62
     7
  6
Continuous
370
    30
390
CD60
  0
LAYER
  5
4CDF
330
CD77
100
AcDbSymbolTableRecord
100
AcDbLayerTableRecord
  2
A624_沓摺
 70
     0
 62
     7
  6
Continuous
370
     9
390
CD60
  0
LAYER
  5
4CE1
330
CD77
100
AcDbSymbolTableRecord
100
AcDbLayerTableRecord
  2
A622_扉
 70
     0
 62
     7
  6
Continuous
370
    13
390
CD60
  0
LAYER
  5
4CE3
330
CD77
100
AcDbSymbolTableRecord
100
AcDbLayerTableRecord
  2
A725_等高線
 70
     0
 62
     7
  6
Continuous
370
     9
390
CD60
  0
LAYER
  5
4CE5
330
CD77
100
AcDbSymbolTableRecord
100
AcDbLayerTableRecord
  2
A731_門･塀
 70
     0
 62
     7
  6
Continuous
370
     9
390
CD60
  0
LAYER
  5
4CE7
330
CD77
100
AcDbSymbolTableRecord
100
AcDbLayerTableRecord
  2
A741_植栽
 70
     0
 62
     7
  6
Continuous
370
     9
390
CD60
  0
LAYER
  5
4CE9
330
CD77
100
AcDbSymbolTableRecord
100
AcDbLayerTableRecord
  2
A811_造作家具
 70
     0
 62
     7
  6
Continuous
370
     9
390
CD60
  0
LAYER
  5
4CEB
330
CD77
100
AcDbSymbolTableRecord
100
AcDbLayerTableRecord
  2
A822_別途：家具
 70
     0
 62
     7
  6
DGN Style 1
370
     9
390
CD60
  0
LAYER
  5
4CED
330
CD77
100
AcDbSymbolTableRecord
100
AcDbLayerTableRecord
  2
A831_衛生機器
 70
     0
 62
     7
  6
Continuous
370
     9
390
CD60
  0
LAYER
  5
4CEF
330
CD77
100
AcDbSymbolTableRecord
100
AcDbLayerTableRecord
  2
A841_ＥＬＶ・ＥＳＣ
 70
     0
 62
     7
  6
Continuous
370
     9
390
CD60
  0
LAYER
  5
4CF1
330
CD77
100
AcDbSymbolTableRecord
100
AcDbLayerTableRecord
  2
A851_電気設備_実形
 70
     0
 62
     7
  6
Continuous
370
     9
390
CD60
  0
LAYER
  5
4CF3
330
CD77
100
AcDbSymbolTableRecord
100
AcDbLayerTableRecord
  2
A855_空調設備_実形
 70
     0
 62
    67
  6
Continuous
370
     9
390
CD60
  0
LAYER
  5
4CF5
330
CD77
100
AcDbSymbolTableRecord
100
AcDbLayerTableRecord
  2
R001_申請用文字
 70
     0
 62
     7
  6
Continuous
370
     9
390
CD60
  0
LAYER
  5
4CF7
330
CD77
100
AcDbSymbolTableRecord
100
AcDbLayerTableRecord
  2
R002_1F延焼の恐れのある部分
 70
     0
 62
     7
  6
DGN Style 4
370
     9
390
CD60
  0
LAYER
  5
4CF9
330
CD77
100
AcDbSymbolTableRecord
100
AcDbLayerTableRecord
  2
R012_2F延焼の恐れのある部分
 70
     0
 62
     7
  6
DGN Style 4
370
     9
390
CD60
  0
LAYER
  5
4CFB
330
CD77
100
AcDbSymbolTableRecord
100
AcDbLayerTableRecord
  2
A362_ON
 70
     0
 62
     7
  6
Continuous
370
     9
390
CD60
  0
LAYER
  5
4CFD
330
CD77
100
AcDbSymbolTableRecord
100
AcDbLayerTableRecord
  2
A425_石・タイル
 70
     0
 62
     7
  6
Continuous
370
    13
390
CD60
  0
LAYER
  5
4CFF
330
CD77
100
AcDbSymbolTableRecord
100
AcDbLayerTableRecord
  2
A570_樹脂類
 70
     0
 62
     7
  6
Continuous
370
     9
390
CD60
  0
LAYER
  5
4D01
330
CD77
100
AcDbSymbolTableRecord
100
AcDbLayerTableRecord
  2
A571_シーリング
 70
     0
 62
     7
  6
Continuous
370
     9
390
CD60
  0
LAYER
  5
4D03
330
CD77
100
AcDbSymbolTableRecord
100
AcDbLayerTableRecord
  2
A860_車両
 70
     0
 62
     7
  6
DGN Style 2
370
     9
390
CD60
  0
LAYER
  5
4D05
330
CD77
100
AcDbSymbolTableRecord
100
AcDbLayerTableRecord
  2
A331_見上げ線
 70
     0
 62
     7
  6
DGN Style 2
370
     9
390
CD60
  0
LAYER
  5
4D07
330
CD77
100
AcDbSymbolTableRecord
100
AcDbLayerTableRecord
  2
A613_カーテンボックス
 70
     0
 62
     7
  6
Continuous
370
     9
390
CD60
  0
LAYER
  5
4D09
330
CD77
100
AcDbSymbolTableRecord
100
AcDbLayerTableRecord
  2
A346_見え掛り線
 70
     0
 62
     7
  6
Continuous
370
     9
390
CD60
  0
LAYER
  5
4D0B
330
CD77
100
AcDbSymbolTableRecord
100
AcDbLayerTableRecord
  2
A430_地業
 70
     0
 62
    35
  6
Continuous
370
     9
390
CD60
  0
LAYER
  5
4D0D
330
CD77
100
AcDbSymbolTableRecord
100
AcDbLayerTableRecord
  2
A711_境界線
 70
     0
 62
     7
  6
Continuous
370
     9
390
CD60
  0
LAYER
  5
4D0F
330
CD77
100
AcDbSymbolTableRecord
100
AcDbLayerTableRecord
  2
A735_建物の外周線
 70
     0
 62
     7
  6
Continuous
370
    30
390
CD60
  0
LAYER
  5
4D11
330
CD77
100
AcDbSymbolTableRecord
100
AcDbLayerTableRecord
  2
A736_既存建物
 70
     0
 62
     4
  6
DGN Style 3
370
     9
390
CD60
  0
LAYER
  5
4D13
330
CD77
100
AcDbSymbolTableRecord
100
AcDbLayerTableRecord
  2
A722_周辺道路
 70
     0
 62
     8
  6
Continuous
370
     9
390
CD60
  0
LAYER
  5
4D15
330
CD77
100
AcDbSymbolTableRecord
100
AcDbLayerTableRecord
  2
A723_周辺建物
 70
     0
 62
   201
  6
Continuous
370
     9
390
CD60
  0
LAYER
  5
4D17
330
CD77
100
AcDbSymbolTableRecord
100
AcDbLayerTableRecord
  2
A345_既存部分
 70
     0
 62
     8
  6
DGN Style 2
370
     9
390
CD60
  0
LAYER
  5
4D19
330
CD77
100
AcDbSymbolTableRecord
100
AcDbLayerTableRecord
  2
A312_面積算定線
 70
     0
 62
     7
  6
Continuous
370
    40
390
CD60
  0
LAYER
  5
4D1B
330
CD77
100
AcDbSymbolTableRecord
100
AcDbLayerTableRecord
  2
A853_衛生設備_実形
 70
     0
 62
     7
  6
Continuous
370
     9
390
CD60
  0
LAYER
  5
4D1E
330
CD77
100
AcDbSymbolTableRecord
100
AcDbLayerTableRecord
  2
A721_道路中心線
 70
     0
 62
     7
  6
Continuous
370
     9
390
CD60
  0
LAYER
  5
4D20
330
CD77
100
AcDbSymbolTableRecord
100
AcDbLayerTableRecord
  2
A713_斜線制限
 70
     0
 62
     7
  6
Continuous
370
     9
390
CD60
  0
LAYER
  5
4D22
330
CD77
100
AcDbSymbolTableRecord
100
AcDbLayerTableRecord
  2
A733_ストリートファニチャ
 70
     0
 62
     7
  6
Continuous
370
     9
390
CD60
  0
LAYER
  5
4D24
330
CD77
100
AcDbSymbolTableRecord
100
AcDbLayerTableRecord
  2
A732_ペイブメント
 70
     0
 62
     7
  6
Continuous
370
     9
390
CD60
  0
ENDTAB
  0
TABLE
  2
STYLE
  5
CD7A
330
0
100
AcDbSymbolTable
 70
     3
  0
STYLE
  5
CD7B
330
CD7A
100
AcDbSymbolTableRecord
100
AcDbTextStyleTableRecord
  2
Standard
 70
     0
 40
0.0
 41
1.0
 50
0.0
 71
     0
 42
275.0
  3
txt
  4

  0
STYLE
  5
CDBF
330
CD7A
100
AcDbSymbolTableRecord
100
AcDbTextStyleTableRecord
  2
Style-HGSｺﾞｼｯｸM
 70
     0
 40
0.0
 41
1.0
 50
0.0
 71
     0
 42
275.0
  3

  4

1001
ACAD
1000
HGSGothicM
1071
    32823
  0
STYLE
  5
CDC1
330
CD7A
100
AcDbSymbolTableRecord
100
AcDbTextStyleTableRecord
  2
Style-HG明朝B
 70
     0
 40
0.0
 41
1.0
 50
0.0
 71
     0
 42
275.0
  3

  4

1001
ACAD
1000
HGMinchoB
1071
    32790
  0
ENDTAB
  0
TABLE
  2
VIEW
  5
CD80
330
0
100
AcDbSymbolTable
 70
     0
  0
ENDTAB
  0
TABLE
  2
UCS
  5
CD81
330
0
100
AcDbSymbolTable
 70
     0
  0
ENDTAB
  0
TABLE
  2
APPID
  5
CD86
330
0
100
AcDbSymbolTable
 70
     2
  0
APPID
  5
CD87
330
CD86
100
AcDbSymbolTableRecord
100
AcDbRegAppTableRecord
  2
ACAD
 70
     0
  0
APPID
  5
CD70
330
CD86
100
AcDbSymbolTableRecord
100
AcDbRegAppTableRecord
  2
ACAD_PSEXT
 70
     0
  0
ENDTAB
  0
TABLE
  2
DIMSTYLE
  5
CD88
330
0
100
AcDbSymbolTable
 70
     1
100
AcDbDimStyleTable
 71
     1
340
CD89
  0
DIMSTYLE
105
CD89
330
CD88
100
AcDbSymbolTableRecord
100
AcDbDimStyleTableRecord
  2
ISO-25
 70
     0
 41
2.5
 42
0.625
 43
3.75
 44
1.25
 73
     0
 74
     0
 77
     1
 78
     8
140
2.5
141
2.5
143
0.03937
147
0.625
171
     3
172
     1
271
     2
272
     2
274
     3
278
    44
283
     0
284
     8
340
CD7B
  0
ENDTAB
  0
TABLE
  2
BLOCK_RECORD
  5
CD5C
330
0
100
AcDbSymbolTable
 70
     0
  0
BLOCK_RECORD
  5
CD5D
330
CD5C
100
AcDbSymbolTableRecord
100
AcDbBlockTableRecord
  2
*Model_Space
340
CD6E
  0
BLOCK_RECORD
  5
CD71
330
CD5C
100
AcDbSymbolTableRecord
100
AcDbBlockTableRecord
  2
*Paper_Space
340
CD74
  0
ENDTAB
  0
ENDSEC
  0
SECTION
  2
BLOCKS
  0
BLOCK
  5
CD5E
330
CD5D
100
AcDbEntity
  8
0
100
AcDbBlockBegin
  2
*Model_Space
 70
     0
 10
0.0
 20
0.0
 30
0.0
  3
*Model_Space
  1

  0
ENDBLK
  5
CD6D
330
CD5D
100
AcDbEntity
  8
0
100
AcDbBlockEnd
  0
BLOCK
  5
CD72
330
CD71
100
AcDbEntity
 67
     1
  8
0
100
AcDbBlockBegin
  2
*Paper_Space
 70
     0
 10
0.0
 20
0.0
 30
0.0
  3
*Paper_Space
  1

  0
ENDBLK
  5
CD73
330
CD71
100
AcDbEntity
 67
     1
  8
0
100
AcDbBlockEnd
  0
ENDSEC
  0
SECTION
  2
ENTITIES
  0
TEXT
  5
CB07
330
CD5D
100
AcDbEntity
  8
1階座席
  6
Continuous
 62
     7
370
     9
100
AcDbText
 10
182833.982057
 20
79309.94755
 30
0.0
 40
225.0
  1
鏡
  7
Style-HGSｺﾞｼｯｸM
 11
182833.982057
 21
79534.94755
 31
0.0
100
AcDbText
 73
     3
  0
TEXT
  5
CB08
330
CD5D
100
AcDbEntity
  8
1階座席
  6
Continuous
 62
     7
370
     9
100
AcDbText
 10
190664.214207
 20
79728.825137
 30
0.0
 40
225.0
  1
鏡
  7
Style-HGSｺﾞｼｯｸM
 11
190664.214207
 21
79953.825137
 31
0.0
100
AcDbText
 73
     3
  0
TEXT
  5
CB09
330
CD5D
100
AcDbEntity
  8
1階座席
  6
Continuous
 62
     7
370
     9
100
AcDbText
 10
190648.642503
 20
80836.717426
 30
0.0
 40
225.0
  1
鏡
  7
Style-HGSｺﾞｼｯｸM
 11
190648.642503
 21
81061.717426
 31
0.0
100
AcDbText
 73
     3
  0
TEXT
  5
CB0A
330
CD5D
100
AcDbEntity
  8
1階座席
  6
Continuous
 62
     7
370
     9
100
AcDbText
 10
190655.374893
 20
81650.736534
 30
0.0
 40
225.0
  1
鏡
  7
Style-HGSｺﾞｼｯｸM
 11
190655.374893
 21
81875.736534
 31
0.0
100
AcDbText
 73
     3
  0
TEXT
  5
CB0B
330
CD5D
100
AcDbEntity
  8
1階座席
  6
Continuous
 62
     7
370
     9
100
AcDbText
 10
190673.242802
 20
83029.88197
 30
0.0
 40
225.0
  1
鏡
  7
Style-HGSｺﾞｼｯｸM
 11
190673.242802
 21
83254.88197
 31
0.0
100
AcDbText
 73
     3
  0
TEXT
  5
CB0C
330
CD5D
100
AcDbEntity
  8
1階座席
  6
Continuous
 62
     7
370
     9
100
AcDbText
 10
190543.221863
 20
79612.887501
 30
0.0
 40
225.0
  1
化粧台カウンター
 50
90.0
  7
Style-HGSｺﾞｼｯｸM
 11
190318.221863
 21
79612.887501
 31
0.0
100
AcDbText
 73
     3
  0
TEXT
  5
CB0D
330
CD5D
100
AcDbEntity
  8
1階座席
  6
Continuous
 62
     7
370
     9
100
AcDbText
 10
191048.525368
 20
71027.765843
 30
0.0
 40
325.0
  1
Ｂ1
  7
Style-HGSｺﾞｼｯｸM
 11
191048.525368
 21
71352.765843
 31
0.0
100
AcDbText
 73
     3
  0
TEXT
  5
CB0E
330
CD5D
100
AcDbEntity
  8
1階座席
  6
Continuous
 62
     7
370
     9
100
AcDbText
 10
192238.409504
 20
71585.178639
 30
0.0
 40
275.0
  1
SC=1/100(A4)
 41
1.090909
  7
Style-HGSｺﾞｼｯｸM
 11
192238.409504
 21
71860.178639
 31
0.0
100
AcDbText
 73
     3
  0
LWPOLYLINE
  5
CB0F
330
CD5D
100
AcDbEntity
  8
3-0通芯
  6
Continuous
 62
     7
370
    13
100
AcDbPolyline
 90
        3
 70
   128
 43
0.0
 10
193659.080037
 20
79532.702699
 10
193459.080037
 20
79232.702699
 10
193259.080037
 20
79532.702699
  0
LWPOLYLINE
  5
CB10
330
CD5D
100
AcDbEntity
  8
3-0通芯
  6
Continuous
 62
     7
370
    13
100
AcDbPolyline
 90
        3
 70
   128
 43
0.0
 10
190739.080037
 20
86242.702699
 10
191039.080037
 20
86042.702699
 10
190739.080037
 20
85842.702699
  0
LINE
  5
CB11
330
CD5D
100
AcDbEntity
  8
3-0通芯
  6
Continuous
 62
     7
370
    13
100
AcDbLine
 10
191039.080037
 20
86042.702699
 30
0.0
 11
186289.580037
 21
86042.702699
 31
0.0
  0
LWPOLYLINE
  5
CB12
330
CD5D
100
AcDbEntity
  8
3-0通芯
  6
Continuous
 62
     7
370
    13
100
AcDbPolyline
 90
        3
 70
   128
 43
0.0
 10
180840.080037
 20
86242.702699
 10
180540.080037
 20
86042.702699
 10
180840.080037
 20
85842.702699
  0
LWPOLYLINE
  5
CB13
330
CD5D
100
AcDbEntity
  8
3-0通芯
  6
Continuous
 62
     7
370
    13
100
AcDbPolyline
 90
        3
 70
   128
 43
0.0
 10
193659.080037
 20
83362.702699
 10
193459.080037
 20
83662.702699
 10
193259.080037
 20
83362.702699
  0
LINE
  5
CB14
330
CD5D
100
AcDbEntity
  8
3-0通芯
  6
Continuous
 62
     7
370
    13
100
AcDbLine
 10
193459.080037
 20
83662.702699
 30
0.0
 11
193459.080037
 21
81947.702699
 31
0.0
  0
LINE
  5
CB15
330
CD5D
100
AcDbEntity
  8
3-0通芯
  6
Continuous
 62
     7
370
    13
100
AcDbLine
 10
193459.080037
 20
80947.702699
 30
0.0
 11
193459.080037
 21
79232.702699
 31
0.0
  0
LINE
  5
CB16
330
CD5D
100
AcDbEntity
  8
3-0通芯
  6
Continuous
 62
     7
370
    13
100
AcDbLine
 10
185289.580037
 20
86042.702699
 30
0.0
 11
180540.080037
 21
86042.702699
 31
0.0
  0
TEXT
  5
CB17
330
CD5D
100
AcDbEntity
  8
1階座席
  6
Continuous
 62
     7
370
    13
100
AcDbText
 10
193236.513269
 20
81346.633712
 30
0.0
 40
225.0
  1
4.4
  7
Style-HGSｺﾞｼｯｸM
 11
193236.513269
 21
81571.633712
 31
0.0
100
AcDbText
 73
     3
  0
TEXT
  5
CB18
330
CD5D
100
AcDbEntity
  8
1階座席
  6
Continuous
 62
     7
370
    13
100
AcDbText
 10
185457.27612
 20
85933.943993
 30
0.0
 40
225.0
  1
10.4
  7
Style-HGSｺﾞｼｯｸM
 11
185457.27612
 21
86158.943993
 31
0.0
100
AcDbText
 73
     3
  0
TEXT
  5
CB19
330
CD5D
100
AcDbEntity
  8
1階座席
  6
Continuous
 62
     7
370
     9
100
AcDbText
 10
185038.108312
 20
85167.048787
 30
0.0
 40
225.0
  1
廊下Ｃ
  7
Style-HGSｺﾞｼｯｸM
 11
185038.108312
 21
85392.048787
 31
0.0
100
AcDbText
 73
     3
  0
TEXT
  5
CB1A
330
CD5D
100
AcDbEntity
  8
1階座席
  6
Continuous
 62
     7
370
     9
100
AcDbText
 10
192440.462414
 20
70923.737684
 30
0.0
 40
325.0
  1
47
  7
Style-HGSｺﾞｼｯｸM
 11
192440.462414
 21
71248.737684
 31
0.0
100
AcDbText
 73
     3
  0
TEXT
  5
CB1B
330
CD5D
100
AcDbEntity
  8
1階座席
  6
Continuous
 62
     7
370
     9
100
AcDbText
 10
183310.101913
 20
71281.014635
 30
0.0
 40
375.0
  1
第 ５ 楽屋
 41
0.8
  7
Style-HGSｺﾞｼｯｸM
 11
183310.101913
 21
71656.014635
 31
0.0
100
AcDbText
 73
     3
  0
LWPOLYLINE
  5
CB1C
330
CD5D
100
AcDbEntity
  8
枠
  6
Continuous
 62
     7
370
     9
100
AcDbPolyline
 90
        5
 70
   129
 43
0.0
 10
171873.137725
 20
70369.154865
 10
171873.137725
 20
91369.154865
 10
201573.137725
 20
91369.154865
 10
201573.137725
 20
70369.154865
 10
171873.137725
 20
70369.154865
  0
LWPOLYLINE
  5
CB1D
330
CD5D
100
AcDbEntity
  8
2階座席
  6
Continuous
 62
     7
370
    30
100
AcDbPolyline
 90
        5
 70
   129
 43
0.0
 10
172423.137725
 20
70919.154865
 10
172423.137725
 20
90819.154865
 10
201023.137725
 20
90819.154865
 10
201023.137725
 20
70919.154865
 10
172423.137725
 20
70919.154865
  0
LINE
  5
CB1E
330
CD5D
100
AcDbEntity
  8
2階座席
  6
Continuous
 62
     7
370
    30
100
AcDbLine
 10
201023.137725
 20
71919.154865
 30
0.0
 11
172423.137725
 21
71919.154865
 31
0.0
  0
LINE
  5
CB1F
330
CD5D
100
AcDbEntity
  8
2階座席
  6
Continuous
 62
     7
370
    30
100
AcDbLine
 10
195023.137725
 20
71919.154865
 30
0.0
 11
195023.137725
 21
70919.154865
 31
0.0
  0
MTEXT
  5
CB22
330
CD5D
100
AcDbEntity
  8
1階座席
  6
Continuous
 62
     7
370
     9
100
AcDbMText
 10
173238.843251
 20
71652.4348
 30
0.0
 40
375.0
 41
0.0
 71
     1
 72
     1
  1
\H1x;\W0.866667;\T1.325;名古屋市公会堂
  7
Style-HG明朝B
 73
     2
 44
0.6
  0
LINE
  5
CB23
330
CD5D
100
AcDbEntity
  8
2階座席
  6
Continuous
 62
     7
370
    30
100
AcDbLine
 10
195023.137725
 20
71919.154865
 30
0.0
 11
195023.137725
 21
70919.154865
 31
0.0
  0
LINE
  5
CB24
330
CD5D
100
AcDbEntity
  8
2階座席
  6
Continuous
 62
     7
370
    30
100
AcDbLine
 10
192023.137725
 20
71919.154865
 30
0.0
 11
192023.137725
 21
70919.154865
 31
0.0
  0
LINE
  5
CB25
330
CD5D
100
AcDbEntity
  8
2階座席
  6
Continuous
 62
     7
370
    13
100
AcDbLine
 10
192023.137725
 20
71507.721385
 30
0.0
 11
195023.137725
 21
71507.721385
 31
0.0
  0
LINE
  5
CB26
330
CD5D
100
AcDbEntity
  8
2階座席
  6
Continuous
 62
     7
370
    13
100
AcDbLine
 10
193523.137725
 20
71507.721385
 30
0.0
 11
193523.137725
 21
70919.154865
 31
0.0
  0
LINE
  5
CB27
330
CD5D
100
AcDbEntity
  8
2階座席
  6
DGN Style 2
 62
     7
370
     9
100
AcDbLine
 10
192023.137725
 20
71265.040893
 30
0.0
 11
193523.137725
 21
71265.040893
 31
0.0
  0
TEXT
  5
CB28
330
CD5D
100
AcDbEntity
  8
1階座席
  6
Continuous
 62
     7
370
     9
100
AcDbText
 10
193200.437723
 20
70975.443964
 30
0.0
 40
200.0
  1
㎡
  7
Style-HGSｺﾞｼｯｸM
 11
193200.437723
 21
71175.443964
 31
0.0
100
AcDbText
 73
     3
  0
LINE
  5
CB29
330
CD5D
100
AcDbEntity
  8
2階座席
  6
Continuous
 62
     7
370
    30
100
AcDbLine
 10
191023.137725
 20
71919.154865
 30
0.0
 11
191023.137725
 21
70919.154865
 31
0.0
  0
LINE
  5
CB2A
330
CD5D
100
AcDbEntity
  8
2階座席
  6
DGN Style 2
 62
     7
370
     9
100
AcDbLine
 10
192023.137725
 20
71507.721385
 30
0.0
 11
191023.137725
 21
71507.721385
 31
0.0
  0
TEXT
  5
CB2B
330
CD5D
100
AcDbEntity
  8
1階座席
  6
Continuous
 62
     7
370
     9
100
AcDbText
 10
191663.248383
 20
71128.288072
 30
0.0
 40
175.0
  1
階
 41
1.142857
  7
Style-HGSｺﾞｼｯｸM
 11
191663.248383
 21
71303.288072
 31
0.0
100
AcDbText
 73
     3
  0
LINE
  5
CB2C
330
CD5D
100
AcDbEntity
  8
2階座席
  6
Continuous
 62
     7
370
    30
100
AcDbLine
 10
198523.137725
 20
72864.202145
 30
0.0
 11
198523.137725
 21
72614.202145
 31
0.0
  0
LINE
  5
CB2D
330
CD5D
100
AcDbEntity
  8
2階座席
  6
Continuous
 62
     7
370
    30
100
AcDbLine
 10
188523.137725
 20
72864.202145
 30
0.0
 11
188523.137725
 21
72614.202145
 31
0.0
  0
LINE
  5
CB2E
330
CD5D
100
AcDbEntity
  8
2階座席
  6
Continuous
 62
     7
370
    13
100
AcDbLine
 10
189523.137725
 20
72864.202145
 30
0.0
 11
189523.137725
 21
72614.202145
 31
0.0
  0
LINE
  5
CB2F
330
CD5D
100
AcDbEntity
  8
2階座席
  6
Continuous
 62
     7
370
    13
100
AcDbLine
 10
190523.137725
 20
72864.202145
 30
0.0
 11
190523.137725
 21
72614.202145
 31
0.0
  0
LINE
  5
CB30
330
CD5D
100
AcDbEntity
  8
2階座席
  6
Continuous
 62
     7
370
    13
100
AcDbLine
 10
191523.137725
 20
72864.202145
 30
0.0
 11
191523.137725
 21
72614.202145
 31
0.0
  0
LINE
  5
CB31
330
CD5D
100
AcDbEntity
  8
2階座席
  6
Continuous
 62
     7
370
    13
100
AcDbLine
 10
192523.137725
 20
72864.202145
 30
0.0
 11
192523.137725
 21
72614.202145
 31
0.0
  0
LINE
  5
CB32
330
CD5D
100
AcDbEntity
  8
2階座席
  6
Continuous
 62
     7
370
    30
100
AcDbLine
 10
193523.137725
 20
72864.202145
 30
0.0
 11
193523.137725
 21
72614.202145
 31
0.0
  0
LINE
  5
CB33
330
CD5D
100
AcDbEntity
  8
2階座席
  6
Continuous
 62
     7
370
    13
100
AcDbLine
 10
188523.137725
 20
72614.202145
 30
0.0
 11
198523.137725
 21
72614.202145
 31
0.0
  0
LINE
  5
CB34
330
CD5D
100
AcDbEntity
  8
2階座席
  6
Continuous
 62
     7
370
    30
100
AcDbLine
 10
199523.137725
 20
73419.154865
 30
0.0
 11
199523.137725
 21
71969.154865
 31
0.0
  0
LINE
  5
CB35
330
CD5D
100
AcDbEntity
  8
2階座席
  6
Continuous
 62
     7
370
    30
100
AcDbLine
 10
199523.137725
 20
73419.154865
 30
0.0
 11
200973.137725
 21
73419.154865
 31
0.0
  0
CIRCLE
  5
CB36
330
CD5D
100
AcDbEntity
  8
2階座席
  6
Continuous
 62
     7
370
    30
100
AcDbCircle
 10
200273.137725
 20
72572.78983
 30
0.0
 40
443.7228623379668
  0
LWPOLYLINE
  5
CB37
330
CD5D
100
AcDbEntity
  8
2階座席
  6
Continuous
 62
     7
370
    30
100
AcDbPolyline
 90
        3
 70
   128
 43
0.0
 10
200047.512725
 20
72190.712171
 10
200273.137725
 20
73016.512692
 10
200498.762725
 20
72190.712171
  0
LWPOLYLINE
  5
CB38
330
CD5D
100
AcDbEntity
  8
2階座席
  6
Continuous
 62
     7
370
    30
100
AcDbPolyline
 90
        3
 70
   128
 43
0.0
 10
200047.512725
 20
72190.712171
 10
200273.137725
 20
72235.837171
 10
200498.762725
 20
72190.712171
  0
TEXT
  5
CB39
330
CD5D
100
AcDbEntity
  8
1階座席
  6
Continuous
 62
     7
370
     9
100
AcDbText
 10
200167.135325
 20
73070.086095
 30
0.0
 40
250.0
  1
N
  7
Style-HGSｺﾞｼｯｸM
 11
200167.135325
 21
73320.086095
 31
0.0
100
AcDbText
 73
     3
  0
LINE
  5
CB3A
330
CD5D
100
AcDbEntity
  8
2階座席
  6
Continuous
 62
     7
370
    30
100
AcDbLine
 10
200973.137725
 20
73419.154865
 30
0.0
 11
200973.137725
 21
71969.154865
 31
0.0
  0
LINE
  5
CB3B
330
CD5D
100
AcDbEntity
  8
2階座席
  6
Continuous
 62
     7
370
    30
100
AcDbLine
 10
199523.137725
 20
71969.154865
 30
0.0
 11
200973.137725
 21
71969.154865
 31
0.0
  0
TEXT
  5
CB3C
330
CD5D
100
AcDbEntity
  8
1階座席
  6
Continuous
 62
     7
370
     9
100
AcDbText
 10
191129.576794
 20
71605.041405
 30
0.0
 40
175.0
  1
施設階
 41
1.142857
  7
Style-HGSｺﾞｼｯｸM
 11
191129.576794
 21
71780.041405
 31
0.0
100
AcDbText
 73
     3
  0
TEXT
  5
CB3D
330
CD5D
100
AcDbEntity
  8
1階座席
  6
Continuous
 62
     7
370
    30
100
AcDbText
 10
188452.071791
 20
72924.604183
 30
0.0
 40
175.0
  1
0
 41
1.142857
  7
Style-HGSｺﾞｼｯｸM
 11
188452.071791
 21
73099.604183
 31
0.0
100
AcDbText
 73
     3
  0
TEXT
  5
CB3E
330
CD5D
100
AcDbEntity
  8
1階座席
  6
Continuous
 62
     7
370
    30
100
AcDbText
 10
189444.352879
 20
72924.604183
 30
0.0
 40
175.0
  1
1
 41
1.142857
  7
Style-HGSｺﾞｼｯｸM
 11
189444.352879
 21
73099.604183
 31
0.0
100
AcDbText
 73
     3
  0
TEXT
  5
CB3F
330
CD5D
100
AcDbEntity
  8
1階座席
  6
Continuous
 62
     7
370
    30
100
AcDbText
 10
190458.013361
 20
72924.604183
 30
0.0
 40
175.0
  1
2
 41
1.142857
  7
Style-HGSｺﾞｼｯｸM
 11
190458.013361
 21
73099.604183
 31
0.0
100
AcDbText
 73
     3
  0
TEXT
  5
CB40
330
CD5D
100
AcDbEntity
  8
1階座席
  6
Continuous
 62
     7
370
    30
100
AcDbText
 10
191453.944589
 20
72924.604183
 30
0.0
 40
175.0
  1
3
 41
1.142857
  7
Style-HGSｺﾞｼｯｸM
 11
191453.944589
 21
73099.604183
 31
0.0
100
AcDbText
 73
     3
  0
TEXT
  5
CB41
330
CD5D
100
AcDbEntity
  8
1階座席
  6
Continuous
 62
     7
370
    30
100
AcDbText
 10
192449.875816
 20
72924.604183
 30
0.0
 40
175.0
  1
4
 41
1.142857
  7
Style-HGSｺﾞｼｯｸM
 11
192449.875816
 21
73099.604183
 31
0.0
100
AcDbText
 73
     3
  0
TEXT
  5
CB42
330
CD5D
100
AcDbEntity
  8
1階座席
  6
Continuous
 62
     7
370
    30
100
AcDbText
 10
193445.807044
 20
72924.604183
 30
0.0
 40
175.0
  1
5
 41
1.142857
  7
Style-HGSｺﾞｼｯｸM
 11
193445.807044
 21
73099.604183
 31
0.0
100
AcDbText
 73
     3
  0
TEXT
  5
CB43
330
CD5D
100
AcDbEntity
  8
1階座席
  6
Continuous
 62
     7
370
    30
100
AcDbText
 10
198357.160544
 20
72924.604183
 30
0.0
 40
175.0
  1
10m
 41
1.142857
  7
Style-HGSｺﾞｼｯｸM
 11
198357.160544
 21
73099.604183
 31
0.0
100
AcDbText
 73
     3
  0
LINE
  5
CB44
330
CD5D
100
AcDbEntity
  8
2階座席
  6
Continuous
 62
     7
370
     9
100
AcDbLine
 10
189023.137725
 20
72739.202145
 30
0.0
 11
189023.137725
 21
72614.202145
 31
0.0
  0
LINE
  5
CB45
330
CD5D
100
AcDbEntity
  8
2階座席
  6
Continuous
 62
     7
370
     9
100
AcDbLine
 10
190023.137725
 20
72739.202145
 30
0.0
 11
190023.137725
 21
72614.202145
 31
0.0
  0
LINE
  5
CB46
330
CD5D
100
AcDbEntity
  8
2階座席
  6
Continuous
 62
     7
370
     9
100
AcDbLine
 10
191023.137725
 20
72739.202145
 30
0.0
 11
191023.137725
 21
72614.202145
 31
0.0
  0
LINE
  5
CB47
330
CD5D
100
AcDbEntity
  8
2階座席
  6
Continuous
 62
     7
370
     9
100
AcDbLine
 10
192023.137725
 20
72739.202145
 30
0.0
 11
192023.137725
 21
72614.202145
 31
0.0
  0
LINE
  5
CB48
330
CD5D
100
AcDbEntity
  8
2階座席
  6
Continuous
 62
     7
370
     9
100
AcDbLine
 10
193023.137725
 20
72739.202145
 30
0.0
 11
193023.137725
 21
72614.202145
 31
0.0
  0
LINE
  5
CB49
330
CD5D
100
AcDbEntity
  8
_1-A_平面__断面図_008_地下１階平面図
  6
Continuous
 62
     7
100
AcDbLine
 10
180626.080037
 20
84017.702699
 30
0.0
 11
180626.080037
 21
84403.703476
 31
0.0
  0
LINE
  5
CB4A
330
CD5D
100
AcDbEntity
  8
_1-A_平面__断面図_008_地下１階平面図
  6
Continuous
 62
     7
100
AcDbLine
 10
180426.080037
 20
84403.703476
 30
0.0
 11
180626.080037
 21
84403.703476
 31
0.0
  0
LINE
  5
CB4B
330
CD5D
100
AcDbEntity
  8
A733_ストリートファニチャ
 62
     7
370
     9
100
AcDbLine
 10
181626.080037
 20
78417.202699
 30
0.0
 11
180475.080037
 21
78417.202699
 31
0.0
  0
LINE
  5
CB4C
330
CD5D
100
AcDbEntity
  8
A733_ストリートファニチャ
 62
     7
370
     9
100
AcDbLine
 10
180475.080037
 20
77992.702699
 30
0.0
 11
180475.080037
 21
78417.202699
 31
0.0
  0
LINE
  5
CB4D
330
CD5D
100
AcDbEntity
  8
A733_ストリートファニチャ
 62
     7
370
     9
100
AcDbLine
 10
180705.080037
 20
77992.702699
 30
0.0
 11
180705.080037
 21
78417.202699
 31
0.0
  0
LINE
  5
CB4E
330
CD5D
100
AcDbEntity
  8
A733_ストリートファニチャ
 62
     7
370
     9
100
AcDbLine
 10
180730.080037
 20
77992.702699
 30
0.0
 11
180730.080037
 21
78392.202699
 31
0.0
  0
LINE
  5
CB4F
330
CD5D
100
AcDbEntity
  8
A733_ストリートファニチャ
 62
     7
370
     9
100
AcDbLine
 10
181651.080037
 20
78392.202699
 30
0.0
 11
180730.080037
 21
78392.202699
 31
0.0
  0
LINE
  5
CB50
330
CD5D
100
AcDbEntity
  8
A733_ストリートファニチャ
 62
     7
370
     9
100
AcDbLine
 10
180475.080037
 20
78417.202699
 30
0.0
 11
180475.080037
 21
79568.202699
 31
0.0
  0
LINE
  5
CB51
330
CD5D
100
AcDbEntity
  8
A733_ストリートファニチャ
 62
     7
370
     9
100
AcDbLine
 10
181626.080037
 20
79568.202699
 30
0.0
 11
180475.080037
 21
78417.202699
 31
0.0
  0
LINE
  5
CB52
330
CD5D
100
AcDbEntity
  8
A733_ストリートファニチャ
 62
     7
370
     9
100
AcDbLine
 10
181626.080037
 20
78417.202699
 30
0.0
 11
180475.080037
 21
79568.202699
 31
0.0
  0
LINE
  5
CB53
330
CD5D
100
AcDbEntity
  8
A733_ストリートファニチャ
 62
     7
370
     9
100
AcDbLine
 10
181626.080037
 20
78417.202699
 30
0.0
 11
181626.080037
 21
79568.202699
 31
0.0
  0
LINE
  5
CB54
330
CD5D
100
AcDbEntity
  8
A733_ストリートファニチャ
 62
     7
370
     9
100
AcDbLine
 10
181626.080037
 20
79568.202699
 30
0.0
 11
180475.080037
 21
79568.202699
 31
0.0
  0
LINE
  5
CB55
330
CD5D
100
AcDbEntity
  8
A733_ストリートファニチャ
 62
     7
370
     9
100
AcDbLine
 10
181626.080037
 20
82508.202699
 30
0.0
 11
180475.080037
 21
82508.202699
 31
0.0
  0
LINE
  5
CB56
330
CD5D
100
AcDbEntity
  8
A733_ストリートファニチャ
 62
     7
370
     9
100
AcDbLine
 10
180475.080037
 20
82508.202699
 30
0.0
 11
180475.080037
 21
83659.202699
 31
0.0
  0
LINE
  5
CB57
330
CD5D
100
AcDbEntity
  8
A733_ストリートファニチャ
 62
     7
370
     9
100
AcDbLine
 10
181626.080037
 20
83659.202699
 30
0.0
 11
180475.080037
 21
82508.202699
 31
0.0
  0
LINE
  5
CB58
330
CD5D
100
AcDbEntity
  8
A733_ストリートファニチャ
 62
     7
370
     9
100
AcDbLine
 10
181626.080037
 20
82508.202699
 30
0.0
 11
180475.080037
 21
83659.202699
 31
0.0
  0
LINE
  5
CB59
330
CD5D
100
AcDbEntity
  8
A733_ストリートファニチャ
 62
     7
370
     9
100
AcDbLine
 10
181626.080037
 20
82508.202699
 30
0.0
 11
181626.080037
 21
83659.202699
 31
0.0
  0
LINE
  5
CB5A
330
CD5D
100
AcDbEntity
  8
A733_ストリートファニチャ
 62
     7
370
     9
100
AcDbLine
 10
181626.080037
 20
83659.202699
 30
0.0
 11
180475.080037
 21
83659.202699
 31
0.0
  0
POINT
  5
CB5D
330
CD5D
100
AcDbEntity
  8
A733_ストリートファニチャ
 62
     7
370
     9
100
AcDbPoint
 10
181507.891948
 20
79693.202699
 30
0.0
 50
-90.0
  0
POINT
  5
CB5E
330
CD5D
100
AcDbEntity
  8
A733_ストリートファニチャ
 62
     7
370
     9
100
AcDbPoint
 10
181507.891948
 20
79615.702699
 30
0.0
 50
-90.0
  0
POINT
  5
CB5F
330
CD5D
100
AcDbEntity
  8
A733_ストリートファニチャ
 62
     7
370
     9
100
AcDbPoint
 10
181257.891948
 20
79693.202699
 30
0.0
 50
-90.0
  0
POINT
  5
CB60
330
CD5D
100
AcDbEntity
  8
A733_ストリートファニチャ
 62
     7
370
     9
100
AcDbPoint
 10
181257.891948
 20
79593.202699
 30
0.0
 50
-90.0
  0
LINE
  5
CB61
330
CD5D
100
AcDbEntity
  8
A733_ストリートファニチャ
 62
     7
370
     9
100
AcDbLine
 10
181651.080037
 20
78392.202699
 30
0.0
 11
181651.080037
 21
78852.702699
 31
0.0
  0
LINE
  5
CB62
330
CD5D
100
AcDbEntity
  8
A733_ストリートファニチャ
 62
     7
370
     9
100
AcDbLine
 10
181651.080037
 20
79132.702699
 30
0.0
 11
181651.080037
 21
79593.202699
 31
0.0
  0
LINE
  5
CB63
330
CD5D
100
AcDbEntity
  8
A733_ストリートファニチャ
 62
     7
370
     9
100
AcDbLine
 10
181651.080037
 20
82483.202699
 30
0.0
 11
181651.080037
 21
83762.702699
 31
0.0
  0
LINE
  5
CB64
330
CD5D
100
AcDbEntity
  8
A733_ストリートファニチャ
 62
     7
370
     9
100
AcDbLine
 10
180475.080037
 20
83787.702699
 30
0.0
 11
180475.080037
 21
84017.702699
 31
0.0
  0
LINE
  5
CB65
330
CD5D
100
AcDbEntity
  8
A733_ストリートファニチャ
 62
     7
370
     9
100
AcDbLine
 10
181751.080037
 20
82383.202699
 30
0.0
 11
181751.080037
 21
83662.702699
 31
0.0
  0
LINE
  5
CB66
330
CD5D
100
AcDbEntity
  8
A733_ストリートファニチャ
 62
     7
370
     9
100
AcDbLine
 10
181738.580037
 20
82395.702699
 30
0.0
 11
181738.580037
 21
83675.202699
 31
0.0
  0
LINE
  5
CB67
330
CD5D
100
AcDbEntity
  8
A733_ストリートファニチャ
 62
     7
370
     9
100
AcDbLine
 10
181673.580037
 20
82460.702699
 30
0.0
 11
181673.580037
 21
83740.202699
 31
0.0
  0
POINT
  5
CB68
330
CD5D
100
AcDbEntity
  8
A733_ストリートファニチャ
 62
     7
370
     9
100
AcDbPoint
 10
186650.830037
 20
83662.702699
 30
0.0
 50
-90.0
  0
POINT
  5
CB69
330
CD5D
100
AcDbEntity
  8
A733_ストリートファニチャ
 62
     7
370
     9
100
AcDbPoint
 10
186650.830037
 20
83740.202699
 30
0.0
 50
-90.0
  0
POINT
  5
CB6A
330
CD5D
100
AcDbEntity
  8
A733_ストリートファニチャ
 62
     7
370
     9
100
AcDbPoint
 10
186400.830037
 20
83662.702699
 30
0.0
 50
-90.0
  0
POINT
  5
CB6B
330
CD5D
100
AcDbEntity
  8
A733_ストリートファニチャ
 62
     7
370
     9
100
AcDbPoint
 10
186400.830037
 20
83762.702699
 30
0.0
 50
-90.0
  0
POINT
  5
CB6C
330
CD5D
100
AcDbEntity
  8
A733_ストリートファニチャ
 62
     7
370
     9
100
AcDbPoint
 10
181751.080037
 20
79422.447231
 30
0.0
 50
-90.0
  0
POINT
  5
CB6D
330
CD5D
100
AcDbEntity
  8
A733_ストリートファニチャ
 62
     7
370
     9
100
AcDbPoint
 10
181651.080037
 20
79422.447231
 30
0.0
 50
-90.0
  0
POINT
  5
CB6E
330
CD5D
100
AcDbEntity
  8
A733_ストリートファニチャ
 62
     7
370
     9
100
AcDbPoint
 10
181751.080037
 20
79422.447231
 30
0.0
 50
-90.0
  0
LINE
  5
CB6F
330
CD5D
100
AcDbEntity
  8
A733_ストリートファニチャ
 62
     7
370
     9
100
AcDbLine
 10
181751.080037
 20
79232.702699
 30
0.0
 11
181751.080037
 21
79693.202699
 31
0.0
  0
LINE
  5
CB70
330
CD5D
100
AcDbEntity
  8
A733_ストリートファニチャ
 62
     7
370
     9
100
AcDbLine
 10
181738.580037
 20
79220.202699
 30
0.0
 11
181738.580037
 21
79680.702699
 31
0.0
  0
LINE
  5
CB71
330
CD5D
100
AcDbEntity
  8
A733_ストリートファニチャ
 62
     7
370
     9
100
AcDbLine
 10
181673.580037
 20
79155.202699
 30
0.0
 11
181673.580037
 21
79615.702699
 31
0.0
  0
POINT
  5
CB72
330
CD5D
100
AcDbEntity
  8
A733_ストリートファニチャ
 62
     7
370
     9
100
AcDbPoint
 10
181507.891948
 20
82383.202699
 30
0.0
 50
-90.0
  0
POINT
  5
CB73
330
CD5D
100
AcDbEntity
  8
A733_ストリートファニチャ
 62
     7
370
     9
100
AcDbPoint
 10
181507.891948
 20
82460.702699
 30
0.0
 50
-90.0
  0
POINT
  5
CB74
330
CD5D
100
AcDbEntity
  8
A733_ストリートファニチャ
 62
     7
370
     9
100
AcDbPoint
 10
181257.891948
 20
82383.202699
 30
0.0
 50
-90.0
  0
POINT
  5
CB75
330
CD5D
100
AcDbEntity
  8
A733_ストリートファニチャ
 62
     7
370
     9
100
AcDbPoint
 10
181257.891948
 20
82483.202699
 30
0.0
 50
-90.0
  0
POINT
  5
CB76
330
CD5D
100
AcDbEntity
  8
A733_ストリートファニチャ
 62
     7
370
     9
100
AcDbPoint
 10
181257.891948
 20
82383.202699
 30
0.0
 50
-90.0
  0
POINT
  5
CB77
330
CD5D
100
AcDbEntity
  8
A733_ストリートファニチャ
 62
     7
370
     9
100
AcDbPoint
 10
186650.830037
 20
79232.702699
 30
0.0
 50
-90.0
  0
POINT
  5
CB78
330
CD5D
100
AcDbEntity
  8
A733_ストリートファニチャ
 62
     7
370
     9
100
AcDbPoint
 10
186650.830037
 20
79155.202699
 30
0.0
 50
-90.0
  0
POINT
  5
CB79
330
CD5D
100
AcDbEntity
  8
A733_ストリートファニチャ
 62
     7
370
     9
100
AcDbPoint
 10
186400.830037
 20
79232.702699
 30
0.0
 50
-90.0
  0
POINT
  5
CB7A
330
CD5D
100
AcDbEntity
  8
A733_ストリートファニチャ
 62
     7
370
     9
100
AcDbPoint
 10
186400.830037
 20
79132.702699
 30
0.0
 50
-90.0
  0
LINE
  5
CB7B
330
CD5D
100
AcDbEntity
  8
A733_ストリートファニチャ
 62
     7
370
     9
100
AcDbLine
 10
180450.080037
 20
79593.202699
 30
0.0
 11
180450.080037
 21
80098.202699
 31
0.0
  0
LINE
  5
CB7C
330
CD5D
100
AcDbEntity
  8
A733_ストリートファニチャ
 62
     7
370
     9
100
AcDbLine
 10
180450.080037
 20
77992.702699
 30
0.0
 11
180450.080037
 21
79593.202699
 31
0.0
  0
LINE
  5
CB7D
330
CD5D
100
AcDbEntity
  8
A733_ストリートファニチャ
 62
     7
370
     9
100
AcDbLine
 10
181651.080037
 20
79593.202699
 30
0.0
 11
180450.080037
 21
79593.202699
 31
0.0
  0
POINT
  5
CB7E
330
CD5D
100
AcDbEntity
  8
A733_ストリートファニチャ
 62
     7
370
     9
100
AcDbPoint
 10
180450.080037
 20
80001.087931
 30
0.0
 50
-90.0
  0
POINT
  5
CB7F
330
CD5D
100
AcDbEntity
  8
A733_ストリートファニチャ
 62
     7
370
     9
100
AcDbPoint
 10
180450.080037
 20
80001.087931
 30
0.0
 50
-90.0
  0
POINT
  5
CB80
330
CD5D
100
AcDbEntity
  8
A733_ストリートファニチャ
 62
     7
370
     9
100
AcDbPoint
 10
180540.080037
 20
80001.087931
 30
0.0
 50
-90.0
  0
LINE
  5
CB81
330
CD5D
100
AcDbEntity
  8
A733_ストリートファニチャ
 62
     7
370
     9
100
AcDbLine
 10
180540.080037
 20
79693.202699
 30
0.0
 11
181751.080037
 21
79693.202699
 31
0.0
  0
LINE
  5
CB82
330
CD5D
100
AcDbEntity
  8
A733_ストリートファニチャ
 62
     7
370
     9
100
AcDbLine
 10
180540.080037
 20
79693.202699
 30
0.0
 11
180540.080037
 21
80098.202699
 31
0.0
  0
LINE
  5
CB83
330
CD5D
100
AcDbEntity
  8
A733_ストリートファニチャ
 62
     7
370
     9
100
AcDbLine
 10
180527.580037
 20
79680.702699
 30
0.0
 11
180527.580037
 21
80073.202699
 31
0.0
  0
LINE
  5
CB84
330
CD5D
100
AcDbEntity
  8
A733_ストリートファニチャ
 62
     7
370
     9
100
AcDbLine
 10
180527.580037
 20
79680.702699
 30
0.0
 11
181738.580037
 21
79680.702699
 31
0.0
  0
LINE
  5
CB85
330
CD5D
100
AcDbEntity
  8
A733_ストリートファニチャ
 62
     7
370
     9
100
AcDbLine
 10
180462.580037
 20
79615.702699
 30
0.0
 11
181673.580037
 21
79615.702699
 31
0.0
  0
LINE
  5
CB86
330
CD5D
100
AcDbEntity
  8
A733_ストリートファニチャ
 62
     7
370
     9
100
AcDbLine
 10
180462.580037
 20
79615.702699
 30
0.0
 11
180462.580037
 21
80073.202699
 31
0.0
  0
LINE
  5
CB87
330
CD5D
100
AcDbEntity
  8
A733_ストリートファニチャ
 62
     7
370
     9
100
AcDbLine
 10
181651.080037
 20
82483.202699
 30
0.0
 11
180450.080037
 21
82483.202699
 31
0.0
  0
LINE
  5
CB88
330
CD5D
100
AcDbEntity
  8
A733_ストリートファニチャ
 62
     7
370
     9
100
AcDbLine
 10
180450.080037
 20
82483.202699
 30
0.0
 11
180450.080037
 21
84042.702699
 31
0.0
  0
LINE
  5
CB89
330
CD5D
100
AcDbEntity
  8
A733_ストリートファニチャ
 62
     7
370
     9
100
AcDbLine
 10
180450.080037
 20
82483.202699
 30
0.0
 11
180450.080037
 21
81978.202699
 31
0.0
  0
LINE
  5
CB8A
330
CD5D
100
AcDbEntity
  8
A733_ストリートファニチャ
 62
     7
370
     9
100
AcDbLine
 10
180540.080037
 20
82383.202699
 30
0.0
 11
180540.080037
 21
81978.202699
 31
0.0
  0
LINE
  5
CB8B
330
CD5D
100
AcDbEntity
  8
A733_ストリートファニチャ
 62
     7
370
     9
100
AcDbLine
 10
180540.080037
 20
82383.202699
 30
0.0
 11
181751.080037
 21
82383.202699
 31
0.0
  0
LINE
  5
CB8C
330
CD5D
100
AcDbEntity
  8
A733_ストリートファニチャ
 62
     7
370
     9
100
AcDbLine
 10
180527.580037
 20
82395.702699
 30
0.0
 11
181738.580037
 21
82395.702699
 31
0.0
  0
LINE
  5
CB8D
330
CD5D
100
AcDbEntity
  8
A733_ストリートファニチャ
 62
     7
370
     9
100
AcDbLine
 10
180527.580037
 20
82395.702699
 30
0.0
 11
180527.580037
 21
82003.202699
 31
0.0
  0
LINE
  5
CB8E
330
CD5D
100
AcDbEntity
  8
A733_ストリートファニチャ
 62
     7
370
     9
100
AcDbLine
 10
180462.580037
 20
82460.702699
 30
0.0
 11
180462.580037
 21
82003.202699
 31
0.0
  0
LINE
  5
CB8F
330
CD5D
100
AcDbEntity
  8
A733_ストリートファニチャ
 62
     7
370
     9
100
AcDbLine
 10
180462.580037
 20
82460.702699
 30
0.0
 11
181673.580037
 21
82460.702699
 31
0.0
  0
POINT
  5
CB90
330
CD5D
100
AcDbEntity
  8
A733_ストリートファニチャ
 62
     7
370
     9
100
AcDbPoint
 10
181751.080037
 20
83052.559151
 30
0.0
 50
-90.0
  0
POINT
  5
CB91
330
CD5D
100
AcDbEntity
  8
A733_ストリートファニチャ
 62
     7
370
     9
100
AcDbPoint
 10
181673.580037
 20
83052.559151
 30
0.0
 50
-90.0
  0
POINT
  5
CB92
330
CD5D
100
AcDbEntity
  8
A733_ストリートファニチャ
 62
     7
370
     9
100
AcDbPoint
 10
181751.080037
 20
82802.559151
 30
0.0
 50
-90.0
  0
POINT
  5
CB93
330
CD5D
100
AcDbEntity
  8
A733_ストリートファニチャ
 62
     7
370
     9
100
AcDbPoint
 10
181651.080037
 20
82802.559151
 30
0.0
 50
-90.0
  0
POINT
  5
CB94
330
CD5D
100
AcDbEntity
  8
A733_ストリートファニチャ
 62
     7
370
     9
100
AcDbPoint
 10
181751.080037
 20
82802.559151
 30
0.0
 50
-90.0
  0
SOLID
  5
CB95
330
CD5D
100
AcDbEntity
  8
A733_ストリートファニチャ
 62
     7
370
     9
100
AcDbTrace
 10
-181626.080037
 20
79568.202699
 30
0.0
 11
-180475.080037
 21
79568.202699
 31
0.0
 12
-181626.080037
 22
78417.202699
 32
0.0
 13
-180475.080037
 23
78417.202699
 33
0.0
210
0.0
220
0.0
230
-1.0
  0
SOLID
  5
CB96
330
CD5D
100
AcDbEntity
  8
A733_ストリートファニチャ
 62
     7
370
     9
100
AcDbTrace
 10
-181626.080037
 20
83659.202699
 30
0.0
 11
-180475.080037
 21
83659.202699
 31
0.0
 12
-181626.080037
 22
82508.202699
 32
0.0
 13
-180475.080037
 23
82508.202699
 33
0.0
210
0.0
220
0.0
230
-1.0
  0
LINE
  5
CB97
330
CD5D
100
AcDbEntity
  8
A733_ストリートファニチャ
 62
     7
370
     9
100
AcDbLine
 10
191164.080037
 20
78417.202699
 30
0.0
 11
191164.080037
 21
79568.202699
 31
0.0
  0
LINE
  5
CB98
330
CD5D
100
AcDbEntity
  8
A733_ストリートファニチャ
 62
     7
370
     9
100
AcDbLine
 10
191860.080037
 20
78417.202699
 30
0.0
 11
191164.080037
 21
78417.202699
 31
0.0
  0
LINE
  5
CB99
330
CD5D
100
AcDbEntity
  8
A733_ストリートファニチャ
 62
     7
370
     9
100
AcDbLine
 10
191860.080037
 20
79568.202699
 30
0.0
 11
191164.080037
 21
78417.202699
 31
0.0
  0
LINE
  5
CB9A
330
CD5D
100
AcDbEntity
  8
A733_ストリートファニチャ
 62
     7
370
     9
100
AcDbLine
 10
191860.080037
 20
78417.202699
 30
0.0
 11
191164.080037
 21
79568.202699
 31
0.0
  0
LINE
  5
CB9B
330
CD5D
100
AcDbEntity
  8
A733_ストリートファニチャ
 62
     7
370
     9
100
AcDbLine
 10
191164.080037
 20
82508.202699
 30
0.0
 11
191164.080037
 21
83659.202699
 31
0.0
  0
LINE
  5
CB9C
330
CD5D
100
AcDbEntity
  8
A733_ストリートファニチャ
 62
     7
370
     9
100
AcDbLine
 10
191860.080037
 20
82508.202699
 30
0.0
 11
191164.080037
 21
82508.202699
 31
0.0
  0
LINE
  5
CB9D
330
CD5D
100
AcDbEntity
  8
A733_ストリートファニチャ
 62
     7
370
     9
100
AcDbLine
 10
191860.080037
 20
83659.202699
 30
0.0
 11
191164.080037
 21
82508.202699
 31
0.0
  0
LINE
  5
CB9E
330
CD5D
100
AcDbEntity
  8
A733_ストリートファニチャ
 62
     7
370
     9
100
AcDbLine
 10
191860.080037
 20
82508.202699
 30
0.0
 11
191164.080037
 21
83659.202699
 31
0.0
  0
LINE
  5
CB9F
330
CD5D
100
AcDbEntity
  8
A733_ストリートファニチャ
 62
     7
370
     9
100
AcDbLine
 10
191139.080037
 20
79132.702699
 30
0.0
 11
181651.080037
 21
79132.702699
 31
0.0
  0
LINE
  5
CBA0
330
CD5D
100
AcDbEntity
  8
A733_ストリートファニチャ
 62
     7
370
     9
100
AcDbLine
 10
191164.080037
 20
78877.702699
 30
0.0
 11
181626.080037
 21
78877.702699
 31
0.0
  0
LINE
  5
CBA1
330
CD5D
100
AcDbEntity
  8
A733_ストリートファニチャ
 62
     7
370
     9
100
AcDbLine
 10
191164.080037
 20
79107.702699
 30
0.0
 11
181626.080037
 21
79107.702699
 31
0.0
  0
LINE
  5
CBA2
330
CD5D
100
AcDbEntity
  8
A733_ストリートファニチャ
 62
     7
370
     9
100
AcDbLine
 10
191164.080037
 20
77992.702699
 30
0.0
 11
191164.080037
 21
78417.202699
 31
0.0
  0
LINE
  5
CBA3
330
CD5D
100
AcDbEntity
  8
A733_ストリートファニチャ
 62
     7
370
     9
100
AcDbLine
 10
191394.080037
 20
77992.702699
 30
0.0
 11
191394.080037
 21
78417.202699
 31
0.0
  0
LINE
  5
CBA4
330
CD5D
100
AcDbEntity
  8
A733_ストリートファニチャ
 62
     7
370
     9
100
AcDbLine
 10
191419.080037
 20
77992.702699
 30
0.0
 11
191419.080037
 21
78392.202699
 31
0.0
  0
LINE
  5
CBA5
330
CD5D
100
AcDbEntity
  8
A733_ストリートファニチャ
 62
     7
370
     9
100
AcDbLine
 10
191885.080037
 20
78392.202699
 30
0.0
 11
191419.080037
 21
78392.202699
 31
0.0
  0
LINE
  5
CBA6
330
CD5D
100
AcDbEntity
  8
A733_ストリートファニチャ
 62
     7
370
     9
100
AcDbLine
 10
191139.080037
 20
77992.702699
 30
0.0
 11
191139.080037
 21
78852.702699
 31
0.0
  0
LINE
  5
CBA7
330
CD5D
100
AcDbEntity
  8
A733_ストリートファニチャ
 62
     7
370
     9
100
AcDbLine
 10
191139.080037
 20
78852.702699
 30
0.0
 11
181651.080037
 21
78852.702699
 31
0.0
  0
LINE
  5
CBA8
330
CD5D
100
AcDbEntity
  8
A733_ストリートファニチャ
 62
     7
370
     9
100
AcDbLine
 10
191860.080037
 20
78417.202699
 30
0.0
 11
191860.080037
 21
79568.202699
 31
0.0
  0
LINE
  5
CBA9
330
CD5D
100
AcDbEntity
  8
A733_ストリートファニチャ
 62
     7
370
     9
100
AcDbLine
 10
191860.080037
 20
79568.202699
 30
0.0
 11
191164.080037
 21
79568.202699
 31
0.0
  0
LINE
  5
CBAA
330
CD5D
100
AcDbEntity
  8
A733_ストリートファニチャ
 62
     7
370
     9
100
AcDbLine
 10
191885.080037
 20
78392.202699
 30
0.0
 11
191885.080037
 21
79593.202699
 31
0.0
  0
LINE
  5
CBAB
330
CD5D
100
AcDbEntity
  8
A733_ストリートファニチャ
 62
     7
370
     9
100
AcDbLine
 10
191885.080037
 20
79593.202699
 30
0.0
 11
191419.080037
 21
79593.202699
 31
0.0
  0
LINE
  5
CBAC
330
CD5D
100
AcDbEntity
  8
A733_ストリートファニチャ
 62
     7
370
     9
100
AcDbLine
 10
191164.080037
 20
79568.202699
 30
0.0
 11
191164.080037
 21
82508.202699
 31
0.0
  0
LINE
  5
CBAD
330
CD5D
100
AcDbEntity
  8
A733_ストリートファニチャ
 62
     7
370
     9
100
AcDbLine
 10
191394.080037
 20
79568.202699
 30
0.0
 11
191394.080037
 21
82508.202699
 31
0.0
  0
LINE
  5
CBAE
330
CD5D
100
AcDbEntity
  8
A733_ストリートファニチャ
 62
     7
370
     9
100
AcDbLine
 10
191419.080037
 20
79593.202699
 30
0.0
 11
191419.080037
 21
82483.202699
 31
0.0
  0
LINE
  5
CBAF
330
CD5D
100
AcDbEntity
  8
A733_ストリートファニチャ
 62
     7
370
     9
100
AcDbLine
 10
191885.080037
 20
82483.202699
 30
0.0
 11
191419.080037
 21
82483.202699
 31
0.0
  0
LINE
  5
CBB0
330
CD5D
100
AcDbEntity
  8
A733_ストリートファニチャ
 62
     7
370
     9
100
AcDbLine
 10
191860.080037
 20
83659.202699
 30
0.0
 11
191164.080037
 21
83659.202699
 31
0.0
  0
LINE
  5
CBB1
330
CD5D
100
AcDbEntity
  8
A733_ストリートファニチャ
 62
     7
370
     9
100
AcDbLine
 10
191860.080037
 20
82508.202699
 30
0.0
 11
191860.080037
 21
83659.202699
 31
0.0
  0
LINE
  5
CBB2
330
CD5D
100
AcDbEntity
  8
A733_ストリートファニチャ
 62
     7
370
     9
100
AcDbLine
 10
191885.080037
 20
82483.202699
 30
0.0
 11
191885.080037
 21
83762.702699
 31
0.0
  0
LINE
  5
CBB3
330
CD5D
100
AcDbEntity
  8
A733_ストリートファニチャ
 62
     7
370
     9
100
AcDbLine
 10
191885.080037
 20
83762.702699
 30
0.0
 11
192050.580037
 21
83762.702699
 31
0.0
  0
LINE
  5
CBB4
330
CD5D
100
AcDbEntity
  8
A733_ストリートファニチャ
 62
     7
370
     9
100
AcDbLine
 10
190619.080037
 20
83762.702699
 30
0.0
 11
190619.080037
 21
83787.702699
 31
0.0
  0
LINE
  5
CBB5
330
CD5D
100
AcDbEntity
  8
A733_ストリートファニチャ
 62
     7
370
     9
100
AcDbLine
 10
190619.080037
 20
84017.702699
 30
0.0
 11
190619.080037
 21
84042.702699
 31
0.0
  0
LINE
  5
CBB6
330
CD5D
100
AcDbEntity
  8
A733_ストリートファニチャ
 62
     7
370
     9
100
AcDbLine
 10
190619.080037
 20
83787.702699
 30
0.0
 11
190619.080037
 21
84017.702699
 31
0.0
  0
LINE
  5
CBB7
330
CD5D
100
AcDbEntity
  8
A733_ストリートファニチャ
 62
     7
370
     9
100
AcDbLine
 10
192050.580037
 20
84042.702699
 30
0.0
 11
190619.080037
 21
84042.702699
 31
0.0
  0
LINE
  5
CBB8
330
CD5D
100
AcDbEntity
  8
A733_ストリートファニチャ
 62
     7
370
     9
100
AcDbLine
 10
190619.080037
 20
84017.702699
 30
0.0
 11
192050.580037
 21
84017.702699
 31
0.0
  0
LINE
  5
CBB9
330
CD5D
100
AcDbEntity
  8
A733_ストリートファニチャ
 62
     7
370
     9
100
AcDbLine
 10
190619.080037
 20
83787.702699
 30
0.0
 11
192050.580037
 21
83787.702699
 31
0.0
  0
LINE
  5
CBBA
330
CD5D
100
AcDbEntity
  8
A733_ストリートファニチャ
 62
     7
370
     9
100
AcDbLine
 10
190619.080037
 20
83762.702699
 30
0.0
 11
191139.080037
 21
83762.702699
 31
0.0
  0
POINT
  5
CBBB
330
CD5D
100
AcDbEntity
  8
A733_ストリートファニチャ
 62
     7
370
     9
100
AcDbPoint
 10
189522.830037
 20
84042.702699
 30
0.0
 50
-90.0
  0
POINT
  5
CBBC
330
CD5D
100
AcDbEntity
  8
A733_ストリートファニチャ
 62
     7
370
     9
100
AcDbPoint
 10
189522.830037
 20
83662.702699
 30
0.0
 50
-90.0
  0
LINE
  5
CBBD
330
CD5D
100
AcDbEntity
  8
A733_ストリートファニチャ
 62
     7
370
     9
100
AcDbLine
 10
188519.080037
 20
83762.702699
 30
0.0
 11
188519.080037
 21
83787.702699
 31
0.0
  0
LINE
  5
CBBE
330
CD5D
100
AcDbEntity
  8
A733_ストリートファニチャ
 62
     7
370
     9
100
AcDbLine
 10
188519.080037
 20
84017.702699
 30
0.0
 11
188519.080037
 21
84042.702699
 31
0.0
  0
LINE
  5
CBBF
330
CD5D
100
AcDbEntity
  8
A733_ストリートファニチャ
 62
     7
370
     9
100
AcDbLine
 10
188519.080037
 20
83787.702699
 30
0.0
 11
188519.080037
 21
84017.702699
 31
0.0
  0
LINE
  5
CBC0
330
CD5D
100
AcDbEntity
  8
A733_ストリートファニチャ
 62
     7
370
     9
100
AcDbLine
 10
188519.080037
 20
84030.202699
 30
0.0
 11
190619.080037
 21
84030.202699
 31
0.0
  0
LINE
  5
CBC1
330
CD5D
100
AcDbEntity
  8
A733_ストリートファニチャ
 62
     7
370
     9
100
AcDbLine
 10
188519.080037
 20
84042.702699
 30
0.0
 11
190619.080037
 21
84042.702699
 31
0.0
  0
LINE
  5
CBC2
330
CD5D
100
AcDbEntity
  8
A733_ストリートファニチャ
 62
     7
370
     9
100
AcDbLine
 10
191039.080037
 20
79232.702699
 30
0.0
 11
191039.080037
 21
83662.702699
 31
0.0
  0
LINE
  5
CBC3
330
CD5D
100
AcDbEntity
  8
A733_ストリートファニチャ
 62
     7
370
     9
100
AcDbLine
 10
191051.580037
 20
79220.202699
 30
0.0
 11
191051.580037
 21
83675.202699
 31
0.0
  0
LINE
  5
CBC4
330
CD5D
100
AcDbEntity
  8
A733_ストリートファニチャ
 62
     7
370
     9
100
AcDbLine
 10
188519.080037
 20
83965.202699
 30
0.0
 11
190619.080037
 21
83965.202699
 31
0.0
  0
POINT
  5
CBC5
330
CD5D
100
AcDbEntity
  8
A733_ストリートファニチャ
 62
     7
370
     9
100
AcDbPoint
 10
189522.830037
 20
83740.202699
 30
0.0
 50
-90.0
  0
POINT
  5
CBC6
330
CD5D
100
AcDbEntity
  8
A733_ストリートファニチャ
 62
     7
370
     9
100
AcDbPoint
 10
189522.830037
 20
83965.202699
 30
0.0
 50
-90.0
  0
LINE
  5
CBC7
330
CD5D
100
AcDbEntity
  8
A733_ストリートファニチャ
 62
     7
370
     9
100
AcDbLine
 10
188519.080037
 20
83787.702699
 30
0.0
 11
180475.080037
 21
83787.702699
 31
0.0
  0
LINE
  5
CBC8
330
CD5D
100
AcDbEntity
  8
A733_ストリートファニチャ
 62
     7
370
     9
100
AcDbLine
 10
188519.080037
 20
84017.702699
 30
0.0
 11
180475.080037
 21
84017.702699
 31
0.0
  0
LINE
  5
CBC9
330
CD5D
100
AcDbEntity
  8
A733_ストリートファニチャ
 62
     7
370
     9
100
AcDbLine
 10
188519.080037
 20
84042.702699
 30
0.0
 11
180450.080037
 21
84042.702699
 31
0.0
  0
LINE
  5
CBCA
330
CD5D
100
AcDbEntity
  8
A733_ストリートファニチャ
 62
     7
370
     9
100
AcDbLine
 10
181751.080037
 20
83662.702699
 30
0.0
 11
191039.080037
 21
83662.702699
 31
0.0
  0
LINE
  5
CBCB
330
CD5D
100
AcDbEntity
  8
A733_ストリートファニチャ
 62
     7
370
     9
100
AcDbLine
 10
181738.580037
 20
83675.202699
 30
0.0
 11
191051.580037
 21
83675.202699
 31
0.0
  0
POINT
  5
CBCC
330
CD5D
100
AcDbEntity
  8
A733_ストリートファニチャ
 62
     7
370
     9
100
AcDbPoint
 10
189272.830037
 20
83662.702699
 30
0.0
 50
-90.0
  0
POINT
  5
CBCD
330
CD5D
100
AcDbEntity
  8
A733_ストリートファニチャ
 62
     7
370
     9
100
AcDbPoint
 10
189272.830037
 20
84042.702699
 30
0.0
 50
-90.0
  0
LINE
  5
CBCE
330
CD5D
100
AcDbEntity
  8
A733_ストリートファニチャ
 62
     7
370
     9
100
AcDbLine
 10
181751.080037
 20
79232.702699
 30
0.0
 11
191039.080037
 21
79232.702699
 31
0.0
  0
LINE
  5
CBCF
330
CD5D
100
AcDbEntity
  8
A733_ストリートファニチャ
 62
     7
370
     9
100
AcDbLine
 10
181738.580037
 20
79220.202699
 30
0.0
 11
191051.580037
 21
79220.202699
 31
0.0
  0
LINE
  5
CBD0
330
CD5D
100
AcDbEntity
  8
A733_ストリートファニチャ
 62
     7
370
     9
100
AcDbLine
 10
181673.580037
 20
79155.202699
 30
0.0
 11
191116.580037
 21
79155.202699
 31
0.0
  0
POINT
  5
CBD1
330
CD5D
100
AcDbEntity
  8
A733_ストリートファニチャ
 62
     7
370
     9
100
AcDbPoint
 10
191039.080037
 20
81322.702699
 30
0.0
 50
-90.0
  0
POINT
  5
CBD2
330
CD5D
100
AcDbEntity
  8
A733_ストリートファニチャ
 62
     7
370
     9
100
AcDbPoint
 10
191039.080037
 20
81822.702699
 30
0.0
 50
-90.0
  0
POINT
  5
CBD3
330
CD5D
100
AcDbEntity
  8
A733_ストリートファニチャ
 62
     7
370
     9
100
AcDbPoint
 10
191116.580037
 20
81822.702699
 30
0.0
 50
-90.0
  0
POINT
  5
CBD4
330
CD5D
100
AcDbEntity
  8
A733_ストリートファニチャ
 62
     7
370
     9
100
AcDbPoint
 10
191039.080037
 20
81572.702699
 30
0.0
 50
-90.0
  0
POINT
  5
CBD5
330
CD5D
100
AcDbEntity
  8
A733_ストリートファニチャ
 62
     7
370
     9
100
AcDbPoint
 10
191139.080037
 20
81572.702699
 30
0.0
 50
-90.0
  0
SOLID
  5
CBD6
330
CD5D
100
AcDbEntity
  8
A733_ストリートファニチャ
 62
     7
370
     9
100
AcDbTrace
 10
-191860.080037
 20
79568.202699
 30
0.0
 11
-191164.080037
 21
79568.202699
 31
0.0
 12
-191860.080037
 22
78417.202699
 32
0.0
 13
-191164.080037
 23
78417.202699
 33
0.0
210
0.0
220
0.0
230
-1.0
  0
SOLID
  5
CBD7
330
CD5D
100
AcDbEntity
  8
A733_ストリートファニチャ
 62
     7
370
     9
100
AcDbTrace
 10
191860.080037
 20
82508.202699
 30
0.0
 11
191860.080037
 21
83659.202699
 31
0.0
 12
191164.080037
 22
82508.202699
 32
0.0
 13
191164.080037
 23
83659.202699
 33
0.0
  0
POINT
  5
CBD8
330
CD5D
100
AcDbEntity
  8
A733_ストリートファニチャ
 62
     7
370
     9
100
AcDbPoint
 10
190589.080037
 20
81322.702699
 30
0.0
 50
-90.0
  0
LINE
  5
CBD9
330
CD5D
100
AcDbEntity
  8
A733_ストリートファニチャ
 62
     7
370
     9
100
AcDbLine
 10
180458.580037
 20
81038.202699
 30
0.0
 11
180605.580037
 21
81038.202699
 31
0.0
  0
LINE
  5
CBDA
330
CD5D
100
AcDbEntity
  8
A733_ストリートファニチャ
 62
     7
370
     9
100
AcDbLine
 10
180553.080037
 20
80123.202699
 30
0.0
 11
180553.080037
 21
80098.202699
 31
0.0
  0
LINE
  5
CBDB
330
CD5D
100
AcDbEntity
  8
A733_ストリートファニチャ
 62
     7
370
     9
100
AcDbLine
 10
180553.080037
 20
80098.202699
 30
0.0
 11
180533.080037
 21
80098.202699
 31
0.0
  0
LINE
  5
CBDC
330
CD5D
100
AcDbEntity
  8
A733_ストリートファニチャ
 62
     7
370
     9
100
AcDbLine
 10
180553.080037
 20
80123.202699
 30
0.0
 11
180508.080037
 21
80123.202699
 31
0.0
  0
LINE
  5
CBDD
330
CD5D
100
AcDbEntity
  8
A733_ストリートファニチャ
 62
     7
370
     9
100
AcDbLine
 10
180508.080037
 20
80138.202699
 30
0.0
 11
180508.080037
 21
80123.202699
 31
0.0
  0
LINE
  5
CBDE
330
CD5D
100
AcDbEntity
  8
A733_ストリートファニチャ
 62
     7
370
     9
100
AcDbLine
 10
180508.080037
 20
80138.202699
 30
0.0
 11
180478.080037
 21
80138.202699
 31
0.0
  0
LINE
  5
CBDF
330
CD5D
100
AcDbEntity
  8
A733_ストリートファニチャ
 62
     7
370
     9
100
AcDbLine
 10
180478.080037
 20
80138.202699
 30
0.0
 11
180478.080037
 21
80123.202699
 31
0.0
  0
LINE
  5
CBE0
330
CD5D
100
AcDbEntity
  8
A733_ストリートファニチャ
 62
     7
370
     9
100
AcDbLine
 10
180553.080037
 20
81953.202699
 30
0.0
 11
180553.080037
 21
81978.202699
 31
0.0
  0
LINE
  5
CBE1
330
CD5D
100
AcDbEntity
  8
A733_ストリートファニチャ
 62
     7
370
     9
100
AcDbLine
 10
180553.080037
 20
81978.202699
 30
0.0
 11
180533.080037
 21
81978.202699
 31
0.0
  0
LINE
  5
CBE2
330
CD5D
100
AcDbEntity
  8
A733_ストリートファニチャ
 62
     7
370
     9
100
AcDbLine
 10
180553.080037
 20
81953.202699
 30
0.0
 11
180508.080037
 21
81953.202699
 31
0.0
  0
LINE
  5
CBE3
330
CD5D
100
AcDbEntity
  8
A733_ストリートファニチャ
 62
     7
370
     9
100
AcDbLine
 10
180508.080037
 20
81938.202699
 30
0.0
 11
180508.080037
 21
81953.202699
 31
0.0
  0
LINE
  5
CBE4
330
CD5D
100
AcDbEntity
  8
A733_ストリートファニチャ
 62
     7
370
     9
100
AcDbLine
 10
180508.080037
 20
81938.202699
 30
0.0
 11
180478.080037
 21
81938.202699
 31
0.0
  0
LINE
  5
CBE5
330
CD5D
100
AcDbEntity
  8
A733_ストリートファニチャ
 62
     7
370
     9
100
AcDbLine
 10
180478.080037
 20
81938.202699
 30
0.0
 11
180478.080037
 21
81953.202699
 31
0.0
  0
ARC
  5
CBE6
330
CD5D
100
AcDbEntity
  8
A733_ストリートファニチャ
 62
     7
370
     9
100
AcDbCircle
 10
180553.080037
 20
81953.202699
 30
0.0
 40
915.0000000000035
100
AcDbArc
 50
270.0
 51
0.0
  0
ARC
  5
CBE7
330
CD5D
100
AcDbEntity
  8
A733_ストリートファニチャ
 62
     7
370
     9
100
AcDbCircle
 10
180553.080037
 20
80123.202699
 30
0.0
 40
915.0000000000035
100
AcDbArc
 50
0.0
 51
90.0
  0
LINE
  5
CBE8
330
CD5D
100
AcDbEntity
  8
A733_ストリートファニチャ
 62
     7
370
     9
100
AcDbLine
 10
180462.580037
 20
80073.202699
 30
0.0
 11
180527.580037
 21
80073.202699
 31
0.0
  0
LINE
  5
CBE9
330
CD5D
100
AcDbEntity
  8
A733_ストリートファニチャ
 62
     7
370
     9
100
AcDbLine
 10
180437.080037
 20
80123.202699
 30
0.0
 11
180437.080037
 21
80098.202699
 31
0.0
  0
LINE
  5
CBEA
330
CD5D
100
AcDbEntity
  8
A733_ストリートファニチャ
 62
     7
370
     9
100
AcDbLine
 10
180437.080037
 20
80098.202699
 30
0.0
 11
180457.080037
 21
80098.202699
 31
0.0
  0
LINE
  5
CBEB
330
CD5D
100
AcDbEntity
  8
A733_ストリートファニチャ
 62
     7
370
     9
100
AcDbLine
 10
180437.080037
 20
80123.202699
 30
0.0
 11
180478.080037
 21
80123.202699
 31
0.0
  0
LINE
  5
CBEC
330
CD5D
100
AcDbEntity
  8
A733_ストリートファニチャ
 62
     7
370
     9
100
AcDbLine
 10
180437.080037
 20
81953.202699
 30
0.0
 11
180437.080037
 21
81978.202699
 31
0.0
  0
LINE
  5
CBED
330
CD5D
100
AcDbEntity
  8
A733_ストリートファニチャ
 62
     7
370
     9
100
AcDbLine
 10
180437.080037
 20
81978.202699
 30
0.0
 11
180457.080037
 21
81978.202699
 31
0.0
  0
LINE
  5
CBEE
330
CD5D
100
AcDbEntity
  8
A733_ストリートファニチャ
 62
     7
370
     9
100
AcDbLine
 10
180437.080037
 20
81953.202699
 30
0.0
 11
180478.080037
 21
81953.202699
 31
0.0
  0
LINE
  5
CBEF
330
CD5D
100
AcDbEntity
  8
A733_ストリートファニチャ
 62
     7
370
     9
100
AcDbLine
 10
180462.580037
 20
82003.202699
 30
0.0
 11
180527.580037
 21
82003.202699
 31
0.0
  0
SOLID
  5
CBF0
330
CD5D
100
AcDbEntity
  8
A733_ストリートファニチャ
 62
     7
370
     9
100
AcDbTrace
 10
-191164.080037
 20
79107.702699
 30
0.0
 11
-181626.080037
 21
79107.702699
 31
0.0
 12
-191164.080037
 22
78877.702699
 32
0.0
 13
-181626.080037
 23
78877.702699
 33
0.0
210
0.0
220
0.0
230
-1.0
  0
SOLID
  5
CBF1
330
CD5D
100
AcDbEntity
  8
A733_ストリートファニチャ
 62
     7
370
     9
100
AcDbTrace
 10
-181738.580037
 20
79220.202699
 30
0.0
 11
-191164.080037
 21
79220.202699
 31
0.0
 12
-181738.580037
 22
79107.702699
 32
0.0
 13
-191164.080037
 23
79107.702699
 33
0.0
210
0.0
220
0.0
230
-1.0
  0
SOLID
  5
CBF2
330
CD5D
100
AcDbEntity
  8
A733_ストリートファニチャ
 62
     7
370
     9
100
AcDbTrace
 10
181626.080037
 20
79107.702699
 30
0.0
 11
181738.580037
 21
79107.702699
 31
0.0
 12
181626.080037
 22
79680.702699
 32
0.0
 13
181738.580037
 23
79680.702699
 33
0.0
  0
SOLID
  5
CBF3
330
CD5D
100
AcDbEntity
  8
A733_ストリートファニチャ
 62
     7
370
     9
100
AcDbTrace
 10
-181626.080037
 20
79680.702699
 30
0.0
 11
-180475.080037
 21
79680.702699
 31
0.0
 12
-181626.080037
 22
79568.202699
 32
0.0
 13
-180475.080037
 23
79568.202699
 33
0.0
210
0.0
220
0.0
230
-1.0
  0
SOLID
  5
CBF4
330
CD5D
100
AcDbEntity
  8
A733_ストリートファニチャ
 62
     7
370
     9
100
AcDbTrace
 10
-180527.580037
 20
79680.702699
 30
0.0
 11
-180462.580037
 21
79680.702699
 31
0.0
 12
-180527.580037
 22
80073.202699
 32
0.0
 13
-180462.580037
 23
80073.202699
 33
0.0
210
0.0
220
0.0
230
-1.0
  0
SOLID
  5
CBF5
330
CD5D
100
AcDbEntity
  8
A733_ストリートファニチャ
 62
     7
370
     9
100
AcDbTrace
 10
-180475.080037
 20
84017.702699
 30
0.0
 11
-192050.580037
 21
84017.702699
 31
0.0
 12
-180475.080037
 22
83787.702699
 32
0.0
 13
-192050.580037
 23
83787.702699
 33
0.0
210
0.0
220
0.0
230
-1.0
  0
SOLID
  5
CBF6
330
CD5D
100
AcDbEntity
  8
A733_ストリートファニチャ
 62
     7
370
     9
100
AcDbTrace
 10
191394.080037
 20
82508.202699
 30
0.0
 11
191164.080037
 21
82508.202699
 31
0.0
 12
191394.080037
 22
79568.202699
 32
0.0
 13
191164.080037
 23
79568.202699
 33
0.0
  0
SOLID
  5
CBF7
330
CD5D
100
AcDbEntity
  8
A733_ストリートファニチャ
 62
     7
370
     9
100
AcDbTrace
 10
191051.580037
 20
79220.202699
 30
0.0
 11
191164.080037
 21
79220.202699
 31
0.0
 12
191051.580037
 22
83659.202699
 32
0.0
 13
191164.080037
 23
83659.202699
 33
0.0
  0
SOLID
  5
CBF8
330
CD5D
100
AcDbEntity
  8
A733_ストリートファニチャ
 62
     7
370
     9
100
AcDbTrace
 10
191860.080037
 20
83659.202699
 30
0.0
 11
191051.580037
 21
83659.202699
 31
0.0
 12
191860.080037
 22
83675.202699
 32
0.0
 13
191051.580037
 23
83675.202699
 33
0.0
  0
SOLID
  5
CBF9
330
CD5D
100
AcDbEntity
  8
A733_ストリートファニチャ
 62
     7
370
     9
100
AcDbTrace
 10
191860.080037
 20
83675.202699
 30
0.0
 11
180475.080037
 21
83675.202699
 31
0.0
 12
191860.080037
 22
83787.702699
 32
0.0
 13
180475.080037
 23
83787.702699
 33
0.0
  0
SOLID
  5
CBFA
330
CD5D
100
AcDbEntity
  8
A733_ストリートファニチャ
 62
     7
370
     9
100
AcDbTrace
 10
181626.080037
 20
83659.202699
 30
0.0
 11
180475.080037
 21
83659.202699
 31
0.0
 12
181626.080037
 22
83675.202699
 32
0.0
 13
180475.080037
 23
83675.202699
 33
0.0
  0
SOLID
  5
CBFB
330
CD5D
100
AcDbEntity
  8
A733_ストリートファニチャ
 62
     7
370
     9
100
AcDbTrace
 10
180527.580037
 20
82003.202699
 30
0.0
 11
180475.080037
 21
82003.202699
 31
0.0
 12
180527.580037
 22
82508.202699
 32
0.0
 13
180475.080037
 23
82508.202699
 33
0.0
  0
SOLID
  5
CBFC
330
CD5D
100
AcDbEntity
  8
A733_ストリートファニチャ
 62
     7
370
     9
100
AcDbTrace
 10
-180475.080037
 20
82508.202699
 30
0.0
 11
-180462.580037
 21
82508.202699
 31
0.0
 12
-180475.080037
 22
82003.202699
 32
0.0
 13
-180462.580037
 23
82003.202699
 33
0.0
210
0.0
220
0.0
230
-1.0
  0
SOLID
  5
CBFD
330
CD5D
100
AcDbEntity
  8
A733_ストリートファニチャ
 62
     7
370
     9
100
AcDbTrace
 10
180527.580037
 20
82395.702699
 30
0.0
 11
181626.080037
 21
82395.702699
 31
0.0
 12
180527.580037
 22
82508.202699
 32
0.0
 13
181626.080037
 23
82508.202699
 33
0.0
  0
SOLID
  5
CBFE
330
CD5D
100
AcDbEntity
  8
A733_ストリートファニチャ
 62
     7
370
     9
100
AcDbTrace
 10
-181738.580037
 20
82395.702699
 30
0.0
 11
-181626.080037
 21
82395.702699
 31
0.0
 12
-181738.580037
 22
83675.202699
 32
0.0
 13
-181626.080037
 23
83675.202699
 33
0.0
210
0.0
220
0.0
230
-1.0
  0
LINE
  5
CBFF
330
CD5D
100
AcDbEntity
  8
A733_ストリートファニチャ
 62
     7
370
    13
100
AcDbLine
 10
180553.080037
 20
80123.202699
 30
0.0
 11
181468.080037
 21
80123.202699
 31
0.0
  0
LINE
  5
CC00
330
CD5D
100
AcDbEntity
  8
A733_ストリートファニチャ
 62
     7
370
    13
100
AcDbLine
 10
180553.080037
 20
81953.202699
 30
0.0
 11
181468.080037
 21
81953.202699
 31
0.0
  0
SOLID
  5
CC01
330
CD5D
100
AcDbEntity
  8
A733_ストリートファニチャ
 62
     7
370
    13
100
AcDbTrace
 10
180705.080037
 20
78417.202699
 30
0.0
 11
180475.080037
 21
78417.202699
 31
0.0
 12
180705.080037
 22
77992.702699
 32
0.0
 13
180475.080037
 23
77992.702699
 33
0.0
  0
SOLID
  5
CC02
330
CD5D
100
AcDbEntity
  8
A733_ストリートファニチャ
 62
     7
370
    13
100
AcDbTrace
 10
-191394.080037
 20
78417.202699
 30
0.0
 11
-191164.080037
 21
78417.202699
 31
0.0
 12
-191394.080037
 22
77992.702699
 32
0.0
 13
-191164.080037
 23
77992.702699
 33
0.0
210
0.0
220
0.0
230
-1.0
  0
SOLID
  5
CC03
330
CD5D
100
AcDbEntity
  8
A733_ストリートファニチャ
 62
     7
370
    13
100
AcDbTrace
 10
-180626.080037
 20
84403.703476
 30
0.0
 11
-180475.080037
 21
84403.703476
 31
0.0
 12
-180626.080037
 22
84017.702699
 32
0.0
 13
-180475.080037
 23
84017.702699
 33
0.0
210
0.0
220
0.0
230
-1.0
  0
LINE
  5
CC04
330
CD5D
100
AcDbEntity
  8
A733_ストリートファニチャ
 62
     7
370
    13
100
AcDbLine
 10
190589.080037
 20
83662.702699
 30
0.0
 11
190589.080037
 21
79232.702699
 31
0.0
  0
LINE
  5
CC05
330
CD5D
100
AcDbEntity
  8
A733_ストリートファニチャ
 62
     7
370
    13
100
AcDbLine
 10
190954.080037
 20
79232.702699
 30
0.0
 11
190954.080037
 21
83662.702699
 31
0.0
  0
LINE
  5
CC06
330
CD5D
100
AcDbEntity
  8
A733_ストリートファニチャ
 62
     7
370
    13
100
AcDbLine
 10
191029.080037
 20
83397.702699
 30
0.0
 11
191029.080037
 21
82797.702699
 31
0.0
  0
LINE
  5
CC07
330
CD5D
100
AcDbEntity
  8
A733_ストリートファニチャ
 62
     7
370
    13
100
AcDbLine
 10
191039.080037
 20
83397.702699
 30
0.0
 11
191029.080037
 21
83397.702699
 31
0.0
  0
LINE
  5
CC08
330
CD5D
100
AcDbEntity
  8
A733_ストリートファニチャ
 62
     7
370
    13
100
AcDbLine
 10
191039.080037
 20
82797.702699
 30
0.0
 11
191029.080037
 21
82797.702699
 31
0.0
  0
LINE
  5
CC09
330
CD5D
100
AcDbEntity
  8
A733_ストリートファニチャ
 62
     7
370
    13
100
AcDbLine
 10
191029.080037
 20
81697.702699
 30
0.0
 11
191029.080037
 21
82297.702699
 31
0.0
  0
LINE
  5
CC0A
330
CD5D
100
AcDbEntity
  8
A733_ストリートファニチャ
 62
     7
370
    13
100
AcDbLine
 10
191039.080037
 20
82297.702699
 30
0.0
 11
191029.080037
 21
82297.702699
 31
0.0
  0
LINE
  5
CC0B
330
CD5D
100
AcDbEntity
  8
A733_ストリートファニチャ
 62
     7
370
    13
100
AcDbLine
 10
191039.080037
 20
81697.702699
 30
0.0
 11
191029.080037
 21
81697.702699
 31
0.0
  0
LINE
  5
CC0C
330
CD5D
100
AcDbEntity
  8
A733_ストリートファニチャ
 62
     7
370
    13
100
AcDbLine
 10
191029.080037
 20
81197.702699
 30
0.0
 11
191029.080037
 21
80597.702699
 31
0.0
  0
LINE
  5
CC0D
330
CD5D
100
AcDbEntity
  8
A733_ストリートファニチャ
 62
     7
370
    13
100
AcDbLine
 10
191039.080037
 20
81197.702699
 30
0.0
 11
191029.080037
 21
81197.702699
 31
0.0
  0
LINE
  5
CC0E
330
CD5D
100
AcDbEntity
  8
A733_ストリートファニチャ
 62
     7
370
    13
100
AcDbLine
 10
191039.080037
 20
80597.702699
 30
0.0
 11
191029.080037
 21
80597.702699
 31
0.0
  0
LINE
  5
CC0F
330
CD5D
100
AcDbEntity
  8
A733_ストリートファニチャ
 62
     7
370
    13
100
AcDbLine
 10
191029.080037
 20
80097.702699
 30
0.0
 11
191029.080037
 21
79497.702699
 31
0.0
  0
LINE
  5
CC10
330
CD5D
100
AcDbEntity
  8
A733_ストリートファニチャ
 62
     7
370
    13
100
AcDbLine
 10
191039.080037
 20
79497.702699
 30
0.0
 11
191029.080037
 21
79497.702699
 31
0.0
  0
LINE
  5
CC11
330
CD5D
100
AcDbEntity
  8
A733_ストリートファニチャ
 62
     7
370
    13
100
AcDbLine
 10
191039.080037
 20
80097.702699
 30
0.0
 11
191029.080037
 21
80097.702699
 31
0.0
  0
LINE
  5
CC12
330
CD5D
100
AcDbEntity
  8
A733_ストリートファニチャ
 62
     7
370
    13
100
AcDbLine
 10
183470.580037
 20
79242.702699
 30
0.0
 11
182570.580037
 21
79242.702699
 31
0.0
  0
LINE
  5
CC13
330
CD5D
100
AcDbEntity
  8
A733_ストリートファニチャ
 62
     7
370
    13
100
AcDbLine
 10
183470.580037
 20
79232.702699
 30
0.0
 11
183470.580037
 21
79242.702699
 31
0.0
  0
LINE
  5
CC14
330
CD5D
100
AcDbEntity
  8
A733_ストリートファニチャ
 62
     7
370
    13
100
AcDbLine
 10
182570.580037
 20
79232.702699
 30
0.0
 11
182570.580037
 21
79242.702699
 31
0.0
  0
LINE
  5
CC15
330
CD5D
100
AcDbEntity
  8
A221_記入文字
  6
Continuous
 62
     7
370
    13
100
AcDbLine
 10
189770.080037
 20
81897.702699
 30
0.0
 11
187970.080037
 21
81897.702699
 31
0.0
  0
LINE
  5
CC16
330
CD5D
100
AcDbEntity
  8
A221_記入文字
  6
Continuous
 62
     7
370
    13
100
AcDbLine
 10
189770.080037
 20
81447.702699
 30
0.0
 11
187970.080037
 21
81447.702699
 31
0.0
  0
LINE
  5
CC17
330
CD5D
100
AcDbEntity
  8
A221_記入文字
  6
Continuous
 62
     7
370
    13
100
AcDbLine
 10
189770.080037
 20
80997.702699
 30
0.0
 11
187970.080037
 21
80997.702699
 31
0.0
  0
LINE
  5
CC18
330
CD5D
100
AcDbEntity
  8
A221_記入文字
  6
Continuous
 62
     7
370
    13
100
AcDbLine
 10
187070.080037
 20
81897.702699
 30
0.0
 11
185270.080037
 21
81897.702699
 31
0.0
  0
LINE
  5
CC19
330
CD5D
100
AcDbEntity
  8
A221_記入文字
  6
Continuous
 62
     7
370
    13
100
AcDbLine
 10
187070.080037
 20
81447.702699
 30
0.0
 11
185270.080037
 21
81447.702699
 31
0.0
  0
LINE
  5
CC1A
330
CD5D
100
AcDbEntity
  8
A221_記入文字
  6
Continuous
 62
     7
370
    13
100
AcDbLine
 10
187070.080037
 20
80997.702699
 30
0.0
 11
185270.080037
 21
80997.702699
 31
0.0
  0
LINE
  5
CC1B
330
CD5D
100
AcDbEntity
  8
A221_記入文字
  6
Continuous
 62
     7
370
    13
100
AcDbLine
 10
187070.080037
 20
80997.702699
 30
0.0
 11
187070.080037
 21
81897.702699
 31
0.0
  0
LINE
  5
CC1C
330
CD5D
100
AcDbEntity
  8
A221_記入文字
  6
Continuous
 62
     7
370
    13
100
AcDbLine
 10
185270.080037
 20
80997.702699
 30
0.0
 11
185270.080037
 21
81897.702699
 31
0.0
  0
LINE
  5
CC1D
330
CD5D
100
AcDbEntity
  8
A221_記入文字
  6
Continuous
 62
     7
370
    13
100
AcDbLine
 10
187970.080037
 20
80997.702699
 30
0.0
 11
187970.080037
 21
81897.702699
 31
0.0
  0
LINE
  5
CC1E
330
CD5D
100
AcDbEntity
  8
A221_記入文字
  6
Continuous
 62
     7
370
    13
100
AcDbLine
 10
189770.080037
 20
80997.702699
 30
0.0
 11
189770.080037
 21
81897.702699
 31
0.0
  0
LINE
  5
CC1F
330
CD5D
100
AcDbEntity
  8
A822_別途：家具
  6
Continuous
 62
     7
370
     9
100
AcDbLine
 10
189010.080037
 20
82177.702699
 30
0.0
 11
188730.080037
 21
82177.702699
 31
0.0
  0
LINE
  5
CC20
330
CD5D
100
AcDbEntity
  8
A822_別途：家具
  6
Continuous
 62
     7
370
    13
100
AcDbLine
 10
188720.080037
 20
82177.702699
 30
0.0
 11
188720.080037
 21
81897.702699
 31
0.0
  0
LINE
  5
CC21
330
CD5D
100
AcDbEntity
  8
A822_別途：家具
  6
Continuous
 62
     7
370
    13
100
AcDbLine
 10
189020.080037
 20
82177.702699
 30
0.0
 11
189020.080037
 21
81897.702699
 31
0.0
  0
ELLIPSE
  5
CC22
330
CD5D
100
AcDbEntity
  8
A822_別途：家具
  6
Continuous
 62
     7
370
    13
100
AcDbEllipse
 10
188870.080037
 20
82177.702699
 30
0.0
 11
-150.0000000000116
 21
0.0
 31
0.0
210
0.0
220
0.0
230
-1.0
 40
0.3333333333333075
 41
0.0
 42
3.141592653589793
  0
LINE
  5
CC23
330
CD5D
100
AcDbEntity
  8
A822_別途：家具
  6
Continuous
 62
     7
370
     9
100
AcDbLine
 10
189010.080037
 20
82177.702699
 30
0.0
 11
189010.080037
 21
81897.702699
 31
0.0
  0
LINE
  5
CC24
330
CD5D
100
AcDbEntity
  8
A822_別途：家具
  6
Continuous
 62
     7
370
     9
100
AcDbLine
 10
188730.080037
 20
82177.702699
 30
0.0
 11
188730.080037
 21
81897.702699
 31
0.0
  0
SPLINE
  5
CC25
330
CD5D
100
AcDbEntity
  8
A822_別途：家具
  6
Continuous
 62
     7
370
     9
100
AcDbSpline
210
0.0
220
0.0
230
1.0
 70
     8
 71
     3
 72
    18
 73
    14
 74
     0
 42
0.0000000001
 43
0.0000000001
 40
0.0
 40
0.0
 40
0.0
 40
0.0
 40
0.125
 40
0.125
 40
0.25
 40
0.25
 40
0.5
 40
0.5
 40
0.75
 40
0.75
 40
0.875
 40
0.875
 40
1.0
 40
1.0
 40
1.0
 40
1.0
 10
188730.0800371448
 20
82177.70269919899
 30
0.0
 10
188730.0800371449
 20
82180.54227096033
 30
0.0
 10
188731.8580877433
 20
82184.41469164019
 30
0.0
 10
188744.2670845314
 20
82194.18708434984
 30
0.0
 10
188754.344450402
 20
82199.28005762291
 30
0.0
 10
188792.9023856864
 20
82212.13270271773
 30
0.0
 10
188829.5884927034
 20
82217.70269919899
 30
0.0
 10
188910.5715815863
 20
82217.70269919899
 30
0.0
 10
188947.2576886032
 20
82212.13270271773
 30
0.0
 10
188985.8156238877
 20
82199.28005762291
 30
0.0
 10
188995.8929897584
 20
82194.18708434984
 30
0.0
 10
189008.3019865464
 20
82184.41469164019
 30
0.0
 10
189010.0800371448
 20
82180.54227096033
 30
0.0
 10
189010.0800371448
 20
82177.70269919899
 30
0.0
  0
LINE
  5
CC28
330
CD5D
100
AcDbEntity
  8
A822_別途：家具
  6
Continuous
 62
     7
370
     9
100
AcDbLine
 10
189535.080037
 20
82177.702699
 30
0.0
 11
189255.080037
 21
82177.702699
 31
0.0
  0
LINE
  5
CC29
330
CD5D
100
AcDbEntity
  8
A822_別途：家具
  6
Continuous
 62
     7
370
    13
100
AcDbLine
 10
189245.080037
 20
82177.702699
 30
0.0
 11
189245.080037
 21
81897.702699
 31
0.0
  0
LINE
  5
CC2A
330
CD5D
100
AcDbEntity
  8
A822_別途：家具
  6
Continuous
 62
     7
370
    13
100
AcDbLine
 10
189545.080037
 20
82177.702699
 30
0.0
 11
189545.080037
 21
81897.702699
 31
0.0
  0
ELLIPSE
  5
CC2B
330
CD5D
100
AcDbEntity
  8
A822_別途：家具
  6
Continuous
 62
     7
370
    13
100
AcDbEllipse
 10
189395.080037
 20
82177.702699
 30
0.0
 11
-150.0000000000116
 21
0.0
 31
0.0
210
0.0
220
0.0
230
-1.0
 40
0.3333333333333075
 41
0.0
 42
3.141592653589793
  0
LINE
  5
CC2C
330
CD5D
100
AcDbEntity
  8
A822_別途：家具
  6
Continuous
 62
     7
370
     9
100
AcDbLine
 10
189535.080037
 20
82177.702699
 30
0.0
 11
189535.080037
 21
81897.702699
 31
0.0
  0
LINE
  5
CC2D
330
CD5D
100
AcDbEntity
  8
A822_別途：家具
  6
Continuous
 62
     7
370
     9
100
AcDbLine
 10
189255.080037
 20
82177.702699
 30
0.0
 11
189255.080037
 21
81897.702699
 31
0.0
  0
SPLINE
  5
CC2E
330
CD5D
100
AcDbEntity
  8
A822_別途：家具
  6
Continuous
 62
     7
370
     9
100
AcDbSpline
210
0.0
220
0.0
230
1.0
 70
     8
 71
     3
 72
    18
 73
    14
 74
     0
 42
0.0000000001
 43
0.0000000001
 40
0.0
 40
0.0
 40
0.0
 40
0.0
 40
0.125
 40
0.125
 40
0.25
 40
0.25
 40
0.5
 40
0.5
 40
0.75
 40
0.75
 40
0.875
 40
0.875
 40
1.0
 40
1.0
 40
1.0
 40
1.0
 10
189255.0800371448
 20
82177.70269919899
 30
0.0
 10
189255.0800371449
 20
82180.54227096033
 30
0.0
 10
189256.8580877432
 20
82184.41469164019
 30
0.0
 10
189269.2670845313
 20
82194.18708434984
 30
0.0
 10
189279.344450402
 20
82199.28005762291
 30
0.0
 10
189317.9023856864
 20
82212.13270271773
 30
0.0
 10
189354.5884927034
 20
82217.70269919899
 30
0.0
 10
189435.5715815862
 20
82217.70269919899
 30
0.0
 10
189472.2576886032
 20
82212.13270271773
 30
0.0
 10
189510.8156238877
 20
82199.28005762291
 30
0.0
 10
189520.8929897584
 20
82194.18708434984
 30
0.0
 10
189533.3019865464
 20
82184.41469164019
 30
0.0
 10
189535.0800371448
 20
82180.54227096033
 30
0.0
 10
189535.0800371448
 20
82177.70269919899
 30
0.0
  0
LINE
  5
CC31
330
CD5D
100
AcDbEntity
  8
A822_別途：家具
  6
Continuous
 62
     7
370
     9
100
AcDbLine
 10
188485.080037
 20
82177.702699
 30
0.0
 11
188205.080037
 21
82177.702699
 31
0.0
  0
LINE
  5
CC32
330
CD5D
100
AcDbEntity
  8
A822_別途：家具
  6
Continuous
 62
     7
370
    13
100
AcDbLine
 10
188195.080037
 20
82177.702699
 30
0.0
 11
188195.080037
 21
81897.702699
 31
0.0
  0
LINE
  5
CC33
330
CD5D
100
AcDbEntity
  8
A822_別途：家具
  6
Continuous
 62
     7
370
    13
100
AcDbLine
 10
188495.080037
 20
82177.702699
 30
0.0
 11
188495.080037
 21
81897.702699
 31
0.0
  0
ELLIPSE
  5
CC34
330
CD5D
100
AcDbEntity
  8
A822_別途：家具
  6
Continuous
 62
     7
370
    13
100
AcDbEllipse
 10
188345.080037
 20
82177.702699
 30
0.0
 11
-150.0000000000116
 21
0.0
 31
0.0
210
0.0
220
0.0
230
-1.0
 40
0.3333333333333075
 41
0.0
 42
3.141592653589793
  0
LINE
  5
CC35
330
CD5D
100
AcDbEntity
  8
A822_別途：家具
  6
Continuous
 62
     7
370
     9
100
AcDbLine
 10
188485.080037
 20
82177.702699
 30
0.0
 11
188485.080037
 21
81897.702699
 31
0.0
  0
LINE
  5
CC36
330
CD5D
100
AcDbEntity
  8
A822_別途：家具
  6
Continuous
 62
     7
370
     9
100
AcDbLine
 10
188205.080037
 20
82177.702699
 30
0.0
 11
188205.080037
 21
81897.702699
 31
0.0
  0
SPLINE
  5
CC37
330
CD5D
100
AcDbEntity
  8
A822_別途：家具
  6
Continuous
 62
     7
370
     9
100
AcDbSpline
210
0.0
220
0.0
230
1.0
 70
     8
 71
     3
 72
    18
 73
    14
 74
     0
 42
0.0000000001
 43
0.0000000001
 40
0.0
 40
0.0
 40
0.0
 40
0.0
 40
0.125
 40
0.125
 40
0.25
 40
0.25
 40
0.5
 40
0.5
 40
0.75
 40
0.75
 40
0.875
 40
0.875
 40
1.0
 40
1.0
 40
1.0
 40
1.0
 10
188205.0800371448
 20
82177.70269919899
 30
0.0
 10
188205.0800371448
 20
82180.54227096033
 30
0.0
 10
188206.8580877432
 20
82184.41469164019
 30
0.0
 10
188219.2670845313
 20
82194.18708434984
 30
0.0
 10
188229.344450402
 20
82199.28005762291
 30
0.0
 10
188267.9023856864
 20
82212.13270271773
 30
0.0
 10
188304.5884927034
 20
82217.70269919899
 30
0.0
 10
188385.5715815862
 20
82217.70269919899
 30
0.0
 10
188422.2576886033
 20
82212.13270271773
 30
0.0
 10
188460.8156238877
 20
82199.28005762291
 30
0.0
 10
188470.8929897584
 20
82194.18708434984
 30
0.0
 10
188483.3019865464
 20
82184.41469164019
 30
0.0
 10
188485.0800371448
 20
82180.54227096033
 30
0.0
 10
188485.0800371448
 20
82177.70269919899
 30
0.0
  0
LINE
  5
CC3A
330
CD5D
100
AcDbEntity
  8
A822_別途：家具
  6
Continuous
 62
     7
370
     9
100
AcDbLine
 10
189010.080037
 20
80717.702699
 30
0.0
 11
188730.080037
 21
80717.702699
 31
0.0
  0
LINE
  5
CC3B
330
CD5D
100
AcDbEntity
  8
A822_別途：家具
  6
Continuous
 62
     7
370
    13
100
AcDbLine
 10
188720.080037
 20
80717.702699
 30
0.0
 11
188720.080037
 21
80997.702699
 31
0.0
  0
LINE
  5
CC3C
330
CD5D
100
AcDbEntity
  8
A822_別途：家具
  6
Continuous
 62
     7
370
    13
100
AcDbLine
 10
189020.080037
 20
80717.702699
 30
0.0
 11
189020.080037
 21
80997.702699
 31
0.0
  0
ELLIPSE
  5
CC3D
330
CD5D
100
AcDbEntity
  8
A822_別途：家具
  6
Continuous
 62
     7
370
    13
100
AcDbEllipse
 10
188870.080037
 20
80717.702699
 30
0.0
 11
-150.0000000000116
 21
0.0
 31
0.0
210
0.0
220
0.0
230
1.0
 40
0.3333333333333075
 41
0.0
 42
3.141592653589793
  0
LINE
  5
CC3E
330
CD5D
100
AcDbEntity
  8
A822_別途：家具
  6
Continuous
 62
     7
370
     9
100
AcDbLine
 10
189010.080037
 20
80717.702699
 30
0.0
 11
189010.080037
 21
80997.702699
 31
0.0
  0
LINE
  5
CC3F
330
CD5D
100
AcDbEntity
  8
A822_別途：家具
  6
Continuous
 62
     7
370
     9
100
AcDbLine
 10
188730.080037
 20
80717.702699
 30
0.0
 11
188730.080037
 21
80997.702699
 31
0.0
  0
SPLINE
  5
CC40
330
CD5D
100
AcDbEntity
  8
A822_別途：家具
  6
Continuous
 62
     7
370
     9
100
AcDbSpline
210
0.0
220
0.0
230
1.0
 70
     8
 71
     3
 72
    18
 73
    14
 74
     0
 42
0.0000000001
 43
0.0000000001
 40
0.0
 40
0.0
 40
0.0
 40
0.0
 40
0.125
 40
0.125
 40
0.25
 40
0.25
 40
0.5
 40
0.5
 40
0.75
 40
0.75
 40
0.875
 40
0.875
 40
1.0
 40
1.0
 40
1.0
 40
1.0
 10
188730.0800371448
 20
80717.70269919898
 30
0.0
 10
188730.0800371449
 20
80714.86312743765
 30
0.0
 10
188731.8580877433
 20
80710.99070675778
 30
0.0
 10
188744.2670845314
 20
80701.21831404813
 30
0.0
 10
188754.344450402
 20
80696.12534077506
 30
0.0
 10
188792.9023856864
 20
80683.27269568024
 30
0.0
 10
188829.5884927034
 20
80677.70269919899
 30
0.0
 10
188910.5715815863
 20
80677.70269919899
 30
0.0
 10
188947.2576886032
 20
80683.27269568024
 30
0.0
 10
188985.8156238877
 20
80696.12534077506
 30
0.0
 10
188995.8929897584
 20
80701.21831404813
 30
0.0
 10
189008.3019865464
 20
80710.99070675778
 30
0.0
 10
189010.0800371448
 20
80714.86312743765
 30
0.0
 10
189010.0800371448
 20
80717.70269919898
 30
0.0
  0
LINE
  5
CC43
330
CD5D
100
AcDbEntity
  8
A822_別途：家具
  6
Continuous
 62
     7
370
     9
100
AcDbLine
 10
189535.080037
 20
80717.702699
 30
0.0
 11
189255.080037
 21
80717.702699
 31
0.0
  0
LINE
  5
CC44
330
CD5D
100
AcDbEntity
  8
A822_別途：家具
  6
Continuous
 62
     7
370
    13
100
AcDbLine
 10
189245.080037
 20
80717.702699
 30
0.0
 11
189245.080037
 21
80997.702699
 31
0.0
  0
LINE
  5
CC45
330
CD5D
100
AcDbEntity
  8
A822_別途：家具
  6
Continuous
 62
     7
370
    13
100
AcDbLine
 10
189545.080037
 20
80717.702699
 30
0.0
 11
189545.080037
 21
80997.702699
 31
0.0
  0
ELLIPSE
  5
CC46
330
CD5D
100
AcDbEntity
  8
A822_別途：家具
  6
Continuous
 62
     7
370
    13
100
AcDbEllipse
 10
189395.080037
 20
80717.702699
 30
0.0
 11
-150.0000000000116
 21
0.0
 31
0.0
210
0.0
220
0.0
230
1.0
 40
0.3333333333333075
 41
0.0
 42
3.141592653589793
  0
LINE
  5
CC47
330
CD5D
100
AcDbEntity
  8
A822_別途：家具
  6
Continuous
 62
     7
370
     9
100
AcDbLine
 10
189535.080037
 20
80717.702699
 30
0.0
 11
189535.080037
 21
80997.702699
 31
0.0
  0
LINE
  5
CC48
330
CD5D
100
AcDbEntity
  8
A822_別途：家具
  6
Continuous
 62
     7
370
     9
100
AcDbLine
 10
189255.080037
 20
80717.702699
 30
0.0
 11
189255.080037
 21
80997.702699
 31
0.0
  0
SPLINE
  5
CC49
330
CD5D
100
AcDbEntity
  8
A822_別途：家具
  6
Continuous
 62
     7
370
     9
100
AcDbSpline
210
0.0
220
0.0
230
1.0
 70
     8
 71
     3
 72
    18
 73
    14
 74
     0
 42
0.0000000001
 43
0.0000000001
 40
0.0
 40
0.0
 40
0.0
 40
0.0
 40
0.125
 40
0.125
 40
0.25
 40
0.25
 40
0.5
 40
0.5
 40
0.75
 40
0.75
 40
0.875
 40
0.875
 40
1.0
 40
1.0
 40
1.0
 40
1.0
 10
189255.0800371448
 20
80717.70269919898
 30
0.0
 10
189255.0800371449
 20
80714.86312743765
 30
0.0
 10
189256.8580877432
 20
80710.99070675778
 30
0.0
 10
189269.2670845313
 20
80701.21831404813
 30
0.0
 10
189279.344450402
 20
80696.12534077506
 30
0.0
 10
189317.9023856864
 20
80683.27269568024
 30
0.0
 10
189354.5884927034
 20
80677.70269919899
 30
0.0
 10
189435.5715815862
 20
80677.70269919899
 30
0.0
 10
189472.2576886032
 20
80683.27269568024
 30
0.0
 10
189510.8156238877
 20
80696.12534077506
 30
0.0
 10
189520.8929897584
 20
80701.21831404813
 30
0.0
 10
189533.3019865464
 20
80710.99070675778
 30
0.0
 10
189535.0800371448
 20
80714.86312743765
 30
0.0
 10
189535.0800371448
 20
80717.70269919898
 30
0.0
  0
LINE
  5
CC4C
330
CD5D
100
AcDbEntity
  8
A822_別途：家具
  6
Continuous
 62
     7
370
     9
100
AcDbLine
 10
188485.080037
 20
80717.702699
 30
0.0
 11
188205.080037
 21
80717.702699
 31
0.0
  0
LINE
  5
CC4D
330
CD5D
100
AcDbEntity
  8
A822_別途：家具
  6
Continuous
 62
     7
370
    13
100
AcDbLine
 10
188195.080037
 20
80717.702699
 30
0.0
 11
188195.080037
 21
80997.702699
 31
0.0
  0
LINE
  5
CC4E
330
CD5D
100
AcDbEntity
  8
A822_別途：家具
  6
Continuous
 62
     7
370
    13
100
AcDbLine
 10
188495.080037
 20
80717.702699
 30
0.0
 11
188495.080037
 21
80997.702699
 31
0.0
  0
ELLIPSE
  5
CC4F
330
CD5D
100
AcDbEntity
  8
A822_別途：家具
  6
Continuous
 62
     7
370
    13
100
AcDbEllipse
 10
188345.080037
 20
80717.702699
 30
0.0
 11
-150.0000000000116
 21
0.0
 31
0.0
210
0.0
220
0.0
230
1.0
 40
0.3333333333333075
 41
0.0
 42
3.141592653589793
  0
LINE
  5
CC50
330
CD5D
100
AcDbEntity
  8
A822_別途：家具
  6
Continuous
 62
     7
370
     9
100
AcDbLine
 10
188485.080037
 20
80717.702699
 30
0.0
 11
188485.080037
 21
80997.702699
 31
0.0
  0
LINE
  5
CC51
330
CD5D
100
AcDbEntity
  8
A822_別途：家具
  6
Continuous
 62
     7
370
     9
100
AcDbLine
 10
188205.080037
 20
80717.702699
 30
0.0
 11
188205.080037
 21
80997.702699
 31
0.0
  0
SPLINE
  5
CC52
330
CD5D
100
AcDbEntity
  8
A822_別途：家具
  6
Continuous
 62
     7
370
     9
100
AcDbSpline
210
0.0
220
0.0
230
1.0
 70
     8
 71
     3
 72
    18
 73
    14
 74
     0
 42
0.0000000001
 43
0.0000000001
 40
0.0
 40
0.0
 40
0.0
 40
0.0
 40
0.125
 40
0.125
 40
0.25
 40
0.25
 40
0.5
 40
0.5
 40
0.75
 40
0.75
 40
0.875
 40
0.875
 40
1.0
 40
1.0
 40
1.0
 40
1.0
 10
188205.0800371448
 20
80717.70269919898
 30
0.0
 10
188205.0800371448
 20
80714.86312743765
 30
0.0
 10
188206.8580877432
 20
80710.99070675778
 30
0.0
 10
188219.2670845313
 20
80701.21831404813
 30
0.0
 10
188229.344450402
 20
80696.12534077506
 30
0.0
 10
188267.9023856864
 20
80683.27269568024
 30
0.0
 10
188304.5884927034
 20
80677.70269919899
 30
0.0
 10
188385.5715815862
 20
80677.70269919899
 30
0.0
 10
188422.2576886033
 20
80683.27269568024
 30
0.0
 10
188460.8156238877
 20
80696.12534077506
 30
0.0
 10
188470.8929897584
 20
80701.21831404813
 30
0.0
 10
188483.3019865464
 20
80710.99070675778
 30
0.0
 10
188485.0800371448
 20
80714.86312743765
 30
0.0
 10
188485.0800371448
 20
80717.70269919898
 30
0.0
  0
LINE
  5
CC55
330
CD5D
100
AcDbEntity
  8
A822_別途：家具
  6
Continuous
 62
     7
370
     9
100
AcDbLine
 10
186310.080037
 20
82177.702699
 30
0.0
 11
186030.080037
 21
82177.702699
 31
0.0
  0
LINE
  5
CC56
330
CD5D
100
AcDbEntity
  8
A822_別途：家具
  6
Continuous
 62
     7
370
    13
100
AcDbLine
 10
186020.080037
 20
82177.702699
 30
0.0
 11
186020.080037
 21
81897.702699
 31
0.0
  0
LINE
  5
CC57
330
CD5D
100
AcDbEntity
  8
A822_別途：家具
  6
Continuous
 62
     7
370
    13
100
AcDbLine
 10
186320.080037
 20
82177.702699
 30
0.0
 11
186320.080037
 21
81897.702699
 31
0.0
  0
ELLIPSE
  5
CC58
330
CD5D
100
AcDbEntity
  8
A822_別途：家具
  6
Continuous
 62
     7
370
    13
100
AcDbEllipse
 10
186170.080037
 20
82177.702699
 30
0.0
 11
-150.0000000000116
 21
0.0
 31
0.0
210
0.0
220
0.0
230
-1.0
 40
0.3333333333333075
 41
0.0
 42
3.141592653589793
  0
LINE
  5
CC59
330
CD5D
100
AcDbEntity
  8
A822_別途：家具
  6
Continuous
 62
     7
370
     9
100
AcDbLine
 10
186310.080037
 20
82177.702699
 30
0.0
 11
186310.080037
 21
81897.702699
 31
0.0
  0
LINE
  5
CC5A
330
CD5D
100
AcDbEntity
  8
A822_別途：家具
  6
Continuous
 62
     7
370
     9
100
AcDbLine
 10
186030.080037
 20
82177.702699
 30
0.0
 11
186030.080037
 21
81897.702699
 31
0.0
  0
SPLINE
  5
CC5B
330
CD5D
100
AcDbEntity
  8
A822_別途：家具
  6
Continuous
 62
     7
370
     9
100
AcDbSpline
210
0.0
220
0.0
230
1.0
 70
     8
 71
     3
 72
    18
 73
    14
 74
     0
 42
0.0000000001
 43
0.0000000001
 40
0.0
 40
0.0
 40
0.0
 40
0.0
 40
0.125
 40
0.125
 40
0.25
 40
0.25
 40
0.5
 40
0.5
 40
0.75
 40
0.75
 40
0.875
 40
0.875
 40
1.0
 40
1.0
 40
1.0
 40
1.0
 10
186030.0800371448
 20
82177.70269919894
 30
0.0
 10
186030.0800371449
 20
82180.54227096029
 30
0.0
 10
186031.8580877433
 20
82184.41469164016
 30
0.0
 10
186044.2670845313
 20
82194.18708434981
 30
0.0
 10
186054.344450402
 20
82199.28005762286
 30
0.0
 10
186092.9023856865
 20
82212.13270271769
 30
0.0
 10
186129.5884927034
 20
82217.70269919893
 30
0.0
 10
186210.5715815863
 20
82217.70269919893
 30
0.0
 10
186247.2576886033
 20
82212.13270271769
 30
0.0
 10
186285.8156238877
 20
82199.28005762286
 30
0.0
 10
186295.8929897585
 20
82194.18708434981
 30
0.0
 10
186308.3019865464
 20
82184.41469164016
 30
0.0
 10
186310.0800371448
 20
82180.54227096029
 30
0.0
 10
186310.0800371449
 20
82177.70269919894
 30
0.0
  0
LINE
  5
CC5E
330
CD5D
100
AcDbEntity
  8
A822_別途：家具
  6
Continuous
 62
     7
370
     9
100
AcDbLine
 10
186835.080037
 20
82177.702699
 30
0.0
 11
186555.080037
 21
82177.702699
 31
0.0
  0
LINE
  5
CC5F
330
CD5D
100
AcDbEntity
  8
A822_別途：家具
  6
Continuous
 62
     7
370
    13
100
AcDbLine
 10
186545.080037
 20
82177.702699
 30
0.0
 11
186545.080037
 21
81897.702699
 31
0.0
  0
LINE
  5
CC60
330
CD5D
100
AcDbEntity
  8
A822_別途：家具
  6
Continuous
 62
     7
370
    13
100
AcDbLine
 10
186845.080037
 20
82177.702699
 30
0.0
 11
186845.080037
 21
81897.702699
 31
0.0
  0
ELLIPSE
  5
CC61
330
CD5D
100
AcDbEntity
  8
A822_別途：家具
  6
Continuous
 62
     7
370
    13
100
AcDbEllipse
 10
186695.080037
 20
82177.702699
 30
0.0
 11
-150.0000000000116
 21
0.0
 31
0.0
210
0.0
220
0.0
230
-1.0
 40
0.3333333333333075
 41
0.0
 42
3.141592653589793
  0
LINE
  5
CC62
330
CD5D
100
AcDbEntity
  8
A822_別途：家具
  6
Continuous
 62
     7
370
     9
100
AcDbLine
 10
186835.080037
 20
82177.702699
 30
0.0
 11
186835.080037
 21
81897.702699
 31
0.0
  0
LINE
  5
CC63
330
CD5D
100
AcDbEntity
  8
A822_別途：家具
  6
Continuous
 62
     7
370
     9
100
AcDbLine
 10
186555.080037
 20
82177.702699
 30
0.0
 11
186555.080037
 21
81897.702699
 31
0.0
  0
SPLINE
  5
CC64
330
CD5D
100
AcDbEntity
  8
A822_別途：家具
  6
Continuous
 62
     7
370
     9
100
AcDbSpline
210
0.0
220
0.0
230
1.0
 70
     8
 71
     3
 72
    18
 73
    14
 74
     0
 42
0.0000000001
 43
0.0000000001
 40
0.0
 40
0.0
 40
0.0
 40
0.0
 40
0.125
 40
0.125
 40
0.25
 40
0.25
 40
0.5
 40
0.5
 40
0.75
 40
0.75
 40
0.875
 40
0.875
 40
1.0
 40
1.0
 40
1.0
 40
1.0
 10
186555.0800371449
 20
82177.70269919894
 30
0.0
 10
186555.0800371449
 20
82180.54227096029
 30
0.0
 10
186556.8580877433
 20
82184.41469164016
 30
0.0
 10
186569.2670845314
 20
82194.18708434981
 30
0.0
 10
186579.344450402
 20
82199.28005762286
 30
0.0
 10
186617.9023856864
 20
82212.13270271769
 30
0.0
 10
186654.5884927034
 20
82217.70269919893
 30
0.0
 10
186735.5715815862
 20
82217.70269919893
 30
0.0
 10
186772.2576886032
 20
82212.13270271769
 30
0.0
 10
186810.8156238877
 20
82199.28005762286
 30
0.0
 10
186820.8929897584
 20
82194.18708434981
 30
0.0
 10
186833.3019865464
 20
82184.41469164016
 30
0.0
 10
186835.0800371448
 20
82180.54227096029
 30
0.0
 10
186835.0800371448
 20
82177.70269919894
 30
0.0
  0
LINE
  5
CC67
330
CD5D
100
AcDbEntity
  8
A822_別途：家具
  6
Continuous
 62
     7
370
     9
100
AcDbLine
 10
185785.080037
 20
82177.702699
 30
0.0
 11
185505.080037
 21
82177.702699
 31
0.0
  0
LINE
  5
CC68
330
CD5D
100
AcDbEntity
  8
A822_別途：家具
  6
Continuous
 62
     7
370
    13
100
AcDbLine
 10
185495.080037
 20
82177.702699
 30
0.0
 11
185495.080037
 21
81897.702699
 31
0.0
  0
LINE
  5
CC69
330
CD5D
100
AcDbEntity
  8
A822_別途：家具
  6
Continuous
 62
     7
370
    13
100
AcDbLine
 10
185795.080037
 20
82177.702699
 30
0.0
 11
185795.080037
 21
81897.702699
 31
0.0
  0
ELLIPSE
  5
CC6A
330
CD5D
100
AcDbEntity
  8
A822_別途：家具
  6
Continuous
 62
     7
370
    13
100
AcDbEllipse
 10
185645.080037
 20
82177.702699
 30
0.0
 11
-150.0000000000116
 21
0.0
 31
0.0
210
0.0
220
0.0
230
-1.0
 40
0.3333333333333075
 41
0.0
 42
3.141592653589793
  0
LINE
  5
CC6B
330
CD5D
100
AcDbEntity
  8
A822_別途：家具
  6
Continuous
 62
     7
370
     9
100
AcDbLine
 10
185785.080037
 20
82177.702699
 30
0.0
 11
185785.080037
 21
81897.702699
 31
0.0
  0
LINE
  5
CC6C
330
CD5D
100
AcDbEntity
  8
A822_別途：家具
  6
Continuous
 62
     7
370
     9
100
AcDbLine
 10
185505.080037
 20
82177.702699
 30
0.0
 11
185505.080037
 21
81897.702699
 31
0.0
  0
SPLINE
  5
CC6D
330
CD5D
100
AcDbEntity
  8
A822_別途：家具
  6
Continuous
 62
     7
370
     9
100
AcDbSpline
210
0.0
220
0.0
230
1.0
 70
     8
 71
     3
 72
    18
 73
    14
 74
     0
 42
0.0000000001
 43
0.0000000001
 40
0.0
 40
0.0
 40
0.0
 40
0.0
 40
0.125
 40
0.125
 40
0.25
 40
0.25
 40
0.5
 40
0.5
 40
0.75
 40
0.75
 40
0.875
 40
0.875
 40
1.0
 40
1.0
 40
1.0
 40
1.0
 10
185505.0800371449
 20
82177.70269919894
 30
0.0
 10
185505.0800371449
 20
82180.54227096029
 30
0.0
 10
185506.8580877433
 20
82184.41469164016
 30
0.0
 10
185519.2670845314
 20
82194.18708434981
 30
0.0
 10
185529.344450402
 20
82199.28005762286
 30
0.0
 10
185567.9023856864
 20
82212.13270271769
 30
0.0
 10
185604.5884927034
 20
82217.70269919893
 30
0.0
 10
185685.5715815862
 20
82217.70269919893
 30
0.0
 10
185722.2576886032
 20
82212.13270271769
 30
0.0
 10
185760.8156238877
 20
82199.28005762286
 30
0.0
 10
185770.8929897584
 20
82194.18708434981
 30
0.0
 10
185783.3019865464
 20
82184.41469164016
 30
0.0
 10
185785.0800371448
 20
82180.54227096029
 30
0.0
 10
185785.0800371448
 20
82177.70269919894
 30
0.0
  0
LINE
  5
CC70
330
CD5D
100
AcDbEntity
  8
A822_別途：家具
  6
Continuous
 62
     7
370
     9
100
AcDbLine
 10
186310.080037
 20
80717.702699
 30
0.0
 11
186030.080037
 21
80717.702699
 31
0.0
  0
LINE
  5
CC71
330
CD5D
100
AcDbEntity
  8
A822_別途：家具
  6
Continuous
 62
     7
370
    13
100
AcDbLine
 10
186020.080037
 20
80717.702699
 30
0.0
 11
186020.080037
 21
80997.702699
 31
0.0
  0
LINE
  5
CC72
330
CD5D
100
AcDbEntity
  8
A822_別途：家具
  6
Continuous
 62
     7
370
    13
100
AcDbLine
 10
186320.080037
 20
80717.702699
 30
0.0
 11
186320.080037
 21
80997.702699
 31
0.0
  0
ELLIPSE
  5
CC73
330
CD5D
100
AcDbEntity
  8
A822_別途：家具
  6
Continuous
 62
     7
370
    13
100
AcDbEllipse
 10
186170.080037
 20
80717.702699
 30
0.0
 11
-150.0000000000116
 21
0.0
 31
0.0
210
0.0
220
0.0
230
1.0
 40
0.3333333333333075
 41
0.0
 42
3.141592653589793
  0
LINE
  5
CC74
330
CD5D
100
AcDbEntity
  8
A822_別途：家具
  6
Continuous
 62
     7
370
     9
100
AcDbLine
 10
186310.080037
 20
80717.702699
 30
0.0
 11
186310.080037
 21
80997.702699
 31
0.0
  0
LINE
  5
CC75
330
CD5D
100
AcDbEntity
  8
A822_別途：家具
  6
Continuous
 62
     7
370
     9
100
AcDbLine
 10
186030.080037
 20
80717.702699
 30
0.0
 11
186030.080037
 21
80997.702699
 31
0.0
  0
SPLINE
  5
CC76
330
CD5D
100
AcDbEntity
  8
A822_別途：家具
  6
Continuous
 62
     7
370
     9
100
AcDbSpline
210
0.0
220
0.0
230
1.0
 70
     8
 71
     3
 72
    18
 73
    14
 74
     0
 42
0.0000000001
 43
0.0000000001
 40
0.0
 40
0.0
 40
0.0
 40
0.0
 40
0.125
 40
0.125
 40
0.25
 40
0.25
 40
0.5
 40
0.5
 40
0.75
 40
0.75
 40
0.875
 40
0.875
 40
1.0
 40
1.0
 40
1.0
 40
1.0
 10
186030.0800371448
 20
80717.70269919895
 30
0.0
 10
186030.0800371449
 20
80714.86312743759
 30
0.0
 10
186031.8580877433
 20
80710.99070675773
 30
0.0
 10
186044.2670845313
 20
80701.21831404808
 30
0.0
 10
186054.344450402
 20
80696.12534077501
 30
0.0
 10
186092.9023856865
 20
80683.27269568019
 30
0.0
 10
186129.5884927034
 20
80677.70269919893
 30
0.0
 10
186210.5715815863
 20
80677.70269919893
 30
0.0
 10
186247.2576886033
 20
80683.27269568019
 30
0.0
 10
186285.8156238877
 20
80696.12534077501
 30
0.0
 10
186295.8929897585
 20
80701.21831404808
 30
0.0
 10
186308.3019865464
 20
80710.99070675773
 30
0.0
 10
186310.0800371448
 20
80714.86312743759
 30
0.0
 10
186310.0800371449
 20
80717.70269919895
 30
0.0
  0
LINE
  5
CC79
330
CD5D
100
AcDbEntity
  8
A822_別途：家具
  6
Continuous
 62
     7
370
     9
100
AcDbLine
 10
186835.080037
 20
80717.702699
 30
0.0
 11
186555.080037
 21
80717.702699
 31
0.0
  0
LINE
  5
CC7A
330
CD5D
100
AcDbEntity
  8
A822_別途：家具
  6
Continuous
 62
     7
370
    13
100
AcDbLine
 10
186545.080037
 20
80717.702699
 30
0.0
 11
186545.080037
 21
80997.702699
 31
0.0
  0
LINE
  5
CC7B
330
CD5D
100
AcDbEntity
  8
A822_別途：家具
  6
Continuous
 62
     7
370
    13
100
AcDbLine
 10
186845.080037
 20
80717.702699
 30
0.0
 11
186845.080037
 21
80997.702699
 31
0.0
  0
ELLIPSE
  5
CC7C
330
CD5D
100
AcDbEntity
  8
A822_別途：家具
  6
Continuous
 62
     7
370
    13
100
AcDbEllipse
 10
186695.080037
 20
80717.702699
 30
0.0
 11
-150.0000000000116
 21
0.0
 31
0.0
210
0.0
220
0.0
230
1.0
 40
0.3333333333333075
 41
0.0
 42
3.141592653589793
  0
LINE
  5
CC7D
330
CD5D
100
AcDbEntity
  8
A822_別途：家具
  6
Continuous
 62
     7
370
     9
100
AcDbLine
 10
186835.080037
 20
80717.702699
 30
0.0
 11
186835.080037
 21
80997.702699
 31
0.0
  0
LINE
  5
CC7E
330
CD5D
100
AcDbEntity
  8
A822_別途：家具
  6
Continuous
 62
     7
370
     9
100
AcDbLine
 10
186555.080037
 20
80717.702699
 30
0.0
 11
186555.080037
 21
80997.702699
 31
0.0
  0
SPLINE
  5
CC7F
330
CD5D
100
AcDbEntity
  8
A822_別途：家具
  6
Continuous
 62
     7
370
     9
100
AcDbSpline
210
0.0
220
0.0
230
1.0
 70
     8
 71
     3
 72
    18
 73
    14
 74
     0
 42
0.0000000001
 43
0.0000000001
 40
0.0
 40
0.0
 40
0.0
 40
0.0
 40
0.125
 40
0.125
 40
0.25
 40
0.25
 40
0.5
 40
0.5
 40
0.75
 40
0.75
 40
0.875
 40
0.875
 40
1.0
 40
1.0
 40
1.0
 40
1.0
 10
186555.0800371449
 20
80717.70269919895
 30
0.0
 10
186555.0800371449
 20
80714.86312743759
 30
0.0
 10
186556.8580877433
 20
80710.99070675773
 30
0.0
 10
186569.2670845314
 20
80701.21831404808
 30
0.0
 10
186579.344450402
 20
80696.12534077501
 30
0.0
 10
186617.9023856864
 20
80683.27269568019
 30
0.0
 10
186654.5884927034
 20
80677.70269919893
 30
0.0
 10
186735.5715815862
 20
80677.70269919893
 30
0.0
 10
186772.2576886032
 20
80683.27269568019
 30
0.0
 10
186810.8156238877
 20
80696.12534077501
 30
0.0
 10
186820.8929897584
 20
80701.21831404808
 30
0.0
 10
186833.3019865464
 20
80710.99070675773
 30
0.0
 10
186835.0800371448
 20
80714.86312743759
 30
0.0
 10
186835.0800371448
 20
80717.70269919895
 30
0.0
  0
LINE
  5
CC82
330
CD5D
100
AcDbEntity
  8
A822_別途：家具
  6
Continuous
 62
     7
370
     9
100
AcDbLine
 10
185785.080037
 20
80717.702699
 30
0.0
 11
185505.080037
 21
80717.702699
 31
0.0
  0
LINE
  5
CC83
330
CD5D
100
AcDbEntity
  8
A822_別途：家具
  6
Continuous
 62
     7
370
    13
100
AcDbLine
 10
185495.080037
 20
80717.702699
 30
0.0
 11
185495.080037
 21
80997.702699
 31
0.0
  0
LINE
  5
CC84
330
CD5D
100
AcDbEntity
  8
A822_別途：家具
  6
Continuous
 62
     7
370
    13
100
AcDbLine
 10
185795.080037
 20
80717.702699
 30
0.0
 11
185795.080037
 21
80997.702699
 31
0.0
  0
ELLIPSE
  5
CC85
330
CD5D
100
AcDbEntity
  8
A822_別途：家具
  6
Continuous
 62
     7
370
    13
100
AcDbEllipse
 10
185645.080037
 20
80717.702699
 30
0.0
 11
-150.0000000000116
 21
0.0
 31
0.0
210
0.0
220
0.0
230
1.0
 40
0.3333333333333075
 41
0.0
 42
3.141592653589793
  0
LINE
  5
CC86
330
CD5D
100
AcDbEntity
  8
A822_別途：家具
  6
Continuous
 62
     7
370
     9
100
AcDbLine
 10
185785.080037
 20
80717.702699
 30
0.0
 11
185785.080037
 21
80997.702699
 31
0.0
  0
LINE
  5
CC87
330
CD5D
100
AcDbEntity
  8
A822_別途：家具
  6
Continuous
 62
     7
370
     9
100
AcDbLine
 10
185505.080037
 20
80717.702699
 30
0.0
 11
185505.080037
 21
80997.702699
 31
0.0
  0
SPLINE
  5
CC88
330
CD5D
100
AcDbEntity
  8
A822_別途：家具
  6
Continuous
 62
     7
370
     9
100
AcDbSpline
210
0.0
220
0.0
230
1.0
 70
     8
 71
     3
 72
    18
 73
    14
 74
     0
 42
0.0000000001
 43
0.0000000001
 40
0.0
 40
0.0
 40
0.0
 40
0.0
 40
0.125
 40
0.125
 40
0.25
 40
0.25
 40
0.5
 40
0.5
 40
0.75
 40
0.75
 40
0.875
 40
0.875
 40
1.0
 40
1.0
 40
1.0
 40
1.0
 10
185505.0800371449
 20
80717.70269919895
 30
0.0
 10
185505.0800371449
 20
80714.86312743759
 30
0.0
 10
185506.8580877433
 20
80710.99070675773
 30
0.0
 10
185519.2670845314
 20
80701.21831404808
 30
0.0
 10
185529.344450402
 20
80696.12534077501
 30
0.0
 10
185567.9023856864
 20
80683.27269568019
 30
0.0
 10
185604.5884927034
 20
80677.70269919893
 30
0.0
 10
185685.5715815862
 20
80677.70269919893
 30
0.0
 10
185722.2576886032
 20
80683.27269568019
 30
0.0
 10
185760.8156238877
 20
80696.12534077501
 30
0.0
 10
185770.8929897584
 20
80701.21831404808
 30
0.0
 10
185783.3019865464
 20
80710.99070675773
 30
0.0
 10
185785.0800371448
 20
80714.86312743759
 30
0.0
 10
185785.0800371448
 20
80717.70269919895
 30
0.0
  0
LINE
  5
CC8B
330
CD5D
100
AcDbEntity
  8
A221_記入文字
  6
Continuous
 62
     7
370
    13
100
AcDbLine
 10
182570.080037
 20
81897.702699
 30
0.0
 11
184370.080037
 21
81897.702699
 31
0.0
  0
LINE
  5
CC8C
330
CD5D
100
AcDbEntity
  8
A221_記入文字
  6
Continuous
 62
     7
370
    13
100
AcDbLine
 10
182570.080037
 20
81447.702699
 30
0.0
 11
184370.080037
 21
81447.702699
 31
0.0
  0
LINE
  5
CC8D
330
CD5D
100
AcDbEntity
  8
A221_記入文字
  6
Continuous
 62
     7
370
    13
100
AcDbLine
 10
182570.080037
 20
80997.702699
 30
0.0
 11
184370.080037
 21
80997.702699
 31
0.0
  0
LINE
  5
CC8E
330
CD5D
100
AcDbEntity
  8
A221_記入文字
  6
Continuous
 62
     7
370
    13
100
AcDbLine
 10
184370.080037
 20
80997.702699
 30
0.0
 11
184370.080037
 21
81897.702699
 31
0.0
  0
LINE
  5
CC8F
330
CD5D
100
AcDbEntity
  8
A221_記入文字
  6
Continuous
 62
     7
370
    13
100
AcDbLine
 10
182570.080037
 20
80997.702699
 30
0.0
 11
182570.080037
 21
81897.702699
 31
0.0
  0
LINE
  5
CC90
330
CD5D
100
AcDbEntity
  8
A822_別途：家具
  6
Continuous
 62
     7
370
     9
100
AcDbLine
 10
183330.080037
 20
82177.702699
 30
0.0
 11
183610.080037
 21
82177.702699
 31
0.0
  0
LINE
  5
CC91
330
CD5D
100
AcDbEntity
  8
A822_別途：家具
  6
Continuous
 62
     7
370
    13
100
AcDbLine
 10
183620.080037
 20
82177.702699
 30
0.0
 11
183620.080037
 21
81897.702699
 31
0.0
  0
LINE
  5
CC92
330
CD5D
100
AcDbEntity
  8
A822_別途：家具
  6
Continuous
 62
     7
370
    13
100
AcDbLine
 10
183320.080037
 20
82177.702699
 30
0.0
 11
183320.080037
 21
81897.702699
 31
0.0
  0
ELLIPSE
  5
CC93
330
CD5D
100
AcDbEntity
  8
A822_別途：家具
  6
Continuous
 62
     7
370
    13
100
AcDbEllipse
 10
183470.080037
 20
82177.702699
 30
0.0
 11
150.0000000000116
 21
0.0
 31
0.0
210
0.0
220
0.0
230
1.0
 40
0.3333333333333075
 41
0.0
 42
3.141592653589793
  0
LINE
  5
CC94
330
CD5D
100
AcDbEntity
  8
A822_別途：家具
  6
Continuous
 62
     7
370
     9
100
AcDbLine
 10
183330.080037
 20
82177.702699
 30
0.0
 11
183330.080037
 21
81897.702699
 31
0.0
  0
LINE
  5
CC95
330
CD5D
100
AcDbEntity
  8
A822_別途：家具
  6
Continuous
 62
     7
370
     9
100
AcDbLine
 10
183610.080037
 20
82177.702699
 30
0.0
 11
183610.080037
 21
81897.702699
 31
0.0
  0
SPLINE
  5
CC96
330
CD5D
100
AcDbEntity
  8
A822_別途：家具
  6
Continuous
 62
     7
370
     9
100
AcDbSpline
210
0.0
220
0.0
230
1.0
 70
     8
 71
     3
 72
    18
 73
    14
 74
     0
 42
0.0000000001
 43
0.0000000001
 40
0.0
 40
0.0
 40
0.0
 40
0.0
 40
0.125
 40
0.125
 40
0.25
 40
0.25
 40
0.5
 40
0.5
 40
0.75
 40
0.75
 40
0.875
 40
0.875
 40
1.0
 40
1.0
 40
1.0
 40
1.0
 10
183610.0800371449
 20
82177.70269919899
 30
0.0
 10
183610.0800371448
 20
82180.54227096033
 30
0.0
 10
183608.3019865465
 20
82184.41469164019
 30
0.0
 10
183595.8929897584
 20
82194.18708434984
 30
0.0
 10
183585.8156238877
 20
82199.28005762291
 30
0.0
 10
183547.2576886033
 20
82212.13270271773
 30
0.0
 10
183510.5715815863
 20
82217.70269919899
 30
0.0
 10
183429.5884927035
 20
82217.70269919899
 30
0.0
 10
183392.9023856865
 20
82212.13270271773
 30
0.0
 10
183354.3444504021
 20
82199.28005762291
 30
0.0
 10
183344.2670845313
 20
82194.18708434984
 30
0.0
 10
183331.8580877433
 20
82184.41469164019
 30
0.0
 10
183330.0800371449
 20
82180.54227096033
 30
0.0
 10
183330.0800371449
 20
82177.70269919899
 30
0.0
  0
LINE
  5
CC99
330
CD5D
100
AcDbEntity
  8
A822_別途：家具
  6
Continuous
 62
     7
370
     9
100
AcDbLine
 10
182805.080037
 20
82177.702699
 30
0.0
 11
183085.080037
 21
82177.702699
 31
0.0
  0
LINE
  5
CC9A
330
CD5D
100
AcDbEntity
  8
A822_別途：家具
  6
Continuous
 62
     7
370
    13
100
AcDbLine
 10
183095.080037
 20
82177.702699
 30
0.0
 11
183095.080037
 21
81897.702699
 31
0.0
  0
LINE
  5
CC9B
330
CD5D
100
AcDbEntity
  8
A822_別途：家具
  6
Continuous
 62
     7
370
    13
100
AcDbLine
 10
182795.080037
 20
82177.702699
 30
0.0
 11
182795.080037
 21
81897.702699
 31
0.0
  0
ELLIPSE
  5
CC9C
330
CD5D
100
AcDbEntity
  8
A822_別途：家具
  6
Continuous
 62
     7
370
    13
100
AcDbEllipse
 10
182945.080037
 20
82177.702699
 30
0.0
 11
150.0000000000116
 21
0.0
 31
0.0
210
0.0
220
0.0
230
1.0
 40
0.3333333333333075
 41
0.0
 42
3.141592653589793
  0
LINE
  5
CC9D
330
CD5D
100
AcDbEntity
  8
A822_別途：家具
  6
Continuous
 62
     7
370
     9
100
AcDbLine
 10
182805.080037
 20
82177.702699
 30
0.0
 11
182805.080037
 21
81897.702699
 31
0.0
  0
LINE
  5
CC9E
330
CD5D
100
AcDbEntity
  8
A822_別途：家具
  6
Continuous
 62
     7
370
     9
100
AcDbLine
 10
183085.080037
 20
82177.702699
 30
0.0
 11
183085.080037
 21
81897.702699
 31
0.0
  0
SPLINE
  5
CC9F
330
CD5D
100
AcDbEntity
  8
A822_別途：家具
  6
Continuous
 62
     7
370
     9
100
AcDbSpline
210
0.0
220
0.0
230
1.0
 70
     8
 71
     3
 72
    18
 73
    14
 74
     0
 42
0.0000000001
 43
0.0000000001
 40
0.0
 40
0.0
 40
0.0
 40
0.0
 40
0.125
 40
0.125
 40
0.25
 40
0.25
 40
0.5
 40
0.5
 40
0.75
 40
0.75
 40
0.875
 40
0.875
 40
1.0
 40
1.0
 40
1.0
 40
1.0
 10
183085.0800371449
 20
82177.70269919899
 30
0.0
 10
183085.0800371448
 20
82180.54227096033
 30
0.0
 10
183083.3019865465
 20
82184.41469164019
 30
0.0
 10
183070.8929897584
 20
82194.18708434984
 30
0.0
 10
183060.8156238877
 20
82199.28005762291
 30
0.0
 10
183022.2576886033
 20
82212.13270271773
 30
0.0
 10
182985.5715815863
 20
82217.70269919899
 30
0.0
 10
182904.5884927035
 20
82217.70269919899
 30
0.0
 10
182867.9023856865
 20
82212.13270271773
 30
0.0
 10
182829.3444504021
 20
82199.28005762291
 30
0.0
 10
182819.2670845313
 20
82194.18708434984
 30
0.0
 10
182806.8580877434
 20
82184.41469164019
 30
0.0
 10
182805.0800371449
 20
82180.54227096033
 30
0.0
 10
182805.0800371449
 20
82177.70269919899
 30
0.0
  0
LINE
  5
CCA2
330
CD5D
100
AcDbEntity
  8
A822_別途：家具
  6
Continuous
 62
     7
370
     9
100
AcDbLine
 10
183855.080037
 20
82177.702699
 30
0.0
 11
184135.080037
 21
82177.702699
 31
0.0
  0
LINE
  5
CCA3
330
CD5D
100
AcDbEntity
  8
A822_別途：家具
  6
Continuous
 62
     7
370
    13
100
AcDbLine
 10
184145.080037
 20
82177.702699
 30
0.0
 11
184145.080037
 21
81897.702699
 31
0.0
  0
LINE
  5
CCA4
330
CD5D
100
AcDbEntity
  8
A822_別途：家具
  6
Continuous
 62
     7
370
    13
100
AcDbLine
 10
183845.080037
 20
82177.702699
 30
0.0
 11
183845.080037
 21
81897.702699
 31
0.0
  0
ELLIPSE
  5
CCA5
330
CD5D
100
AcDbEntity
  8
A822_別途：家具
  6
Continuous
 62
     7
370
    13
100
AcDbEllipse
 10
183995.080037
 20
82177.702699
 30
0.0
 11
150.0000000000116
 21
0.0
 31
0.0
210
0.0
220
0.0
230
1.0
 40
0.3333333333333075
 41
0.0
 42
3.141592653589793
  0
LINE
  5
CCA6
330
CD5D
100
AcDbEntity
  8
A822_別途：家具
  6
Continuous
 62
     7
370
     9
100
AcDbLine
 10
183855.080037
 20
82177.702699
 30
0.0
 11
183855.080037
 21
81897.702699
 31
0.0
  0
LINE
  5
CCA7
330
CD5D
100
AcDbEntity
  8
A822_別途：家具
  6
Continuous
 62
     7
370
     9
100
AcDbLine
 10
184135.080037
 20
82177.702699
 30
0.0
 11
184135.080037
 21
81897.702699
 31
0.0
  0
SPLINE
  5
CCA8
330
CD5D
100
AcDbEntity
  8
A822_別途：家具
  6
Continuous
 62
     7
370
     9
100
AcDbSpline
210
0.0
220
0.0
230
1.0
 70
     8
 71
     3
 72
    18
 73
    14
 74
     0
 42
0.0000000001
 43
0.0000000001
 40
0.0
 40
0.0
 40
0.0
 40
0.0
 40
0.125
 40
0.125
 40
0.25
 40
0.25
 40
0.5
 40
0.5
 40
0.75
 40
0.75
 40
0.875
 40
0.875
 40
1.0
 40
1.0
 40
1.0
 40
1.0
 10
184135.0800371449
 20
82177.70269919899
 30
0.0
 10
184135.0800371449
 20
82180.54227096033
 30
0.0
 10
184133.3019865465
 20
82184.41469164019
 30
0.0
 10
184120.8929897584
 20
82194.18708434984
 30
0.0
 10
184110.8156238877
 20
82199.28005762291
 30
0.0
 10
184072.2576886033
 20
82212.13270271773
 30
0.0
 10
184035.5715815864
 20
82217.70269919899
 30
0.0
 10
183954.5884927035
 20
82217.70269919899
 30
0.0
 10
183917.9023856865
 20
82212.13270271773
 30
0.0
 10
183879.3444504021
 20
82199.28005762291
 30
0.0
 10
183869.2670845313
 20
82194.18708434984
 30
0.0
 10
183856.8580877433
 20
82184.41469164019
 30
0.0
 10
183855.0800371449
 20
82180.54227096033
 30
0.0
 10
183855.0800371449
 20
82177.70269919899
 30
0.0
  0
LINE
  5
CCAB
330
CD5D
100
AcDbEntity
  8
A822_別途：家具
  6
Continuous
 62
     7
370
     9
100
AcDbLine
 10
183330.080037
 20
80717.702699
 30
0.0
 11
183610.080037
 21
80717.702699
 31
0.0
  0
LINE
  5
CCAC
330
CD5D
100
AcDbEntity
  8
A822_別途：家具
  6
Continuous
 62
     7
370
    13
100
AcDbLine
 10
183620.080037
 20
80717.702699
 30
0.0
 11
183620.080037
 21
80997.702699
 31
0.0
  0
LINE
  5
CCAD
330
CD5D
100
AcDbEntity
  8
A822_別途：家具
  6
Continuous
 62
     7
370
    13
100
AcDbLine
 10
183320.080037
 20
80717.702699
 30
0.0
 11
183320.080037
 21
80997.702699
 31
0.0
  0
ELLIPSE
  5
CCAE
330
CD5D
100
AcDbEntity
  8
A822_別途：家具
  6
Continuous
 62
     7
370
    13
100
AcDbEllipse
 10
183470.080037
 20
80717.702699
 30
0.0
 11
150.0000000000116
 21
0.0
 31
0.0
210
0.0
220
0.0
230
-1.0
 40
0.3333333333333075
 41
0.0
 42
3.141592653589793
  0
LINE
  5
CCAF
330
CD5D
100
AcDbEntity
  8
A822_別途：家具
  6
Continuous
 62
     7
370
     9
100
AcDbLine
 10
183330.080037
 20
80717.702699
 30
0.0
 11
183330.080037
 21
80997.702699
 31
0.0
  0
LINE
  5
CCB0
330
CD5D
100
AcDbEntity
  8
A822_別途：家具
  6
Continuous
 62
     7
370
     9
100
AcDbLine
 10
183610.080037
 20
80717.702699
 30
0.0
 11
183610.080037
 21
80997.702699
 31
0.0
  0
SPLINE
  5
CCB1
330
CD5D
100
AcDbEntity
  8
A822_別途：家具
  6
Continuous
 62
     7
370
     9
100
AcDbSpline
210
0.0
220
0.0
230
1.0
 70
     8
 71
     3
 72
    18
 73
    14
 74
     0
 42
0.0000000001
 43
0.0000000001
 40
0.0
 40
0.0
 40
0.0
 40
0.0
 40
0.125
 40
0.125
 40
0.25
 40
0.25
 40
0.5
 40
0.5
 40
0.75
 40
0.75
 40
0.875
 40
0.875
 40
1.0
 40
1.0
 40
1.0
 40
1.0
 10
183610.0800371449
 20
80717.70269919898
 30
0.0
 10
183610.0800371448
 20
80714.86312743765
 30
0.0
 10
183608.3019865465
 20
80710.99070675778
 30
0.0
 10
183595.8929897584
 20
80701.21831404813
 30
0.0
 10
183585.8156238877
 20
80696.12534077506
 30
0.0
 10
183547.2576886033
 20
80683.27269568024
 30
0.0
 10
183510.5715815863
 20
80677.70269919899
 30
0.0
 10
183429.5884927035
 20
80677.70269919899
 30
0.0
 10
183392.9023856865
 20
80683.27269568024
 30
0.0
 10
183354.3444504021
 20
80696.12534077506
 30
0.0
 10
183344.2670845313
 20
80701.21831404813
 30
0.0
 10
183331.8580877433
 20
80710.99070675778
 30
0.0
 10
183330.0800371449
 20
80714.86312743765
 30
0.0
 10
183330.0800371449
 20
80717.70269919898
 30
0.0
  0
LINE
  5
CCB4
330
CD5D
100
AcDbEntity
  8
A822_別途：家具
  6
Continuous
 62
     7
370
     9
100
AcDbLine
 10
182805.080037
 20
80717.702699
 30
0.0
 11
183085.080037
 21
80717.702699
 31
0.0
  0
LINE
  5
CCB5
330
CD5D
100
AcDbEntity
  8
A822_別途：家具
  6
Continuous
 62
     7
370
    13
100
AcDbLine
 10
183095.080037
 20
80717.702699
 30
0.0
 11
183095.080037
 21
80997.702699
 31
0.0
  0
LINE
  5
CCB6
330
CD5D
100
AcDbEntity
  8
A822_別途：家具
  6
Continuous
 62
     7
370
    13
100
AcDbLine
 10
182795.080037
 20
80717.702699
 30
0.0
 11
182795.080037
 21
80997.702699
 31
0.0
  0
ELLIPSE
  5
CCB7
330
CD5D
100
AcDbEntity
  8
A822_別途：家具
  6
Continuous
 62
     7
370
    13
100
AcDbEllipse
 10
182945.080037
 20
80717.702699
 30
0.0
 11
150.0000000000116
 21
0.0
 31
0.0
210
0.0
220
0.0
230
-1.0
 40
0.3333333333333075
 41
0.0
 42
3.141592653589793
  0
LINE
  5
CCB8
330
CD5D
100
AcDbEntity
  8
A822_別途：家具
  6
Continuous
 62
     7
370
     9
100
AcDbLine
 10
182805.080037
 20
80717.702699
 30
0.0
 11
182805.080037
 21
80997.702699
 31
0.0
  0
LINE
  5
CCB9
330
CD5D
100
AcDbEntity
  8
A822_別途：家具
  6
Continuous
 62
     7
370
     9
100
AcDbLine
 10
183085.080037
 20
80717.702699
 30
0.0
 11
183085.080037
 21
80997.702699
 31
0.0
  0
SPLINE
  5
CCBA
330
CD5D
100
AcDbEntity
  8
A822_別途：家具
  6
Continuous
 62
     7
370
     9
100
AcDbSpline
210
0.0
220
0.0
230
1.0
 70
     8
 71
     3
 72
    18
 73
    14
 74
     0
 42
0.0000000001
 43
0.0000000001
 40
0.0
 40
0.0
 40
0.0
 40
0.0
 40
0.125
 40
0.125
 40
0.25
 40
0.25
 40
0.5
 40
0.5
 40
0.75
 40
0.75
 40
0.875
 40
0.875
 40
1.0
 40
1.0
 40
1.0
 40
1.0
 10
183085.0800371449
 20
80717.70269919898
 30
0.0
 10
183085.0800371448
 20
80714.86312743765
 30
0.0
 10
183083.3019865465
 20
80710.99070675778
 30
0.0
 10
183070.8929897584
 20
80701.21831404813
 30
0.0
 10
183060.8156238877
 20
80696.12534077506
 30
0.0
 10
183022.2576886033
 20
80683.27269568024
 30
0.0
 10
182985.5715815863
 20
80677.70269919899
 30
0.0
 10
182904.5884927035
 20
80677.70269919899
 30
0.0
 10
182867.9023856865
 20
80683.27269568024
 30
0.0
 10
182829.3444504021
 20
80696.12534077506
 30
0.0
 10
182819.2670845313
 20
80701.21831404813
 30
0.0
 10
182806.8580877434
 20
80710.99070675778
 30
0.0
 10
182805.0800371449
 20
80714.86312743765
 30
0.0
 10
182805.0800371449
 20
80717.70269919898
 30
0.0
  0
LINE
  5
CCBD
330
CD5D
100
AcDbEntity
  8
A822_別途：家具
  6
Continuous
 62
     7
370
     9
100
AcDbLine
 10
183855.080037
 20
80717.702699
 30
0.0
 11
184135.080037
 21
80717.702699
 31
0.0
  0
LINE
  5
CCBE
330
CD5D
100
AcDbEntity
  8
A822_別途：家具
  6
Continuous
 62
     7
370
    13
100
AcDbLine
 10
184145.080037
 20
80717.702699
 30
0.0
 11
184145.080037
 21
80997.702699
 31
0.0
  0
LINE
  5
CCBF
330
CD5D
100
AcDbEntity
  8
A822_別途：家具
  6
Continuous
 62
     7
370
    13
100
AcDbLine
 10
183845.080037
 20
80717.702699
 30
0.0
 11
183845.080037
 21
80997.702699
 31
0.0
  0
ELLIPSE
  5
CCC0
330
CD5D
100
AcDbEntity
  8
A822_別途：家具
  6
Continuous
 62
     7
370
    13
100
AcDbEllipse
 10
183995.080037
 20
80717.702699
 30
0.0
 11
150.0000000000116
 21
0.0
 31
0.0
210
0.0
220
0.0
230
-1.0
 40
0.3333333333333075
 41
0.0
 42
3.141592653589793
  0
LINE
  5
CCC1
330
CD5D
100
AcDbEntity
  8
A822_別途：家具
  6
Continuous
 62
     7
370
     9
100
AcDbLine
 10
183855.080037
 20
80717.702699
 30
0.0
 11
183855.080037
 21
80997.702699
 31
0.0
  0
LINE
  5
CCC2
330
CD5D
100
AcDbEntity
  8
A822_別途：家具
  6
Continuous
 62
     7
370
     9
100
AcDbLine
 10
184135.080037
 20
80717.702699
 30
0.0
 11
184135.080037
 21
80997.702699
 31
0.0
  0
SPLINE
  5
CCC3
330
CD5D
100
AcDbEntity
  8
A822_別途：家具
  6
Continuous
 62
     7
370
     9
100
AcDbSpline
210
0.0
220
0.0
230
1.0
 70
     8
 71
     3
 72
    18
 73
    14
 74
     0
 42
0.0000000001
 43
0.0000000001
 40
0.0
 40
0.0
 40
0.0
 40
0.0
 40
0.125
 40
0.125
 40
0.25
 40
0.25
 40
0.5
 40
0.5
 40
0.75
 40
0.75
 40
0.875
 40
0.875
 40
1.0
 40
1.0
 40
1.0
 40
1.0
 10
184135.0800371449
 20
80717.70269919898
 30
0.0
 10
184135.0800371449
 20
80714.86312743765
 30
0.0
 10
184133.3019865465
 20
80710.99070675778
 30
0.0
 10
184120.8929897584
 20
80701.21831404813
 30
0.0
 10
184110.8156238877
 20
80696.12534077506
 30
0.0
 10
184072.2576886033
 20
80683.27269568024
 30
0.0
 10
184035.5715815864
 20
80677.70269919899
 30
0.0
 10
183954.5884927035
 20
80677.70269919899
 30
0.0
 10
183917.9023856865
 20
80683.27269568024
 30
0.0
 10
183879.3444504021
 20
80696.12534077506
 30
0.0
 10
183869.2670845313
 20
80701.21831404813
 30
0.0
 10
183856.8580877433
 20
80710.99070675778
 30
0.0
 10
183855.0800371449
 20
80714.86312743765
 30
0.0
 10
183855.0800371449
 20
80717.70269919898
 30
0.0
  0
ENDSEC
  0
SECTION
  2
OBJECTS
  0
DICTIONARY
  5
CD62
330
0
100
AcDbDictionary
281
     1
  3
ACAD_COLOR
350
CD9E
  3
ACAD_GROUP
350
CD8B
  3
ACAD_LAYOUT
350
CD6F
  3
ACAD_MATERIAL
350
CD64
  3
ACAD_MLEADERSTYLE
350
CDA1
  3
ACAD_MLINESTYLE
350
CD8C
  3
ACAD_PLOTSETTINGS
350
CD8D
  3
ACAD_PLOTSTYLENAME
350
CD61
  3
ACAD_SCALELIST
350
CD9F
  3
ACAD_TABLESTYLE
350
CDA0
  3
ACAD_VISUALSTYLE
350
CD85
  3
ACDB_RECOMPOSE_DATA
350
CDCA
  3
AcDbVariableDictionary
350
CDC3
  3
MicroStation
350
CDB9
  0
DICTIONARY
  5
CD78
330
CD77
100
AcDbDictionary
280
     1
281
     1
  3
ACAD_LAYERSTATES
360
CD79
  0
DICTIONARY
  5
CD9E
102
{ACAD_REACTORS
330
CD62
102
}
330
CD62
100
AcDbDictionary
281
     1
  0
DICTIONARY
  5
CD8B
102
{ACAD_REACTORS
330
CD62
102
}
330
CD62
100
AcDbDictionary
281
     1
  0
DICTIONARY
  5
CD6F
102
{ACAD_REACTORS
330
CD62
102
}
330
CD62
100
AcDbDictionary
281
     1
  3
Layout1
350
CD74
  3
Model
350
CD6E
  0
DICTIONARY
  5
CD64
102
{ACAD_REACTORS
330
CD62
102
}
330
CD62
100
AcDbDictionary
281
     1
  3
ByBlock
350
CD96
  3
ByLayer
350
CD8E
  3
Global
350
CD63
  0
DICTIONARY
  5
CDA1
102
{ACAD_REACTORS
330
CD62
102
}
330
CD62
100
AcDbDictionary
281
     1
  0
DICTIONARY
  5
CD8C
102
{ACAD_REACTORS
330
CD62
102
}
330
CD62
100
AcDbDictionary
281
     1
  3
Standard
350
CDA2
  0
DICTIONARY
  5
CD8D
102
{ACAD_REACTORS
330
CD62
102
}
330
CD62
100
AcDbDictionary
281
     1
  0
ACDBDICTIONARYWDFLT
  5
CD61
102
{ACAD_REACTORS
330
CD62
102
}
330
CD62
100
AcDbDictionary
281
     1
  3
Normal
350
CD60
100
AcDbDictionaryWithDefault
340
CD60
  0
DICTIONARY
  5
CD9F
102
{ACAD_REACTORS
330
CD62
102
}
330
CD62
100
AcDbDictionary
281
     1
  3
A0
350
CDA6
  3
A1
350
CDA7
  3
A2
350
CDA8
  3
A3
350
CDA9
  3
A4
350
CDAA
  3
A5
350
CDAB
  3
A6
350
CDAC
  3
A7
350
CDAD
  3
A8
350
CDAE
  3
A9
350
CDAF
  3
B0
350
CDB0
  3
B1
350
CDB1
  3
B2
350
CDB2
  3
B3
350
CDB3
  3
B4
350
CDB4
  3
B5
350
CDB5
  3
B6
350
CDB6
  0
DICTIONARY
  5
CDA0
102
{ACAD_REACTORS
330
CD62
102
}
330
CD62
100
AcDbDictionary
281
     1
  3
Standard
350
CDA3
  0
DICTIONARY
  5
CD85
102
{ACAD_REACTORS
330
CD62
102
}
330
CD62
100
AcDbDictionary
281
     1
  3
2dWireframe
350
CD84
  3
3dWireframe
350
CDA5
  3
Realistic
350
CDA4
  0
XRECORD
  5
CDCA
102
{ACAD_REACTORS
330
CD62
102
}
330
CD62
100
AcDbXrecord
280
     1
 90
        1
330
CDA3
  0
DICTIONARY
  5
CDC3
102
{ACAD_REACTORS
330
CD62
102
}
330
CD62
100
AcDbDictionary
281
     1
  3
CANNOSCALE
350
CDC6
  3
CMLEADERSTYLE
350
CDC5
  3
CTABLESTYLE
350
CDC4
  0
DICTIONARY
  5
CDB9
102
{ACAD_REACTORS
330
CD62
102
}
330
CD62
100
AcDbDictionary
281
     1
  3
Header
350
5B
  0
DICTIONARY
  5
CD79
102
{ACAD_REACTORS
330
CD78
102
}
330
CD78
100
AcDbDictionary
281
     1
  0
LAYOUT
  5
CD74
102
{ACAD_XDICTIONARY
360
CD75
102
}
102
{ACAD_REACTORS
330
CD6F
102
}
330
CD6F
100
AcDbPlotSettings
  1

  2
none_device
  4
ISO_A4_(210.00_x_297.00_MM)
  6

 40
7.5
 41
20.0
 42
7.5
 43
20.0
 44
210.0
 45
297.0
 46
0.0
 47
0.0
 48
0.0
 49
0.0
140
0.0
141
0.0
142
1.0
143
1.0
 70
   688
 72
     1
 73
     1
 74
     5
  7

 75
    16
147
1.0
 76
     0
 77
     2
 78
   300
148
0.0
149
0.0
100
AcDbLayout
  1
Layout1
 70
     1
 71
     1
 10
-20.0
 20
-7.5
 11
277.0
 21
202.5
 12
0.0
 22
0.0
 32
0.0
 14
25.7
 24
19.5
 34
0.0
 15
231.3
 25
175.5
 35
0.0
146
0.0
 13
0.0
 23
0.0
 33
0.0
 16
1.0
 26
0.0
 36
0.0
 17
0.0
 27
1.0
 37
0.0
 76
     0
330
CD71
1001
ACAD_PSEXT
1000
None
1000
None
1000
Not applicable
1000
The layout will not be plotted unless a new plotter configuration name is selected.
1070
     0
  0
LAYOUT
  5
CD6E
102
{ACAD_REACTORS
330
CD6F
102
}
330
CD6F
100
AcDbPlotSettings
  1

  2
none_device
  4
ISO_A4_(210.00_x_297.00_MM)
  6

 40
7.5
 41
20.0
 42
7.5
 43
20.0
 44
210.0
 45
297.0
 46
11.549999
 47
-13.65
 48
0.0
 49
0.0
140
0.0
141
0.0
142
1.0
143
8.704085
 70
 11952
 72
     1
 73
     0
 74
     0
  7

 75
     0
147
0.114889
 76
     0
 77
     2
 78
   300
148
0.0
149
0.0
100
AcDbLayout
  1
Model
 70
     1
 71
     0
 10
0.0
 20
0.0
 11
12.0
 21
9.0
 12
0.0
 22
0.0
 32
0.0
 14
0.0
 24
0.0
 34
0.0
 15
0.0
 25
0.0
 35
0.0
146
0.0
 13
0.0
 23
0.0
 33
0.0
 16
1.0
 26
0.0
 36
0.0
 17
0.0
 27
1.0
 37
0.0
 76
     0
330
CD5D
1001
ACAD_PSEXT
1000
None
1000
None
1000
Not applicable
1000
The layout will not be plotted unless a new plotter configuration name is selected.
1070
     0
  0
MATERIAL
  5
CD96
102
{ACAD_XDICTIONARY
360
CD97
102
}
102
{ACAD_REACTORS
330
CD64
102
}
330
CD64
100
AcDbMaterial
  1
ByBlock
 72
     0
 43
0.00082
 43
0.0
 43
0.0
 43
0.0
 43
0.0
 43
0.00082
 43
0.0
 43
0.0
 43
0.0
 43
0.0
 43
1.0
 43
0.0
 43
0.0
 43
0.0
 43
0.0
 43
1.0
 77
     0
 47
0.00082
 47
0.0
 47
0.0
 47
0.0
 47
0.0
 47
0.00082
 47
0.0
 47
0.0
 47
0.0
 47
0.0
 47
1.0
 47
0.0
 47
0.0
 47
0.0
 47
0.0
 47
1.0
171
     0
 49
0.00082
 49
0.0
 49
0.0
 49
0.0
 49
0.0
 49
0.00082
 49
0.0
 49
0.0
 49
0.0
 49
0.0
 49
1.0
 49
0.0
 49
0.0
 49
0.0
 49
0.0
 49
1.0
175
     0
142
0.00082
142
0.0
142
0.0
142
0.0
142
0.0
142
0.00082
142
0.0
142
0.0
142
0.0
142
0.0
142
1.0
142
0.0
142
0.0
142
0.0
142
0.0
142
1.0
179
     0
144
0.00082
144
0.0
144
0.0
144
0.0
144
0.0
144
0.00082
144
0.0
144
0.0
144
0.0
144
0.0
144
1.0
144
0.0
144
0.0
144
0.0
144
0.0
144
1.0
147
0.00082
147
0.0
147
0.0
147
0.0
147
0.0
147
0.00082
147
0.0
147
0.0
147
0.0
147
0.0
147
1.0
147
0.0
147
0.0
147
0.0
147
0.0
147
1.0
  0
MATERIAL
  5
CD8E
102
{ACAD_XDICTIONARY
360
CD8F
102
}
102
{ACAD_REACTORS
330
CD64
102
}
330
CD64
100
AcDbMaterial
  1
ByLayer
 72
     0
 43
0.00082
 43
0.0
 43
0.0
 43
0.0
 43
0.0
 43
0.00082
 43
0.0
 43
0.0
 43
0.0
 43
0.0
 43
1.0
 43
0.0
 43
0.0
 43
0.0
 43
0.0
 43
1.0
 77
     0
 47
0.00082
 47
0.0
 47
0.0
 47
0.0
 47
0.0
 47
0.00082
 47
0.0
 47
0.0
 47
0.0
 47
0.0
 47
1.0
 47
0.0
 47
0.0
 47
0.0
 47
0.0
 47
1.0
171
     0
 49
0.00082
 49
0.0
 49
0.0
 49
0.0
 49
0.0
 49
0.00082
 49
0.0
 49
0.0
 49
0.0
 49
0.0
 49
1.0
 49
0.0
 49
0.0
 49
0.0
 49
0.0
 49
1.0
175
     0
142
0.00082
142
0.0
142
0.0
142
0.0
142
0.0
142
0.00082
142
0.0
142
0.0
142
0.0
142
0.0
142
1.0
142
0.0
142
0.0
142
0.0
142
0.0
142
1.0
179
     0
144
0.00082
144
0.0
144
0.0
144
0.0
144
0.0
144
0.00082
144
0.0
144
0.0
144
0.0
144
0.0
144
1.0
144
0.0
144
0.0
144
0.0
144
0.0
144
1.0
147
0.00082
147
0.0
147
0.0
147
0.0
147
0.0
147
0.00082
147
0.0
147
0.0
147
0.0
147
0.0
147
1.0
147
0.0
147
0.0
147
0.0
147
0.0
147
1.0
  0
MATERIAL
  5
CD63
102
{ACAD_XDICTIONARY
360
CD65
102
}
102
{ACAD_REACTORS
330
CD64
102
}
330
CD64
100
AcDbMaterial
  1
Global
 72
     0
 43
0.00082
 43
0.0
 43
0.0
 43
0.0
 43
0.0
 43
0.00082
 43
0.0
 43
0.0
 43
0.0
 43
0.0
 43
1.0
 43
0.0
 43
0.0
 43
0.0
 43
0.0
 43
1.0
 77
     0
 47
0.00082
 47
0.0
 47
0.0
 47
0.0
 47
0.0
 47
0.00082
 47
0.0
 47
0.0
 47
0.0
 47
0.0
 47
1.0
 47
0.0
 47
0.0
 47
0.0
 47
0.0
 47
1.0
171
     0
 49
0.00082
 49
0.0
 49
0.0
 49
0.0
 49
0.0
 49
0.00082
 49
0.0
 49
0.0
 49
0.0
 49
0.0
 49
1.0
 49
0.0
 49
0.0
 49
0.0
 49
0.0
 49
1.0
175
     0
142
0.00082
142
0.0
142
0.0
142
0.0
142
0.0
142
0.00082
142
0.0
142
0.0
142
0.0
142
0.0
142
1.0
142
0.0
142
0.0
142
0.0
142
0.0
142
1.0
179
     0
144
0.00082
144
0.0
144
0.0
144
0.0
144
0.0
144
0.00082
144
0.0
144
0.0
144
0.0
144
0.0
144
1.0
144
0.0
144
0.0
144
0.0
144
0.0
144
1.0
147
0.00082
147
0.0
147
0.0
147
0.0
147
0.0
147
0.00082
147
0.0
147
0.0
147
0.0
147
0.0
147
1.0
147
0.0
147
0.0
147
0.0
147
0.0
147
1.0
  0
MLINESTYLE
  5
CDA2
102
{ACAD_REACTORS
330
CD8C
102
}
330
CD8C
100
AcDbMlineStyle
  2
STANDARD
 70
     0
  3

 62
   256
 51
90.0
 52
90.0
 71
     2
 49
0.5
 62
   256
  6
BYLAYER
 49
-0.5
 62
   256
  6
BYLAYER
  0
ACDBPLACEHOLDER
  5
CD60
102
{ACAD_REACTORS
330
CD61
102
}
330
CD61
  0
SCALE
  5
CDA6
102
{ACAD_REACTORS
330
CD9F
102
}
330
CD9F
100
AcDbScale
 70
     0
300
1:1
140
1.0
141
1.0
290
     1
  0
SCALE
  5
CDA7
102
{ACAD_REACTORS
330
CD9F
102
}
330
CD9F
100
AcDbScale
 70
     0
300
1:2
140
1.0
141
2.0
290
     0
  0
SCALE
  5
CDA8
102
{ACAD_REACTORS
330
CD9F
102
}
330
CD9F
100
AcDbScale
 70
     0
300
1:4
140
1.0
141
4.0
290
     0
  0
SCALE
  5
CDA9
102
{ACAD_REACTORS
330
CD9F
102
}
330
CD9F
100
AcDbScale
 70
     0
300
1:5
140
1.0
141
5.0
290
     0
  0
SCALE
  5
CDAA
102
{ACAD_REACTORS
330
CD9F
102
}
330
CD9F
100
AcDbScale
 70
     0
300
1:8
140
1.0
141
8.0
290
     0
  0
SCALE
  5
CDAB
102
{ACAD_REACTORS
330
CD9F
102
}
330
CD9F
100
AcDbScale
 70
     0
300
1:10
140
1.0
141
10.0
290
     0
  0
SCALE
  5
CDAC
102
{ACAD_REACTORS
330
CD9F
102
}
330
CD9F
100
AcDbScale
 70
     0
300
1:16
140
1.0
141
16.0
290
     0
  0
SCALE
  5
CDAD
102
{ACAD_REACTORS
330
CD9F
102
}
330
CD9F
100
AcDbScale
 70
     0
300
1:20
140
1.0
141
20.0
290
     0
  0
SCALE
  5
CDAE
102
{ACAD_REACTORS
330
CD9F
102
}
330
CD9F
100
AcDbScale
 70
     0
300
1:30
140
1.0
141
30.0
290
     0
  0
SCALE
  5
CDAF
102
{ACAD_REACTORS
330
CD9F
102
}
330
CD9F
100
AcDbScale
 70
     0
300
1:40
140
1.0
141
40.0
290
     0
  0
SCALE
  5
CDB0
102
{ACAD_REACTORS
330
CD9F
102
}
330
CD9F
100
AcDbScale
 70
     0
300
1:50
140
1.0
141
50.0
290
     0
  0
SCALE
  5
CDB1
102
{ACAD_REACTORS
330
CD9F
102
}
330
CD9F
100
AcDbScale
 70
     0
300
1:100
140
1.0
141
100.0
290
     0
  0
SCALE
  5
CDB2
102
{ACAD_REACTORS
330
CD9F
102
}
330
CD9F
100
AcDbScale
 70
     0
300
2:1
140
2.0
141
1.0
290
     0
  0
SCALE
  5
CDB3
102
{ACAD_REACTORS
330
CD9F
102
}
330
CD9F
100
AcDbScale
 70
     0
300
4:1
140
4.0
141
1.0
290
     0
  0
SCALE
  5
CDB4
102
{ACAD_REACTORS
330
CD9F
102
}
330
CD9F
100
AcDbScale
 70
     0
300
8:1
140
8.0
141
1.0
290
     0
  0
SCALE
  5
CDB5
102
{ACAD_REACTORS
330
CD9F
102
}
330
CD9F
100
AcDbScale
 70
     0
300
10:1
140
10.0
141
1.0
290
     0
  0
SCALE
  5
CDB6
102
{ACAD_REACTORS
330
CD9F
102
}
330
CD9F
100
AcDbScale
 70
     0
300
100:1
140
100.0
141
1.0
290
     0
  0
TABLESTYLE
  5
CDA3
102
{ACAD_XDICTIONARY
360
CDC8
102
}
102
{ACAD_REACTORS
330
CDA0
102
}
330
CDA0
100
AcDbTableStyle
  3
Standard
 70
     0
 71
     0
 40
1.5
 41
1.5
280
     0
281
     0
  7
Standard
140
4.5
170
     2
 62
     0
 63
     7
283
     0
274
    -2
284
     1
 64
     0
275
    -2
285
     1
 65
     0
276
    -2
286
     1
 66
     0
277
    -2
287
     1
 67
     0
278
    -2
288
     1
 68
     0
279
    -2
289
     1
 69
     0
  7
Standard
140
6.0
170
     5
 62
     0
 63
     7
283
     0
274
    -2
284
     1
 64
     0
275
    -2
285
     1
 65
     0
276
    -2
286
     1
 66
     0
277
    -2
287
     1
 67
     0
278
    -2
288
     1
 68
     0
279
    -2
289
     1
 69
     0
  7
Standard
140
4.5
170
     5
 62
     0
 63
     7
283
     0
274
    -2
284
     1
 64
     0
275
    -2
285
     1
 65
     0
276
    -2
286
     1
 66
     0
277
    -2
287
     1
 67
     0
278
    -2
288
     1
 68
     0
279
    -2
289
     1
 69
     0
  0
VISUALSTYLE
  5
CD84
102
{ACAD_XDICTIONARY
360
CDCC
102
}
102
{ACAD_REACTORS
330
CD85
102
}
330
CD85
100
AcDbVisualStyle
  2
2dWireframe
 70
     4
 71
     0
 72
     2
 73
     0
 90
        0
 40
-0.6
 41
-30.0
 62
     5
 63
     7
421
 16777215
 74
     1
 91
        4
 64
     7
 65
   257
 75
     1
175
     1
 42
1.0
 92
        0
 66
   257
 43
1.0
 76
     1
 77
     6
 78
     2
 67
     7
 79
     5
170
     0
171
     0
290
     0
174
     0
 93
        1
 44
0.0
173
     0
291
     0
 45
0.0
1001
ACAD
1000
AcDbSavedByObjectVersion
1070
     0
  0
VISUALSTYLE
  5
CDA5
102
{ACAD_XDICTIONARY
360
CDD3
102
}
102
{ACAD_REACTORS
330
CD85
102
}
330
CD85
100
AcDbVisualStyle
  2
3dWireframe
 70
     5
 71
     0
 72
     2
 73
     0
 90
        0
 40
-0.6
 41
-30.0
 62
     5
 63
     7
421
 16777215
 74
     1
 91
        4
 64
     7
 65
   257
 75
     1
175
     1
 42
1.0
 92
        0
 66
   257
 43
1.0
 76
     1
 77
     6
 78
     2
 67
     7
 79
     5
170
     0
171
     0
290
     0
174
     0
 93
        1
 44
0.0
173
     0
291
     0
 45
0.0
1001
ACAD
1000
AcDbSavedByObjectVersion
1070
     0
  0
VISUALSTYLE
  5
CDA4
102
{ACAD_XDICTIONARY
360
CDD1
102
}
102
{ACAD_REACTORS
330
CD85
102
}
330
CD85
100
AcDbVisualStyle
  2
Realistic
 70
     8
 71
     2
 72
     2
 73
     0
 90
        0
 40
-0.6
 41
-30.0
 62
     5
 63
     7
421
 16777215
 74
     1
 91
        0
 64
     7
 65
   257
 75
     1
175
     1
 42
1.0
 92
        8
 66
     8
424
  7895160
 43
1.0
 76
     1
 77
     6
 78
     2
 67
     7
 79
     5
170
     0
171
     0
290
     0
174
     0
 93
       13
 44
0.0
173
     0
291
     0
 45
0.0
1001
ACAD
1000
AcDbSavedByObjectVersion
1070
     0
  0
DICTIONARYVAR
  5
CDC6
102
{ACAD_REACTORS
330
CDC3
102
}
330
CDC3
100
DictionaryVariables
280
     0
  1
1:1
  0
DICTIONARYVAR
  5
CDC5
102
{ACAD_REACTORS
330
CDC3
102
}
330
CDC3
100
DictionaryVariables
280
     0
  1
STANDARD
  0
DICTIONARYVAR
  5
CDC4
102
{ACAD_REACTORS
330
CDC3
102
}
330
CDC3
100
DictionaryVariables
280
     0
  1
STANDARD
  0
XRECORD
  5
5B
102
{ACAD_REACTORS
330
CDB9
102
}
330
CDB9
100
AcDbXrecord
280
     1
310
0800000000000000000000000600100000060030000000000000000000408F40E80300000A000000000000000000F03F000000000088C3400000000000805640000000000000F03F000000000000F03F000000000000F03F000000000000F03F000000000000F03F0000000000000000000000000000000000000000000000
310
000000000000000000000000000000000000000000CD065FC1000000807A914DC1000000000000000000000000E0A1094100000000A003EE40000000000000000065000000000000000100000024000000FFFFFFFF000000000000000001000000000000000000000000000000000000000000000000004940000000000000
310
000000000000000000000000000000000000000000000000000000000000000000000000000000000000000000000000000000000000000000000004000000000000000000000070A74000000000007CA5400000000000000000000000000000000000000000000000000000000000000000000000000000000004E7280051
310
040C6800000000000000000000000000000000000000000000000000000000000000000000000000000000000000000000000000000000000000000000000000000000000000000000000000000000000000000000000000080000000000000000000000000000000000000000000000000000000000000000000000000000
310
00000000000000000000000000000000000000000000000000000000000000000000000000000000000000004A00000000000000000000000000090000000000020000400100000000000500070101000000000000000000000000000000000000000000000000000000000000000000000000000000000000000000000000
310
00000000000000000000000000000000000000000000000000000000000000000000000000000000000000000000000000000000000000000000000000000000000000000001000000000000000000000000000000000075006E006B0000000000000000000000000000000000000000000000000000000000000000000000
310
00000000000000000000000000000000000000000000000000000000000000000000000000000000000000000000000000000000000000000000000000000000000000000000000000000000000000000000000000000000000000000000000000000000000000000000000000000000000000000000000000000000000000
310
00000000000000000000000000000000000000000000000000000000000000000000000000000000000000000000000000000000000000000000000000000000000000000000000000000000000000000000000000000000000000000000000000000000000000000000000000000000000000000000000000000000000000
310
00000000000000000000000000000000000000000000000000000000000000000000000000000000000000000000000000000000000000000000000000000000000000000000000000000000000000000000000000000000000000000000000000000000000000000000000000000000000000000000000000000000000000
310
00000000000000000000000000000000000000000000000000000000000000000000000000000000000000000000000000000000000000000000000000000000000000000000000000000000000000000000000000000000000000000000000000000000000000000000000000000000000000000000000000000000000000
310
00000000000000000000000000000000000000000000000000000000000000000000000000000000000000000000000000000000000000000000000000000000000000000000000000000000000000000000000000000000000000000000000000000000000000000000000000000000000000000000000000000000000000
310
00000000000000000000000000000000000000000000000000000000000000000000000000000000000000000000000000000000000000000000000000000000000000000000000000000000000000000000000000000000000000000000000000000000000000000000000000000000000000000000000000000000000000
310
00000000000000000000000000000000000000000000000000000000000000000000000000000000000000000000000000000000000000000000000000000000000000000000000000000000000000000000000000000000000000000000000000000000000000000000000000000000000000000000000000000000000000
310
000000000000000000000000000000000000000000000000000000000000000000000000000000000000000000000000000000000000000000000000000000000000000000000000000000000000000000000000000000000000000000000075006E006B000000000000000000000000000000000000000000000000000000
310
00000000000000000000000000000000000000000000000000000000000000000000000000000000000000000000000000000000000000000000000000000000000000000000000000000000000000000000000000000000000000000000000000000000000000000000000000000000000000000000000000000000000000
310
00000000000000000000000000000000000000000000000000000000000000000000000000000000000000000000000000000000000000000000000000000000000000000000000000000000000000000000000000000000000000000000000000000000000000000000000000000000000000000000000000000000000000
310
00000000000000000000000000000000000000000000000000000000000000000000000000000000000000000000000000000000000000000000000000000000000000000000000000000000000000000000000000000000000000000000000000000000000000000000000000000000000000000000000000000000000000
310
00000000000000000000000000000000000000000000000000000000000000000000000000000000000000000000000000000000000000000000000000000000000000000000000000000000000000000000000000000000000000000000000000000000000000000000000000000000000000000000000000000000000000
310
00000000000000000000000000000000000000000000000000000000000000000000000000000000000000000000000000000000000000000000000000000000000000000000000000000000000000000000000000000000000000000000000000000000000000000000000000000000000000000000000000000000000000
310
00000000000000000000000000000000000000000000000000000000000000000000000000000000000000000000000000000000000000000000000000000000000000000000000000000000000000000000000000000000000000000000000000000000000000000000000000000000000000000000000000000000000000
310
00000000000000000000000000000000000000000000000000000000000000000000000000000000000000000000000000000000000000000000000000000000000000000000000000000000000000000000000000000000000000000000000000000000000000000000000000000000000000000000000000000000000000
310
0000000000000000000000000000000000000000000000000000000000000000000000000000000000000000000000000000000000000000000000000000000000000000000000000000000000000000000000000000000000000000000000000000000000000000000000F03F000075006E006B0000000000000000000000
310
00000000000000000000000000000000000000000000000000000000000000000000000000000000000000000000000000000000000000000000000000000000000000000000000000000000000000000000000000000000000000000000000000000000000000000000000000000000000000000000000000000000000000
310
00000000000000000000000000000000000000000000000000000000000000000000000000000000000000000000000000000000000000000000000000000000000000000000000000000000000000000000000000000000000000000000000000000000000000000000000000000000000000000000000000000000000000
310
00000000000000000000000000000000000000000000000000000000000000000000000000000000000000000000000000000000000000000000000000000000000000000000000000000000000000000000000000000000000000000000000000000000000000000000000000000000000000000000000000000000000000
310
00000000000000000000000000000000000000000000000000000000000000000000000000000000000000000000000000000000000000000000000000000000000000000000000000000000000000000000000000000000000000000000000000000000000000000000000000000000000000000000000000000000000000
310
00000000000000000000000000000000000000000000000000000000000000000000000000000000000000000000000000000000000000000000000000000000000000000000000000000000000000000000000000000000000000000000000000000000000000000000000000000000000000000000000000000000000000
310
00000000000000000000000000000000000000000000000000000000000000000000000000000000000000000000000000000000000000000000000000000000000000000000000000000000000000000000000000000000000000000000000000000000000000000000000000000000000000000000000000000000000000
310
00000000000000000000000000000000000000000000000000000000000000000000000000000000000000000000000000000000000000000000000000000000000000000000000000000000000000000000000000000000000000000000000000000000000000000000000000000000000000000000000000000000000000
310
000000000000000000000000000000000000000000000000000000000000000000000000000000000000000000000000000000000000000000000000000000000000000000000000000000000000000000000000000000000000000000000000000000000000000000000000000000000000000000000000000000F03F0000
310
00000080464000000000008046C0000000000088C340000000000088C3400000000000000000000000000000000075006E006B00000000000000000000000000000000000000000000000000000000000000000000000000000000000000000000000000000000000000000000000000000000000000000000000000000000
310
00000000000000000000000000000000000000000000000000000000000000000000000000000000000000000000000000000000000000000000000000000000000000000000000000000000000000000000000000000000000000000000000000000000000000000000000000000000000000000000000000000000000000
310
00000000000000000000000000000000000000000000000000000000000000000000000000000000000000000000000000000000000000000000000000000000000000000000000000000000000000000000000000000000000000000000000000000000000000000000000000000000000000000000000000000000000000
310
00000000000000000000000000000000000000000000000000000000000000000000000000000000000000000000000000000000000000000000000000000000000000000000000000000000000000000000000000000000000000000000000000000000000000000000000000000000000000000000000000000000000000
310
00000000000000000000000000000000000000000000000000000000000000000000000000000000000000000000000000000000000000000000000000000000000000000000000000000000000000000000000000000000000000000000000000000000000000000000000000000000000000000000000000000000000000
310
00000000000000000000000000000000000000000000000000000000000000000000000000000000000000000000000000000000000000000000000000000000000000000000000000000000000000000000000000000000000000000000000000000000000000000000000000000000000000000000000000000000000000
310
00000000000000000000000000000000000000000000000000000000000000000000000000000000000000000000000000000000000000000000000000000000000000000000000000000000000000000000000000000000000000000000000000000000000000000000000000000000000000000000000000000000000000
310
00000000000000000000000000000000000000000000000000000000000000000000000000000000000000000000000000000000000000000000000000000000000000000000000000000000000000000000000000000000000000000000000000000000000000000000000000000000000000000000000000000000000000
310
00000000000000000000000000000000000000000000000000000000000000000000000000000000000000000000000000000000000000000000000000000000000000000000000000000000000000000000000000000000000000000000000000000000000000000000000000000000000000000000000000000000000000
310
00000000000000000000000000000000000000000000000000000000000000000000000000000000000000000000000000000000000000000000000000000000000000000000000000000000408F400000000000409F4000000000000000000000000000000000000000000000000000000000000000000000000000000000
310
080000000700000000000000008046400000000000000000000000000088C340000000000088C3400000000000002440000000000088C340000000000088C3400000000000000000000000000088C340000000000088C34000000000000000000000000000003E40000000000088C340000000000088C340000000000088C3
310
40000000000088A3C000000000000000000000000000805640000000000088C34006000300040014000100000301010100000000000000000000000000000000000000000000000000000000000000F03F000000000000000000000000000000000000000000000000000000000000F03F0000000000000000000000000000
310
00000000000000000000000000000000F03F00000000000000000000000000000000000000000000000000000000000000000000000000000000000000000000000000000000000000000000000000000000000000000000000000000000000000000000000000000000000000000000000000000000000000000000000000
310
00000000000000000000000000000000000000152100000002000027003800B5FF0900010A0066D107000000000000000014C000000000000000000000000000000000000000000000000000000000000000000000000000000000000000000000F03F000000000000F03F000000000000F03F000000000000F03F00000000
310
0000F03F000000000000F03F000000000000F03F000000000000F03F333333333333D33F000000000000F03F000000000000F03F000000000000F03F333333333333D33F0000000000000000000000000000E83F0000000000000000000000000000F03F000000000000F03F000000000000F03F7B14AE47E17A943F000000
310
000000E03F00000700D0070000000000000000000000000000000000000000000000000000000000000000000000000000000000000000000000000000000000000000000000000000000000000000000000000000000000000000000000000000000000000000000000000000000000000000000000000000000000000000
310
0000000000000000000000000000000000000000000000000000000000000000000000000000000000000000000000000000000000000000000008000000003A5C756E6F5C563843454C4C5C574F4F442E43454C00000000000000000000000000000000000000000000000000000000000000000000000000000000000000
310
00000000000000000000000000000000000000000000000000000000000000000000000000000000000000000000000000000000000000000000000000000000000000000000000000000000000000000000000000000000000000000000000000000000000000000000000000000000000000000000000000000000000000
310
00000000000000000000000000000000000000000000000000000000000000000000000000000000000000000000000000000000000000000000000000000000000000000000000000000000000000000000000000000000000000000000000000000000000000000000000000000000000000000000000000000000000000
310
00000000000000000000000000000000000000000000000000000000000000000000000000000000000000000000000000000000000000000000000000000000000000000000000000000000000000000000000000000000000000000000000000000000000000000000000000000000000000000000000000000000000000
310
00000000000000000000000000000000000000000000000000000000000000000000000000000000000000000000000000000000000000000000000000000000000003000000000000000000000000000000000000000000000001000000000000000000000000000000000000000000000000000000140000000000000000
310
00000000000000000000000000000000000000000000000000000006000000000000004000000000000000000000000000F03F000000000000F03F000000000000F03F000000000000F03F000000000F00000000000000000000000000000006200000000000000000000000000000A00000000F0A00000000000000000000
310
00000000000000000088C34000000000010000000000000000000000000000000000000000000000000000000000000000000000000000000000000000000000000000000000000000000000000000000000000000000000000000000000000000000000000000000000000000000000000000000000000000000000000000
310
00000000000000000000000000000000000000000000000000000000000000000000000000000000000000000000000000000000000000000000000000000000000000000000000000000000000000000000000000000000000000000000000000000000000000000000000000000000000000000000000000000000000000
310
00000000000000000000000000000000000000000000000000000000000000000000000000000000000000000000000000000000000000000000000000000000000000000000000000000000000000000000000000000000000000000000000000000000000000000000000059400100000004000000000000000400000000
310
000000000000000000000001000000000000000000000000000000000000000000000000000000000000000000E83F000000000000D03F00000000000000000000000000000000000000000000000000000000000000000000000000000000000000000000000000000000000000000000000000000000FCA9F1D24D62503F
310
00000000000000000000000000002440000000000000000000000000008066400000000000000000000000000000000000840000000000000000000000000000000000000000000000000000000000000000000000000000000000000000000000000000000000000000000000000000000000000000000000000000000000
310
000000000000000000000000000000E03F0000000000000000000000000000000000000000000000000000000000000000000000000000000000000000000000000000000000000000000000000000000000000000000000000000000000000000000000000000000000000000000000000000000000000000000000000000
310
00000000000000000000100400000000000000000000000000000000000000000000000000000000000000000000000000000000000000000000000000000000000000000000000000000000000000000000000000000000000000000000000000000000000000000000000000000000000000000000000000000000000000
310
00000000000000000000000000000000000000000000000000000000000000000000000000000000000000000000000000000000000000000000000000000000000000000000000000000000000000000000000000000000000000000000000000000000000000000000000000000000000000000000000000F03F00000000
310
00000000000000000000F03F00000000000000000000000000000000000000000080564001020000040000000000000004000000000000000A000000040000000000000004000000000000000A0000000000000001000000000000000000000000000000000000000000000000000000000000000000000000000000000000
310
00000000000000000000000000000000000000000000000000000000000000000000000000000000000000000000000000000000000000000000000000000000000000000000000000000000000000000000000000000000000000000000000000000000000000000000000000000000000088C34000000000000000000000
310
00000088C3400000000000000000000000000088C3400000000000000000000000000088C340000000000000000000000000000000000000000000000000000000000000000000000000000000000000000000000000000000000000000041000000000000009A9999999999B93F9A9999999999B93F01000000000000009A
310
9999999999B93F9A9999999999B93F40010000000000000000000000000000000000000000000013030000000000000000000000000000000000000000000000000000000000000000000000000000000000000000000000000000000000000100000000000000000000000000000000000000000000000100000000000000
310
7B14AE47E17A843F0100000000000000000000000000E03F0100000000000000000000000000E03F000000000000000000000000000000000000000000000000000000000000000000000000000000000000000000000000000000000000000000000000000000000000000000000000000000000088C34000000000000000
310
00000000000088C3400000000000000000000000000088C34038000000000000000000000000000000000000000088C340FFFFFFFF00000000000000000088B34000000000000000000000000000000000000000000088C3400000000000000000000000000088C3400000000000000000000000000000000000000000006A
310
E840010000000000000000000000006AE840010000000000000000000000006AF840000000000000000000000000006AE840000000000000000028000000000000000000000000002440000000000000000000000000006AF84000000000000000000000000000000000000000000000000000000000000024400000000000
310
0000000100000000000000000000000000244040000800000000000000000000002440048000000000000000000000000024408800000014000000000000000000000000000000000000009A9999999999B93F9A9999999999B93F000000000088C34088808000140000001400000000000000000000000000000000000000
310
0000000000000000000000000000000000000000000000000000F03F9A9999999999B93F0000000000000000000000000A0000000A0000000000000000000000000000000000000000000000000000000000000000000000000000000000000000000000C00000000000000000000000000000009A9999999999B93F000000
310
0000000000000000000000000000000000000000000000000000000000000000000000000000000000000000000400000000000000000000000088C340000000000088C34000000000008036408DEDB5A0F7C6B03E000000004000000002000000010000000800000000000000000000000000F03F00000000000000000000
310
00000000F03F1000000000000000000000000000F03F9001000000000000000000000000F03F0000000000000000000000000000000000000000000000000000000000000000000000000000000000000000000000000100000000000000000000000000000000000000010000000000002000000000000000000000000000
310
00000000000000000100000000000000000000000000000000000000002440000000000000000000000000000000000000000000000000000000000000000000000000000000000000000000000000000000000000000000000000000000000000000000000000000000000000000000000000000000000000000000000000
310
00000000000000000000000000000000000000000000000000000000000000000000000000000000000000000000000000000000000000000000000000000000000000000000000000000000000000000000000000000000000000000000000000000000000000000000000000000000000000000000000000000000000000
310
00000000000000F03F000000000000F03F00000000000000000000000000000000000000000000F03F000000000000000000000000000000000000000000000000000000000000000000000000000000000000000000000000000000000000F03F000000000000F03F00000000008056400000000000000000000000000000
310
00000000000000002440000000000000444000000000000000000000000000000000000000000000000000000000000000000000000000000000000000000000000000000000000000000000000000000000000000000000000014000005010000000000000000000000000000000000000001000000000000000200000000
310
00000004000000E80300000010000000000000040000000000000000000000000000000000000000000000000000000000000000000000000000000000000000000000000000000000000000000000000000000000000000000000000000000000000000000000000000000000000000000000000000000000000000000000
310
00000000000000000000000000000000000000000000000000000000000000000000000000000000000000000000000000000000000000000000000000000000000000000000000000000000000000000000000000000000000000000000000000000000000000000000000000000000000000000000000000000000000000
310
00000000000000000000000000000000000000000000000000000000000000000000000000000000000000000000000000000000000000000000000000000000000000000000000000000000000000000000000000000000000000000000000000000000000000000000000000000000000000000000000000000000000000
310
00000000000000000000000000000000000000000000000000000000000000000000000000000000000000000000000000000000000000000000000000000000000000000000000000000000000000000000000000000000000000000000000000000000000000000000000000000000000000000000000000000000000000
310
00000000000000000000000000000000000000000000000000000000000000000000000000000000000000000000000000000000000000000000000000000000000000000000000000000000000000000000000000000000000000000000000000000000000000000000000000000000000000000000000000000000000000
310
00000000000000000000000000000000000000000000000000000000000000000000000000000000000000000000000000000000000000000000000000000000000000000000000000000000000000000000000000000000000000000000000000000000000000000000000000000000000000000000000000000000000000
310
00000000000000000000000000000000000000000000000000
  0
DICTIONARY
  5
CD75
330
CD74
100
AcDbDictionary
280
     1
281
     1
  3
ADSK_XREC_LAYOUTTHUMBNAIL
360
CD76
  0
DICTIONARY
  5
CD97
330
CD96
100
AcDbDictionary
280
     1
281
     1
  3
ACAD_XREC_ROUNDTRIP
360
CDCF
  3
BUMPTILE
360
CD98
  3
DIFFUSETILE
360
CD99
  3
OPACITYTILE
360
CD9A
  3
REFLECTIONTILE
360
CD9B
  3
REFRACTIONTILE
360
CD9C
  3
SPECULARTILE
360
CD9D
  0
DICTIONARY
  5
CD8F
330
CD8E
100
AcDbDictionary
280
     1
281
     1
  3
ACAD_XREC_ROUNDTRIP
360
CDCE
  3
BUMPTILE
360
CD90
  3
DIFFUSETILE
360
CD91
  3
OPACITYTILE
360
CD92
  3
REFLECTIONTILE
360
CD93
  3
REFRACTIONTILE
360
CD94
  3
SPECULARTILE
360
CD95
  0
DICTIONARY
  5
CD65
330
CD63
100
AcDbDictionary
280
     1
281
     1
  3
ACAD_XREC_ROUNDTRIP
360
CDCB
  3
BUMPTILE
360
CD66
  3
DIFFUSETILE
360
CD67
  3
OPACITYTILE
360
CD68
  3
REFLECTIONTILE
360
CD69
  3
REFRACTIONTILE
360
CD6A
  3
SPECULARTILE
360
CD6B
  0
DICTIONARY
  5
CDC8
330
CDA3
100
AcDbDictionary
280
     1
281
     1
  3
ACAD_ROUNDTRIP_2008_TABLESTYLE_CELLSTYLEMAP
360
CDC9
  3
ACAD_XREC_ROUNDTRIP
360
CDD0
  0
DICTIONARY
  5
CDCC
330
CD84
100
AcDbDictionary
280
     1
281
     1
  3
ACAD_XREC_ROUNDTRIP
360
CDCD
  0
DICTIONARY
  5
CDD3
330
CDA5
100
AcDbDictionary
280
     1
281
     1
  3
ACAD_XREC_ROUNDTRIP
360
CDD4
  0
DICTIONARY
  5
CDD1
330
CDA4
100
AcDbDictionary
280
     1
281
     1
  3
ACAD_XREC_ROUNDTRIP
360
CDD2
  0
XRECORD
  5
CD76
102
{ACAD_REACTORS
330
CD75
102
}
330
CD75
100
AcDbXrecord
280
     1
310
28000000B40000007F00000001000800000000004C59000000000000000000000001000000000000FFFFFF0000000000FFFFFF000000000000000000000000000000000000000000000000000000000000000000330000006600000099000000CC000000FF00000000330000333300006633000099330000CC330000FF3300
310
0000660000336600006666000099660000CC660000FF66000000990000339900006699000099990000CC990000FF99000000CC000033CC000066CC000099CC0000CCCC0000FFCC000000FF000033FF000066FF000099FF0000CCFF0000FFFF000000003300330033006600330099003300CC003300FF003300003333003333
310
33006633330099333300CC333300FF33330000663300336633006666330099663300CC663300FF66330000993300339933006699330099993300CC993300FF99330000CC330033CC330066CC330099CC3300CCCC3300FFCC330000FF330033FF330066FF330099FF3300CCFF3300FFFF330000006600330066006600660099
310
006600CC006600FF00660000336600333366006633660099336600CC336600FF33660000666600336666006666660099666600CC666600FF66660000996600339966006699660099996600CC996600FF99660000CC660033CC660066CC660099CC6600CCCC6600FFCC660000FF660033FF660066FF660099FF6600CCFF6600
310
FFFF660000009900330099006600990099009900CC009900FF00990000339900333399006633990099339900CC339900FF33990000669900336699006666990099669900CC669900FF66990000999900339999006699990099999900CC999900FF99990000CC990033CC990066CC990099CC9900CCCC9900FFCC990000FF99
310
0033FF990066FF990099FF9900CCFF9900FFFF99000000CC003300CC006600CC009900CC00CC00CC00FF00CC000033CC003333CC006633CC009933CC00CC33CC00FF33CC000066CC003366CC006666CC009966CC00CC66CC00FF66CC000099CC003399CC006699CC009999CC00CC99CC00FF99CC0000CCCC0033CCCC0066CC
310
CC0099CCCC00CCCCCC00FFCCCC0000FFCC0033FFCC0066FFCC0099FFCC00CCFFCC00FFFFCC000000FF003300FF006600FF009900FF00CC00FF00FF00FF000033FF003333FF006633FF009933FF00CC33FF00FF33FF000066FF003366FF006666FF009966FF00CC66FF00FF66FF000099FF003399FF006699FF009999FF00CC
310
99FF00FF99FF0000CCFF0033CCFF0066CCFF0099CCFF00CCCCFF00FFCCFF0000FFFF0033FFFF0066FFFF0099FFFF00CCFFFF00FFFFFF00000000000D0D0D001A1A1A00282828003535350043434300505050005D5D5D006B6B6B00787878008686860093939300A1A1A100AEAEAE00BBBBBB00C9C9C900D6D6D600E4E4E400
310
F1F1F100FFFFFF0000000000000000000000000000000000000000000000000000000000000000000000000000000000E2E2E2E2E2E2E2E2E2E2E2E2E2E2E2E2E2E2E2E2E2E2E2E2E2E2E2E2E2E2E2E2E2E2E2E2E2E2E2E2E2E2E2E2E2E2E2E2E2E2E2E2E2E2E2E2E2E2E2E2E2E2E2E2E2E2E2E2E2E2E2E2E2E2E2E2E2E2E2
310
E2E2E2E2E2E2E2E2E2E2E2E2E2E2E2E2E2E2E2E2E2E2E2E2E2E2E2E2E2E2E2E2E2E2E2E2E2E2E2E2E2E2E2E2E2E2E2E2E2E2E2E2E2E2E2E2E2E2E2E2E2E2E2E2E2E2E2E2E2E2E2E2E2E2E2E2E2E2E2E2E2E2E2E2E2E2E2E2E2E2E2E2E2E2E2E2E2E2E2E2E2E2F5F5F5F5F5F5F5F5F5F5F5F5F5F5F5F5F5F5F5F5F5F5F5F5F5
310
F5F5F5F5F5F5F5F5F5F5F5F5F5F5F5F5F5F5F5F5F5F5F5F5F5F5F5F5F5F5F5F5F5F5F5F5F5F5F5F5F5F5F5F5F5F5F5F5F5F5F5F5F5F5F5F5F5F5F5F5F5F5F5F5F5F5F5F5F5F5F5F5F5F5F5F5F5F5F5F5F5F5F5F5F5F5F5F5F5F5F5F5F5F5F5F5F5F5F5F5F5F5F5F5F5F5F5F5F5F5F5F5F5F5F5F5F5F5F5F5F5F5F5F5F5F5F5
310
F5F5F5F5F5F5F5F5F5F5F5F5F5F5F5F5F5F5F5F5F5F5F5F5F5E2E2E2F5F5F5F5F5F5F5F5F5F5F5F5F5F5F5F5F5F5F5F5F5F5F5F5F5F5F5F5F5F5F5F5F5F5F5F5F5F5F5F5F5F5F5F5F5F5F5F5F5F5F5F5F5F5F5F5F5F5F5F5F5F5F5F5F5F5F5F5F5F5F5F5F5F5F5F5F5F5F5F5F5F5F5F5F5F5F5F5F5F5F5F5F5F5F5F5F5F5F5
310
F5F5F5F5F5F5F5F5F5F5F5F5F5F5F5F5F5F5F5F5F5F5F5F5F5F5F5F5F5F5F5F5F5F5F5F5F5F5F5F5F5F5F5F5F5F5F5F5F5F5F5F5F5F5F5F5F5F5F5F5F5F5F5F5F5F5F5F5F5F5F5F5F5F5F5F5F5F5E2E2E2F5F5F5F5F5F5F5F5F5F5F5F5F5F5F5F5F5F5F5F5F5F5F5F5F5F5F5F5F5F5F5F5F5F5F5F5F5F5F5F5F5F5F5F5F5F5
310
F5F5F5F5F5F5F5F5F5F5F5F5F5F5F5F5F5F5F5F5F5F5F5F5F5F5F5F5F5F5F5F5F5F5F5F5F5F5F5F5F5F5F5F5F5F5F5F5F5F5F5F5F5F5F5F5F5F5F5F5F5F5F5F5F5F5F5F5F5F5F5F5F5F5F5F5F5F5F5F5F5F5F5F5F5F5F5F5F5F5F5F5F5F5F5F5F5F5F5F5F5F5F5F5F5F5F5F5F5F5F5F5F5F5F5F5F5F5F5F5F5F5F5F5F5F5F5
310
F5F5F5F5E2E2E2F5F5F5F5F5F5F5F5F5F5F5F5F5F5F5F5F5F5F5F5F5F5F5F5F5F5F5F5F5F5F5F5F5F5F5F5F5F5F5F5F5F5F5F5F5F5F5F5F5F5F5F5F5F5F5F5F5F5F5F5F5F5F5F5F5F5F5F5F5F5F5F5F5F5F5F5F5F5F5F5F5F5F5F5F5F5F5F5F5F5F5F5F5F5F5F5F5F5F5F5F5F5F5F5F5F5F5F5F5F5F5F5F5F5F5F5F5F5F5F5
310
F5F5F5F5F5F5F5F5F5F5F5F5F5F5F5F5F5F5F5F5F5F5F5F5F5F5F5F5F5F5F5F5F5F5F5F5F5F5F5F5F5F5F5F5F5F5F5F5F5F5F5F5F5F5F5F5F5E2E2E2F5F5F5F5F5F5F5F5F5F5F5E2E2E2E2E2E2E2E2E2F5F5F5F5F5F5F5F5F5E2E2E2E2E2E2E2E2E2E2E2E2E2E2E2E2F5F5F5F5F5F5F5F5F5F5E2E2E2E2E2E2E2E2E2E2E2E2
310
E2E2E2E2F5F5F5F5F5F5F5F5F5E2E2E2E2E2E2E2E2E2E2E2E2E2E2E2E2E2F5F5F5F5F5F5F5F5F5E2E2E2E2E2E2E2E2E2E2E2E2E2E2E2E2F5F5F5F5F5F5F5F5F5F5E2E2E2E2E2E2E2E2E2E2E2E2E2E2E2E2F5F5F5F5F5F5F5F5F5E2E2E2E2E2E2E2E2E2F5F5F5F5F5F5F5F5F5F5F5E2E2E2F5F5F5F5F5F5F5F5F5F5F5E2F5F5
310
F5F5F5F5F5F5F5F5F5F5F5F5F5F5F5F5F5F5F5F5F5F5F5F5F5F5F5F5F5F5F5F5F5F5F5F5F5F5F5F5F5F5F5F5F5F5F5F5F5F5F5F5F5F5F5F5F5F5F5F5F5F5F5F5F5F5F5F5F5F5F5F5F5F5F5F5F5F5F5F5F5F5F5F5F5F5F5F5F5F5F5F5F5F5F5F5F5F5F5F5F5F5F5F5F5F5F5F5F5F5F5F5F5F5F5F5F5F5F5F5F5F5F5F5F5F5F5
310
F5F5F5F5F5F5F5F5F5F5F5F5F5F5F5F5F5F5F5F5F5F5F5F5E2F5F5F5F5F5F5F5F5F5F5F5E2E2E2F5F5F5F5F5F5F5F5F5F5F5E2F5F5F5F5F5F5F5F5F5F5F5F5F5F5F5F5F5F5F5F5F5F5F5F5F5F5F5F5F5F5F5F5F5F5F5F5F5F5F5F5F5F5F5F5F5F5F5F5F5F5F5F5F5F5F5F5F5F5F5F5F5F5F5F5F5F5F5F5F5F5F5F5F5F5F5F5
310
F5F5F5F5F5F5F5F5F5F5F5F5F5F5F5F5F5F5F5F5F5F5F5F5F5F5F5F5F5F5F5F5F5F5F5F5F5F5F5F5F5F5F5F5F5F5F5F5F5F5F5F5F5F5F5F5F5F5F5F5F5F5F5F5F5F5F5F5F5F5F5F5F5F5F5F5F5E2F5F5F5F5F5F5F5F5F5F5F5E2E2E2F5F5F5F5F5F5F5F5F5F5F5E2F5F5F5F5F5F5F5F5F5F5F5F5F5F5F5F5F5F5F5F5F5F5F5
310
F5F5F5F5F5F5F5F5F5F5F5F5F5F5F5F5F5F5F5F5F5F5F5F5F5F5F5F5F5F5F5F5F5F5F5F5F5F5F5F5F5F5F5F5F5F5F5F5F5F5F5F5F5F5F5F5F5F5F5F5F5F5F5F5F5F5F5F5F5F5F5F5F5F5F5F5F5F5F5F5F5F5F5F5F5F5F5F5F5F5F5F5F5F5F5F5F5F5F5F5F5F5F5F5F5F5F5F5F5F5F5F5F5F5F5F5F5F5F5F5F5F5F5F5F5F5F5
310
F5F5F5E2F5F5F5F5F5F5F5F5F5F5F5E2E2E2F5F5F5F5F5F5F5F5F5F5F5E2F5F5F5F5F5F5F5F5F5F5F5F5F5F5F5F5F5F5F5F5F5F5F5F5F5F5F5F5F5F5F5F5F5F5F5F5F5F5F5F5F5F5F5F5F5F5F5F5F5F5F5F5F5F5F5F5F5F5F5F5F5F5F5F5F5F5F5F5F5F5F5F5F5F5F5F5F5F5F5F5F5F5F5F5F5F5F5F5F5F5F5F5F5F5F5F5F5
310
F5F5F5F5F5F5F5F5F5F5F5F5F5F5F5F5F5F5F5F5F5F5F5F5F5F5F5F5F5F5F5F5F5F5F5F5F5F5F5F5F5F5F5F5F5F5F5F5F5F5F5F5F5F5F5F5E2F5F5F5F5F5F5F5F5F5F5F5E2E2E2F5F5F5F5F5F5F5F5F5F5F5E2F5F5F5F5F5F5F5F5F5F5F5F5F5F5F5F5F5F5F5F5F5F5F5F5F5F5F5F5F5F5F5F5F5F5F5F5F5F5F5F5F5F5F5F5
310
F5F5F5F5F5F5F5F5F5F5F5F5F5F5F5F5F5F5F5F5F5F5F5F5F5F5F5F5F5F5F5F5F5F5F5F5F5F5F5F5F5F5F5F5F5F5F5F5F5F5F5F5F5F5F5F5F5F5F5F5F5F5F5F5F5F5F5F5F5F5F5F5F5F5F5F5F5F5F5F5F5F5F5F5F5F5F5F5F5F5F5F5F5F5F5F5F5F5F5F5F5F5F5F5F5F5F5F5F5E2F5F5F5F5F5F5F5F5F5F5F5E2E2E2F5F5F5
310
F5F5F5F5F5F5F5F5E2F5F5F5F5F5F5F5F5F5F5F5F5F5F5F5F5F5F5F5F5F5F5F5F5F5F5F5F5F5F5F5F5F5F5F5F5F5F5F5F5F5F5F5F5F5F5F5F5F5F5F5F5F5F5F5F5F5F5F5F5F5F5F5F5F5F5F5F5F5F5F5F5F5F5F5F5F5F5F5F5F5F5F5F5F5F5F5F5F5F5F5F5F5F5F5F5F5F5F5F5F5F5F5F5F5F5F5F5F5F5F5F5F5F5F5F5F5F5
310
F5F5F5F5F5F5F5F5F5F5F5F5F5F5F5F5F5F5F5F5F5F5F5F5F5F5F5F5F5F5F5F5F5F5F5E2F5F5F5F5F5F5F5F5F5F5F5E2E2E2F5F5F5F5F5F5F5F5F5F5F5E2F5F5F5F5F5F5F5F5F5F5F5F5F5F5F5F5F5F5F5F5F5F5F5F5F5F5F5F5F5F5F5F5F5F5F5F5F5F5F5F5F5F5F5F5F5F5F5F5F5F5F5F5F5F5F5F5F5F5F5F5F5F5F5F5F5
310
F5F5F5F5F5F5F5F5F5F5F5F5F5F5F5F5F5F5F5F5F5F5F5F5F5F5F5F5F5F5F5F5F5F5F5F5F5F5F5F5F5F5F5F5F5F5F5F5F5F5F5F5F5F5F5F5F5F5F5F5F5F5F5F5F5F5F5F5F5F5F5F5F5F5F5F5F5F5F5F5F5F5F5F5F5F5F5F5E2F5F5F5F5F5F5F5F5F5F5F5E2E2E2F5F5F5F5F5F5F5F5F5F5F5F5F5F5F5F5F5F5F5F5F5F5F5F5
310
F5F5F5F5F5F5F5F5F5F5F5F5F5F5F5F5F5F5F5F5F5F5F5F5F5F5F5F5F5F5F5F5F5F5F5F5F5F5F5F5F5F5F5F5F5F5F5F5F5F5F5F5F5F5F5F5F5F5F5F5F5F5F5F5F5F5F5F5F5F5F5F5F5F5F5F5F5F5F5F5F5F5F5F5F5F5F5F5F5F5F5F5F5F5F5F5F5F5F5F5F5F5F5F5F5F5F5F5F5F5F5F5F5F5F5F5F5F5F5F5F5F5F5F5F5F5F5
310
F5F5F5F5F5F5F5F5F5F5F5F5F5F5F5F5F5F5F5F5F5F5F5F5F5F5E2E2E2F5F5F5F5F5F5F5F5F5F5F5F5F5F5F5F5F5F5F5F5F5F5F5F5F5F5F5F5F5F5F5F5F5F5F5F5F5F5F5F5F5F5F5F5F5F5F5F5F5F5F5F5F5F5F5F5F5F5F5F5F5F5F5F5F5F5F5F5F5F5F5F5F5F5F5F5F5F5F5F5F5F5F5F5F5F5F5F5F5F5F5F5F5F5F5F5F5F5
310
F5F5F5F5F5F5F5F5F5F5F5F5F5F5F5F5F5F5F5F5F5F5F5F5F5F5F5F5F5F5F5F5F5F5F5F5F5F5F5F5F5F5F5F5F5F5F5F5F5F5F5F5F5F5F5F5F5F5F5F5F5F5F5F5F5F5F5F5F5F5F5F5F5F5F5F5F5F5F5E2E2E2F5F5F5F5F5F5F5F5F5F5F5F5F5F5F5F5F5F5F5F5F5F5F5F5F5F5F5F5F5F5F5F5F5F5F5F5F5F5F5F5F5F5F5F5F5
310
F5F5F5F5F5F5F5F5F5F5F5F5F5F5F5F5F5F5F5F5F5F5F5F5F5F5F5F5F5F5F5F5F5F5F5F5F5F5F5F5F5F5F5F5F5F5F5F5F5F5F5F5F5F5F5F5F5F5F5F5F5F5F5F5F5F5F5F5F5F5F5F5F5F5F5F5F5F5F5F5F5F5F5F5F5F5F5F5F5F5F5F5F5F5F5F5F5F5F5F5F5F5F5F5F5F5F5F5F5F5F5F5F5F5F5F5F5F5F5F5F5F5F5F5F5F5F5
310
F5F5F5F5F5E2E2E2F5F5F5F5F5F5F5F5F5F5F5F5F5F5F5F5F5F5F5F5F5F5F5F5F5F5E2E2E2E2E2E2E2E2E2E2E2E2E2E2E2E2E2E2E2E2E2E2E2E2E2E2E2E2E2E2E2E2E2E2E2E2E2E2E2E2E2E2E2E2E2E2E2E2E2E2E2E2E2E2E2E2E2E2E2E2E2E2E2E2E2E2E2E2E2E2E2E2E2E2E2E2E2E2E2E2E2E2E2E2E2E2E2E2E2E2E2E2E2
310
E2E2E2E2E2E2E2E2E2E2E2E2E2E2E2E2E2E2E2E2E2E2E2E2E2E2E2E2E2E2E2E2F5F5F5F5F5F5F5F5F5F5F5F5F5F5F5F5F5F5F5F5F5F5F5F5F5F5E2E2E2F5F5F5F5F5F5F5F5F5F5F5F5F5F5F5F5F5F5F5F5F5F5F5F5F5F5E2F5F5F5F5F5F5F5F5F5F5F5F5F5F5F5F5F5F5F5F5F5F5F5F5F5F5F5F5F5F5F5F5F5F5F5F5F5F5F5
310
F5F5F5F5F5F5F5F5F5F5F5F5F5F5F5F5F5F5F5F5F5F5F5F5F5F5F5F5F5F5F5F5F5F5F5F5F5F5F5F5F5F5F5F5F5F5F5F5F5F5F5F5F5F5F5F5F5F5F5F5F5F5F5F5F5F5F5F5F5F5F5F5F5F5F5F5F5F5F5F5F5F5F5F5E2F5F5F5F5F5F5F5F5F5F5F5F5F5F5F5F5F5F5F5F5F5F5F5F5F5F5E2E2E2F5F5F5F5F5F5F5F5F5F5F5F5F5
310
F5F5F5F5F5F5F5F5F5F5F5F5F5E2F5F5F5F5F5F5F5F5F5F5F5F5F5F5F5F5F5F5F5F5F5F5F5F5F5F5F5F5F5F5F5F5F5F5F5F5F5F5F5F5F5F5F5F5F5F5F5F5F5F5F5F5F5F5F5F5F5F5F5F5F5F5F5F5F5F5F5F5F5F5F5F5F5F5F5F5F5F5F5F5F5F5F5F5F5F5F5F5F5F5F5F5F5F5F5F5F5F5F5F5F5F5F5F5F5F5F5F5F5F5F5F5F5
310
F5F5F5F5F5F5F5F5F5F5E2F5F5F5F5F5F5F5F5F5F5F5F5F5F5F5F5F5F5F5F5F5F5F5F5F5F5E2E2E2F5F5F5F5F5F5F5F5F5F5F5F5F5F5F5F5F5F5F5F5F5F5F5F5F5F5E2F5F5F5F5F5F5F5F5F5F5F5F5F5F5F5F5F5F5F5F5F5F5F5F5F5F5F5F5F5F5F5F5F5F5F5F5F5F5F5F5F5F5F5F5F5F5F5F5F5F5F5F5F5F5F5F5F5F5F5F5
310
F5F5F5F5F5F5F5F5F5F5F5F5F5F5F5F5F5F5F5F5F5F5F5F5F5F5F5F5F5F5F5F5F5F5F5F5F5F5F5F5F5F5F5F5F5F5F5F5F5F5F5F5F5F5F5F5F5F5F5F5F5F5F5E2F5F5F5F5F5F5F5F5F5F5F5F5F5F5F5F5F5F5F5F5F5F5F5F5F5F5E2E2E2F5F5F5F5F5F5F5F5F5F5F5F5F5F5F5F5F5F5F5F5F5F5F5F5F5F5E2F5F5F5F5F5F5F5
310
F5F5F5F5F5F5F5F5F5F5F5F5F5F5F5F5F5F5F5F5F5F5F5F5F5F5F5F5F5F5F5F5F5F5F5F5F5F5F5F5F5F5F5F5F5F5F5F5F5F5F5F5F5F5F5F5F5F5F5F5F5F5F5F5F5F5F5F5F5F5F5F5F5F5F5F5F5F5F5F5F5F5F5F5F5F5F5F5F5F5F5F5F5F5F5F5F5F5F5F5F5F5F5F5F5F5F5F5F5F5F5F5F5F5F5F5E2F5F5F5F5F5F5F5F5F5F5
310
F5F5F5F5F5F5F5F5F5F5F5F5F5F5F5F5E2E2E2F5F5F5F5F5F5F5F5F5F5F5E2F5F5F5F5F5F5F5F5F5F5F5F5F5F5E2F5F5F5F5F5F5F5F5F5F5F5F5F5F5F5F5F5F5F5F5F5F5F5F5F5F5F5F5F5F5F5F5F5F5F5F5F5F5F5F5F5F5F5F5F5F5F5F5F5F5F5F5F5F5F5F5F5F5F5F5F5F5F5F5F5F5F5F5F5F5F5F5F5F5F5F5F5F5F5F5F5
310
F5F5F5F5F5F5F5F5F5F5F5F5F5F5F5F5F5F5F5F5F5F5F5F5F5F5F5F5F5F5F5F5F5F5F5F5F5F5F5F5F5F5E2F5F5F5F5F5F5F5F5F5F5F5F5F5F5E2F5F5F5F5F5F5F5F5F5F5F5E2E2E2F5F5F5F5F5F5F5F5F5F5F5E2F5F5F5F5F5F5F5F5F5F5F5F5F5F5E2F5F5F5F5F5F5F5F5F5F5F5F5F5F5F5F5F5F5F5F5F5F5F5F5F5F5F5F5
310
F5F5F5F5F5F5F5F5F5F5F5F5F5F5F5F5F5F5F5F5F5F5F5F5F5F5F5F5F5F5F5F5F5F5F5F5F5F5F5F5F5F5F5F5F5F5F5F5F5F5F5F5F5F5F5F5F5F5F5F5F5F5F5F5F5F5F5F5F5F5F5F5F5F5F5F5F5F5F5F5F5F5F5F5F5F5F5F5F5F5F5F5F5F5F5E2F5F5F5F5F5F5F5F5F5F5F5F5F5F5E2F5F5F5F5F5F5F5F5F5F5F5E2E2E2F5F5
310
F5F5F5F5F5F5F5F5F5E2F5F5F5F5F5F5F5F5F5F5F5F5F5F5E2F5F5F5F5F5F5F5F5F5F5F5F5F5F5F5F5F5F5F5F5F5F5F5F5F5F5F5F5F5F5F5F5F5F5F5F5F5F5F5F5F5F5F5F5F5F5F5F5F5F5F5F5F5F5F5F5F5F5F5F5F5F5F5F5F5F5F5F5F5F5F5F5F5F5F5F5F5F5F5F5F5F5F5F5F5F5F5F5F5F5F5F5F5F5F5F5F5F5F5F5F5F5
310
F5F5F5F5F5F5F5F5F5F5F5F5F5F5F5F5F5F5F5F5F5E2F5F5F5F5F5F5F5F5F5F5F5F5F5F5E2F5F5F5F5F5F5F5F5F5F5F5E2E2E2F5F5F5F5F5F5F5F5F5F5F5E2F5F5F5F5F5F5F5F5F5F5F5F5F5F5E2F5F5F5F5F5F5F5F5F5F5F5F5F5F5F5F5F5F5F5F5F5F5F5F5F5F5F5F5F5F5F5F5F5F5F5F5F5F5F5F5F5F5F5F5F5F5F5F5F5
310
F5F5F5F5F5F5F5F5F5F5F5F5F5F5F5F5F5F5F5F5F5F5F5F5F5F5F5F5F5F5F5F5F5F5F5F5F5F5F5F5F5F5F5F5F5F5F5F5F5F5F5F5F5F5F5F5F5F5F5F5F5F5F5F5F5F5F5F5F5F5F5F5F5F5E2F5F5F5F5F5F5F5F5F5F5F5F5F5F5E2F5F5F5F5F5F5F5F5F5F5F5E2E2E2F5F5F5F5F5F5F5F5F5F5F5E2F5F5F5F5F5F5F5F5F5F5F5
310
F5F5F5E2F5F5F5F5F5F5F5F5F5F5F5F5F5F5F5F5F5F5F5F5F5F5F5F5F5F5F5F5F5F5F5F5F5F5F5F5F5F5F5F5F5F5F5F5F5F5F5F5F5F5F5F5F5F5F5F5F5F5F5F5F5F5F5F5F5F5F5F5F5F5F5F5F5F5F5F5F5F5F5F5F5F5F5F5F5F5F5F5F5F5F5F5F5F5F5F5F5F5F5F5F5F5F5F5F5F5F5F5F5F5F5F5F5F5F5F5F5F5F5F5F5F5F5
310
E2F5F5F5F5F5F5F5F5F5F5F5F5F5F5E2F5F5F5F5F5F5F5F5F5F5F5E2E2E2F5F5F5F5F5F5F5F5F5F5F5E2F5F5F5F5F5F5F5F5F5F5F5F5F5F5E2F5F5F5F5F5F5F5F5F5F5F5F5F5F5F5F5F5F5F5F5F5F5F5F5F5F5F5F5F5F5F5F5F5F5F5F5F5F5F5F5F5F5F5F5F5F5F5F5F5F5F5F5F5F5F5F5F5F5F5F5F5F5F5F5F5F5F5F5F5F5
310
F5F5F5F5F5F5F5F5F5F5F5F5F5F5F5F5F5F5F5F5F5F5F5F5F5F5F5F5F5F5F5F5F5F5F5F5F5F5F5F5F5F5F5F5F5F5F5F5F5F5F5F5F5E2F5F5F5F5F5F5F5F5F5F5F5F5F5F5E2F5F5F5F5F5F5F5F5F5F5F5E2E2E2F5F5F5F5F5F5F5F5F5F5F5E2F5F5F5F5F5F5F5F5F5F5F5F5F5F5E2F5F5F5F5F5F5F5F5F5F5F5F5F5F5F5F5F5
310
F5F5F5F5F5F5F5F5F5F5F5F5F5F5F5F5F5F5F5F5F5F5F5F5F5F5F5F5F5F5F5F5F5F5F5F5F5F5F5F5F5F5F5F5F5F5F5F5F5F5F5F5F5F5F5F5F5F5F5F5F5F5F5F5F5F5F5F5F5F5F5F5F5F5F5F5F5F5F5F5F5F5F5F5F5F5F5F5F5F5F5F5F5F5F5F5F5F5F5F5F5F5F5F5F5F5E2F5F5F5F5F5F5F5F5F5F5F5F5F5F5E2F5F5F5F5F5
310
F5F5F5F5F5F5E2E2E2F5F5F5F5F5F5F5F5F5F5F5E2F5F5F5F5F5F5F5F5F5F5F5F5F5F5E2F5F5F5F5F5F5F5F5F5F5F5F5F5F5F5F5F5F5F5F5F5F5F5F5F5F5F5F5F5F5F5F5F5F5F5F5F5F5F5F5F5F5F5F5F5F5F5F5F5F5F5F5F5F5F5F5F5F5F5F5F5F5F5F5F5F5F5F5F5F5F5F5F5F5F5F5F5F5F5F5F5F5F5F5F5F5F5F5F5F5F5
310
F5F5F5F5F5F5F5F5F5F5F5F5F5F5F5F5F5F5F5F5F5F5F5F5F5F5F5F5F5F5F5F5E2F5F5F5F5F5F5F5F5F5F5F5F5F5F5E2F5F5F5F5F5F5F5F5F5F5F5E2E2E2F5F5F5F5F5F5F5F5F5F5F5E2F5F5F5F5F5F5F5F5F5F5F5F5F5F5E2F5F5F5F5F5F5F5F5F5F5F5F5F5F5F5F5F5F5F5F5F5F5F5F5F5F5F5F5F5F5F5F5F5F5F5F5F5F5
310
F5F5F5F5F5F5F5F5F5F5F5F5F5F5F5F5F5F5F5F5F5F5F5F5F5F5F5F5F5F5F5F5F5F5F5F5F5F5F5F5F5F5F5F5F5F5F5F5F5F5F5F5F5F5F5F5F5F5F5F5F5F5F5F5F5F5F5F5F5F5F5F5F5F5F5F5F5F5F5F5F5F5F5F5F5E2F5F5F5F5F5F5F5F5F5F5F5F5F5F5E2F5F5F5F5F5F5F5F5F5F5F5E2E2E2F5F5F5F5F5F5F5F5F5F5F5E2
310
F5F5F5F5F5F5F5F5F5F5F5F5F5F5E2F5F5F5F5F5F5F5F5F5F5F5F5F5F5F5F5F5F5F5F5F5F5F5F5F5F5F5F5F5F5F5F5F5F5F5F5F5F5F5F5F5F5F5F5F5F5F5F5F5F5F5F5F5F5F5F5F5F5F5F5F5F5F5F5F5F5F5F5F5F5F5F5F5F5F5F5F5F5F5F5F5F5F5F5F5F5F5F5F5F5F5F5F5F5F5F5F5F5F5F5F5F5F5F5F5F5F5F5F5F5F5F5
310
F5F5F5F5F5F5F5F5F5F5F5E2F5F5F5F5F5F5F5F5F5F5F5F5F5F5E2F5F5F5F5F5F5F5F5F5F5F5E2E2E2F5F5F5F5F5F5F5F5F5F5F5E2F5F5F5F5F5F5F5F5F5F5F5F5F5F5E2F5F5F5F5F5F5F5F5F5F5F5F5F5F5F5F5F5F5F5F5F5F5F5F5F5F5F5F5F5F5F5F5F5F5F5F5F5F5F5F5F5F5F5F5F5F5F5F5F5F5F5F5F5F5F5F5F5F5F5
310
F5F5F5F5F5F5F5F5F5F5F5F5F5F5F5F5F5F5F5F5F5F5F5F5F5F5F5F5F5F5F5F5F5F5F5F5F5F5F5F5F5F5F5F5F5F5F5F5F5F5F5F5F5F5F5F5F5F5F5F5F5F5F5F5E2F5F5F5F5F5F5F5F5F5F5F5F5F5F5E2F5F5F5F5F5F5F5F5F5F5F5E2E2E2F5F5F5F5F5F5F5F5F5F5F5E2F5F5F5F5F5F5F5F5F5F5F5F5F5F5E2F5F5F5F5F5F5
310
F5F5F5F5F5F5F5F5F5F5F5F5F5F5F5F5F5F5F5F5F5F5F5F5F5F5F5F5F5F5F5F5F5F5F5F5F5F5F5F5F5F5F5F5F5F5F5F5F5F5F5F5F5F5F5F5F5F5F5F5F5F5F5F5F5F5F5F5F5F5F5F5F5F5F5F5F5F5F5F5F5F5F5F5F5F5F5F5F5F5F5F5F5F5F5F5F5F5F5F5F5F5F5F5F5F5F5F5F5F5F5F5F5F5F5F5F5E2F5F5F5F5F5F5F5F5F5
310
F5F5F5F5F5E2F5F5F5F5F5F5F5F5F5F5F5E2E2E2F5F5F5F5F5F5F5F5F5F5F5E2F5F5F5F5F5F5F5F5F5F5F5F5F5F5E2F5F5F5F5F5F5F5F5F5F5F5F5F5F5F5F5F5F5F5F5F5F5F5F5F5F5F5F5F5F5F5F5F5F5F5F5F5F5F5F5F5F5F5F5F5F5F5F5F5F5F5F5F5F5F5F5F5F5F5F5F5F5F5F5F5F5F5F5F5F5F5F5F5F5F5F5F5F5F5F5
310
F5F5F5F5F5F5F5F5F5F5F5F5F5F5F5F5F5F5F5F5F5F5F5F5F5F5F5F5F5F5F5F5F5F5F5F5F5F5F5F5F5F5F5E2F5F5F5F5F5F5F5F5F5F5F5F5F5F5E2F5F5F5F5F5F5F5F5F5F5F5E2E2E2F5F5F5F5F5F5F5F5F5F5F5E2F5F5F5F5F5F5F5F5F5F5F5F5F5F5E2F5F5F5F5F5F5F5F5F5F5F5F5F5F5F5F5F5F5F5F5F5F5F5F5F5F5F5
310
F5F5F5F5F5F5F5F5F5F5F5F5F5F5F5F5F5F5F5F5F5F5F5F5F5F5F5F5F5F5F5F5F5F5F5F5F5F5F5F5F5F5F5F5F5F5F5F5F5F5F5F5F5F5F5F5F5F5F5F5F5F5F5F5F5F5F5F5F5F5F5F5F5F5F5F5F5F5F5F5F5F5F5F5F5F5F5F5F5F5F5F5F5F5F5F5E2F5F5F5F5F5F5F5F5F5F5F5F5F5F5E2F5F5F5F5F5F5F5F5F5F5F5E2E2E2F5
310
F5F5F5F5F5F5F5F5F5F5E2F5F5F5F5F5F5F5F5F5F5F5F5F5F5E2F5F5F5F5F5F5F5F5F5F5F5F5F5F5F5F5F5F5F5F5F5F5F5F5F5F5F5F5F5F5F5F5F5F5F5F5F5F5F5F5F5F5F5F5F5F5F5F5F5F5F5F5F5F5F5F5F5F5F5F5F5F5F5F5F5F5F5F5F5F5F5F5F5F5F5F5F5F5F5F5F5F5F5F5F5F5F5F5F5F5F5F5F5F5F5F5F5F5F5F5F5
310
F5F5F5F5F5F5F5F5F5F5F5F5F5F5F5F5F5F5F5F5F5F5E2F5F5F5F5F5F5F5F5F5F5F5F5F5F5E2F5F5F5F5F5F5F5F5F5F5F5E2E2E2F5F5F5F5F5F5F5F5F5F5F5F5F5F5F5F5F5F5F5F5F5F5F5F5F5F5E2F5F5F5F5F5F5F5F5F5F5F5F5F5F5F5F5F5F5F5F5F5F5F5F5F5F5F5F5F5F5F5F5F5F5F5F5F5F5F5F5F5F5F5F5F5F5F5F5
310
F5F5F5F5F5F5F5F5F5F5F5F5F5F5F5F5F5F5F5F5F5F5F5F5F5F5F5F5F5F5F5F5F5F5F5F5F5F5F5F5F5F5F5F5F5F5F5F5F5F5F5F5F5F5F5F5F5F5F5F5F5F5F5F5F5F5F5F5F5F5F5F5F5F5F5E2F5F5F5F5F5F5F5F5F5F5F5F5F5F5F5F5F5F5F5F5F5F5F5F5F5F5E2E2E2F5F5F5F5F5F5F5F5F5F5F5F5F5F5F5F5F5F5F5F5F5F5
310
F5F5F5F5E2F5F5F5F5F5F5F5F5F5F5F5F5F5F5F5F5F5F5F5F5F5F5F5F5F5F5F5F5F5F5F5F5F5F5F5F5F5F5F5F5F5F5F5F5F5F5F5F5F5F5F5F5F5F5F5F5F5F5F5F5F5F5F5F5F5F5F5F5F5F5F5F5F5F5F5F5F5F5F5F5F5F5F5F5F5F5F5F5F5F5F5F5F5F5F5F5F5F5F5F5F5F5F5F5F5F5F5F5F5F5F5F5F5F5F5F5F5F5F5F5F5F5
310
F5E2F5F5F5F5F5F5F5F5F5F5F5F5F5F5F5F5F5F5F5F5F5F5F5F5F5F5E2E2E2F5F5F5F5F5F5F5F5F5F5F5F5F5F5F5F5F5F5F5F5F5F5F5F5F5F5E2F5F5F5F5F5F5F5F5F5F5F5F5F5F5F5F5F5F5F5F5F5F5F5F5F5F5F5F5F5F5F5F5F5F5F5F5F5F5F5F5F5F5F5F5F5F5F5F5F5F5F5F5F5F5F5F5F5F5F5F5F5F5F5F5F5F5F5F5F5
310
F5F5F5F5F5F5F5F5F5F5F5F5F5F5F5F5F5F5F5F5F5F5F5F5F5F5F5F5F5F5F5F5F5F5F5F5F5F5F5F5F5F5F5F5F5F5F5F5F5F5F5F5F5F5E2F5F5F5F5F5F5F5F5F5F5F5F5F5F5F5F5F5F5F5F5F5F5F5F5F5F5E2E2E2F5F5F5F5F5F5F5F5F5F5F5F5F5F5F5F5F5F5F5F5F5F5F5F5F5F5E2F5F5F5F5F5F5F5F5F5F5F5F5F5F5F5F5
310
F5F5F5F5F5F5F5F5F5F5F5F5F5F5F5F5F5F5F5F5F5F5F5F5F5F5F5F5F5F5F5F5F5F5F5F5F5F5F5F5F5F5F5F5F5F5F5F5F5F5F5F5F5F5F5F5F5F5F5F5F5F5F5F5F5F5F5F5F5F5F5F5F5F5F5F5F5F5F5F5F5F5F5F5F5F5F5F5F5F5F5F5F5F5F5F5F5F5F5F5F5F5F5F5F5F5F5E2F5F5F5F5F5F5F5F5F5F5F5F5F5F5F5F5F5F5F5
310
F5F5F5F5F5F5F5E2E2E2F5F5F5F5F5F5F5F5F5F5F5F5F5F5F5F5F5F5F5F5F5F5F5F5F5F5E2F5F5F5F5F5F5F5F5F5F5F5F5F5F5F5F5F5F5F5F5F5F5F5F5F5F5F5F5F5F5F5F5F5F5F5F5F5F5F5F5F5F5F5F5F5F5F5F5F5F5F5F5F5F5F5F5F5F5F5F5F5F5F5F5F5F5F5F5F5F5F5F5F5F5F5F5F5F5F5F5F5F5F5F5F5F5F5F5F5F5
310
F5F5F5F5F5F5F5F5F5F5F5F5F5F5F5F5F5F5F5F5F5F5F5F5F5F5F5F5F5F5F5F5F5E2F5F5F5F5F5F5F5F5F5F5F5F5F5F5F5F5F5F5F5F5F5F5F5F5F5F5E2E2E2F5F5F5F5F5F5F5F5F5F5F5F5F5F5F5F5F5F5F5F5F5F5F5F5F5F5E2F5F5F5F5F5F5F5F5F5F5F5F5F5F5F5F5F5F5F5F5F5F5F5F5F5F5F5F5F5F5F5F5F5F5F5F5F5
310
F5F5F5F5F5F5F5F5F5F5F5F5F5F5F5F5F5F5F5F5F5F5F5F5F5F5F5F5F5F5F5F5F5F5F5F5F5F5F5F5F5F5F5F5F5F5F5F5F5F5F5F5F5F5F5F5F5F5F5F5F5F5F5F5F5F5F5F5F5F5F5F5F5F5F5F5F5F5F5F5F5F5F5F5F5F5E2F5F5F5F5F5F5F5F5F5F5F5F5F5F5F5F5F5F5F5F5F5F5F5F5F5F5E2E2E2F5F5F5F5F5F5F5F5F5F5F5
310
F5F5F5F5F5F5F5F5F5F5F5F5F5F5F5E2F5F5F5F5F5F5F5F5F5F5F5F5F5F5F5F5F5F5F5F5F5F5F5F5F5F5F5F5F5F5F5F5F5F5F5F5F5F5F5F5F5F5F5F5F5F5F5F5F5F5F5F5F5F5F5F5F5F5F5F5F5F5F5F5F5F5F5F5F5F5F5F5F5F5F5F5F5F5F5F5F5F5F5F5F5F5F5F5F5F5F5F5F5F5F5F5F5F5F5F5F5F5F5F5F5F5F5F5F5F5F5
310
F5F5F5F5F5F5F5F5F5F5F5F5E2F5F5F5F5F5F5F5F5F5F5F5F5F5F5F5F5F5F5F5F5F5F5F5F5F5F5E2E2E2F5F5F5F5F5F5F5F5F5F5F5F5F5F5F5F5F5F5F5F5F5F5F5F5F5F5E2F5F5F5F5F5F5F5F5F5F5F5F5F5F5F5F5F5F5F5F5F5F5F5F5F5F5F5F5F5F5F5F5F5F5F5F5F5F5F5F5F5F5F5F5F5F5F5F5F5F5F5F5F5F5F5F5F5F5
310
F5F5F5F5F5F5F5F5F5F5F5F5F5F5F5F5F5F5F5F5F5F5F5F5F5F5F5F5F5F5F5F5F5F5F5F5F5F5F5F5F5F5F5F5F5F5F5F5F5F5F5F5F5F5F5F5F5F5F5F5F5F5F5F5F5E2F5F5F5F5F5F5F5F5F5F5F5F5F5F5F5F5F5F5F5F5F5F5F5F5F5F5E2E2E2F5F5F5F5F5F5F5F5F5F5F5E2F5F5F5F5F5F5F5F5F5F5F5F5F5F5E2F5F5F5F5F5
310
F5F5F5F5F5F5F5F5F5F5F5F5F5F5F5F5F5F5F5F5F5F5F5F5F5F5F5F5F5F5F5F5F5F5F5F5F5F5F5F5F5F5F5F5F5F5F5F5F5F5F5F5F5F5F5F5F5F5F5F5F5F5F5F5F5F5F5F5F5F5F5F5F5F5F5F5F5F5F5F5F5F5F5F5F5F5F5F5F5F5F5F5F5F5F5F5F5F5F5F5F5F5F5F5F5F5F5F5F5F5F5F5F5F5F5F5F5F5E2F5F5F5F5F5F5F5F5
310
F5F5F5F5F5F5E2F5F5F5F5F5F5F5F5F5F5F5E2E2E2F5F5F5F5F5F5F5F5F5F5F5E2F5F5F5F5F5F5F5F5F5F5F5F5F5F5E2F5F5F5F5F5F5F5F5F5F5F5F5F5F5F5F5F5F5F5F5F5F5F5F5F5F5F5F5F5F5F5F5F5F5F5F5F5F5F5F5F5F5F5F5F5F5F5F5F5F5F5F5F5F5F5F5F5F5F5F5F5F5F5F5F5F5F5F5F5F5F5F5F5F5F5F5F5F5F5
310
F5F5F5F5F5F5F5F5F5F5F5F5F5F5F5F5F5F5F5F5F5F5F5F5F5F5F5F5F5F5F5F5F5F5F5F5F5F5F5F5F5F5F5F5E2F5F5F5F5F5F5F5F5F5F5F5F5F5F5E2F5F5F5F5F5F5F5F5F5F5F5E2E2E2F5F5F5F5F5F5F5F5F5F5F5E2F5F5F5F5F5F5F5F5F5F5F5F5F5F5E2F5F5F5F5F5F5F5F5F5F5F5F5F5F5F5F5F5F5F5F5F5F5F5F5F5F5
310
F5F5F5F5F5F5F5F5F5F5F5F5F5F5F5F5F5F5F5F5F5F5F5F5F5F5F5F5F5F5F5F5F5F5F5F5F5F5F5F5F5F5F5F5F5F5F5F5F5F5F5F5F5F5F5F5F5F5F5F5F5F5F5F5F5F5F5F5F5F5F5F5F5F5F5F5F5F5F5F5F5F5F5F5F5F5F5F5F5F5F5F5F5F5F5F5F5E2F5F5F5F5F5F5F5F5F5F5F5F5F5F5E2F5F5F5F5F5F5F5F5F5F5F5E2E2E2
310
F5F5F5F5F5F5F5F5F5F5F5E2F5F5F5F5F5F5F5F5F5F5F5F5F5F5E2F5F5F5F5F5F5F5F5F5F5F5F5F5F5F5F5F5F5F5F5F5F5F5F5F5F5F5F5F5F5F5F5F5F5F5F5F5F5F5F5F5F5F5F5F5F5F5F5F5F5F5F5F5F5F5F5F5F5F5F5F5F5F5F5F5F5F5F5F5F5F5F5F5F5F5F5F5F5F5F5F5F5F5F5F5F5F5F5F5F5F5F5F5F5F5F5F5F5F5F5
310
F5F5F5F5F5F5F5F5F5F5F5F5F5F5F5F5F5F5F5F5F5F5F5E2F5F5F5F5F5F5F5F5F5F5F5F5F5F5E2F5F5F5F5F5F5F5F5F5F5F5E2E2E2F5F5F5F5F5F5F5F5F5F5F5E2F5F5F5F5F5F5F5F5F5F5F5F5F5F5E2F5F5F5F5F5F5F5F5F5F5F5F5F5F5F5F5F5F5F5F5F5F5F5F5F5F5F5F5F5F5F5F5F5F5F5F5F5F5F5F5F5F5F5F5F5F5F5
310
F5F5F5F5F5F5F5F5F5F5F5F5F5F5F5F5F5F5F5F5F5F5F5F5F5F5F5F5F5F5F5F5F5F5F5F5F5F5F5F5F5F5F5F5F5F5F5F5F5F5F5F5F5F5F5F5F5F5F5F5F5F5F5F5F5F5F5F5F5F5F5F5F5F5F5F5E2F5F5F5F5F5F5F5F5F5F5F5F5F5F5E2F5F5F5F5F5F5F5F5F5F5F5E2E2E2F5F5F5F5F5F5F5F5F5F5F5E2F5F5F5F5F5F5F5F5F5
310
F5F5F5F5F5E2F5F5F5F5F5F5F5F5F5F5F5F5F5F5F5F5F5F5F5F5F5F5F5F5F5F5F5F5F5F5F5F5F5F5F5F5F5F5F5F5F5F5F5F5F5F5F5F5F5F5F5F5F5F5F5F5F5F5F5F5F5F5F5F5F5F5F5F5F5F5F5F5F5F5F5F5F5F5F5F5F5F5F5F5F5F5F5F5F5F5F5F5F5F5F5F5F5F5F5F5F5F5F5F5F5F5F5F5F5F5F5F5F5F5F5F5F5F5F5F5F5
310
F5F5E2F5F5F5F5F5F5F5F5F5F5F5F5F5F5E2F5F5F5F5F5F5F5F5F5F5F5E2E2E2F5F5F5F5F5F5F5F5F5F5F5E2F5F5F5F5F5F5F5F5F5F5F5F5F5F5E2F5F5F5F5F5F5F5F5F5F5F5F5F5F5F5F5F5F5F5F5F5F5F5F5F5F5F5F5F5F5F5F5F5F5F5F5F5F5F5F5F5F5F5F5F5F5F5F5F5F5F5F5F5F5F5F5F5F5F5F5F5F5F5F5F5F5F5F5
310
F5F5F5F5F5F5F5F5F5F5F5F5F5F5F5F5F5F5F5F5F5F5F5F5F5F5F5F5F5F5F5F5F5F5F5F5F5F5F5F5F5F5F5F5F5F5F5F5F5F5F5F5F5F5F5E2F5F5F5F5F5F5F5F5F5F5F5F5F5F5E2F5F5F5F5F5F5F5F5F5F5F5E2E2E2F5F5F5F5F5F5F5F5F5F5F5E2F5F5F5F5F5F5F5F5F5F5F5F5F5F5E2F5F5F5F5F5F5F5F5F5F5F5F5F5F5F5
310
F5F5F5F5F5F5F5F5F5F5F5F5F5F5F5F5F5F5F5F5F5F5F5F5F5F5F5F5F5F5F5F5F5F5F5F5F5F5F5F5F5F5F5F5F5F5F5F5F5F5F5F5F5F5F5F5F5F5F5F5F5F5F5F5F5F5F5F5F5F5F5F5F5F5F5F5F5F5F5F5F5F5F5F5F5F5F5F5F5F5F5F5F5F5F5F5F5F5F5F5F5F5F5F5F5F5F5F5E2F5F5F5F5F5F5F5F5F5F5F5F5F5F5E2F5F5F5
310
F5F5F5F5F5F5F5F5E2E2E2F5F5F5F5F5F5F5F5F5F5F5E2F5F5F5F5F5F5F5F5F5F5F5F5F5F5E2F5F5F5F5F5F5F5F5F5F5F5F5F5F5F5F5F5F5F5F5F5F5F5F5F5F5F5F5F5F5F5F5F5F5F5F5F5F5F5F5F5F5F5F5F5F5F5F5F5F5F5F5F5F5F5F5F5F5F5F5F5F5F5F5F5F5F5F5F5F5F5F5F5F5F5F5F5F5F5F5F5F5F5F5F5F5F5F5F5
310
F5F5F5F5F5F5F5F5F5F5F5F5F5F5F5F5F5F5F5F5F5F5F5F5F5F5F5F5F5F5F5F5F5F5E2F5F5F5F5F5F5F5F5F5F5F5F5F5F5E2F5F5F5F5F5F5F5F5F5F5F5E2E2E2F5F5F5F5F5F5F5F5F5F5F5E2F5F5F5F5F5F5F5F5F5F5F5F5F5F5E2F5F5F5F5F5F5F5F5F5F5F5F5F5F5F5F5F5F5F5F5F5F5F5F5F5F5F5F5F5F5F5F5F5F5F5F5
310
F5F5F5F5F5F5F5F5F5F5F5F5F5F5F5F5F5F5F5F5F5F5F5F5F5F5F5F5F5F5F5F5F5F5F5F5F5F5F5F5F5F5F5F5F5F5F5F5F5F5F5F5F5F5F5F5F5F5F5F5F5F5F5F5F5F5F5F5F5F5F5F5F5F5F5F5F5F5F5F5F5F5F5F5F5F5F5E2F5F5F5F5F5F5F5F5F5F5F5F5F5F5E2F5F5F5F5F5F5F5F5F5F5F5E2E2E2F5F5F5F5F5F5F5F5F5F5
310
F5E2F5F5F5F5F5F5F5F5F5F5F5F5F5F5E2F5F5F5F5F5F5F5F5F5F5F5F5F5F5F5F5F5F5F5F5F5F5F5F5F5F5F5F5F5F5F5F5F5F5F5F5F5F5F5F5F5F5F5F5F5F5F5F5F5F5F5F5F5F5F5F5F5F5F5F5F5F5F5F5F5F5F5F5F5F5F5F5F5F5F5F5F5F5F5F5F5F5F5F5F5F5F5F5F5F5F5F5F5F5F5F5F5F5F5F5F5F5F5F5F5F5F5F5F5F5
310
F5F5F5F5F5F5F5F5F5F5F5F5F5E2F5F5F5F5F5F5F5F5F5F5F5F5F5F5E2F5F5F5F5F5F5F5F5F5F5F5E2E2E2F5F5F5F5F5F5F5F5F5F5F5E2F5F5F5F5F5F5F5F5F5F5F5F5F5F5E2F5F5F5F5F5F5F5F5F5F5F5F5F5F5F5F5F5F5F5F5F5F5F5F5F5F5F5F5F5F5F5F5F5F5F5F5F5F5F5F5F5F5F5F5F5F5F5F5F5F5F5F5F5F5F5F5F5
310
F5F5F5F5F5F5F5F5F5F5F5F5F5F5F5F5F5F5F5F5F5F5F5F5F5F5F5F5F5F5F5F5F5F5F5F5F5F5F5F5F5F5F5F5F5F5F5F5F5F5F5F5F5F5F5F5F5F5F5F5F5F5F5F5F5F5E2F5F5F5F5F5F5F5F5F5F5F5F5F5F5E2F5F5F5F5F5F5F5F5F5F5F5E2E2E2F5F5F5F5F5F5F5F5F5F5F5E2F5F5F5F5F5F5F5F5F5F5F5F5F5F5E2F5F5F5F5
310
F5F5F5F5F5F5F5F5F5F5F5F5F5F5F5F5F5F5F5F5F5F5F5F5F5F5F5F5F5F5F5F5F5F5F5F5F5F5F5F5F5F5F5F5F5F5F5F5F5F5F5F5F5F5F5F5F5F5F5F5F5F5F5F5F5F5F5F5F5F5F5F5F5F5F5F5F5F5F5F5F5F5F5F5F5F5F5F5F5F5F5F5F5F5F5F5F5F5F5F5F5F5F5F5F5F5F5F5F5F5F5F5F5F5F5F5F5F5F5E2F5F5F5F5F5F5F5
310
F5F5F5F5F5F5F5E2F5F5F5F5F5F5F5F5F5F5F5E2E2E2F5F5F5F5F5F5F5F5F5F5F5E2F5F5F5F5F5F5F5F5F5F5F5F5F5F5E2F5F5F5F5F5F5F5F5F5F5F5F5F5F5F5F5F5F5F5F5F5F5F5F5F5F5F5F5F5F5F5F5F5F5F5F5F5F5F5F5F5F5F5F5F5F5F5F5F5F5F5F5F5F5F5F5F5F5F5F5F5F5F5F5F5F5F5F5F5F5F5F5F5F5F5F5F5F5
310
F5F5F5F5F5F5F5F5F5F5F5F5F5F5F5F5F5F5F5F5F5F5F5F5F5F5F5F5F5F5F5F5F5F5F5F5F5F5F5F5F5F5F5F5F5E2F5F5F5F5F5F5F5F5F5F5F5F5F5F5E2F5F5F5F5F5F5F5F5F5F5F5E2E2E2F5F5F5F5F5F5F5F5F5F5F5E2F5F5F5F5F5F5F5F5F5F5F5F5F5F5E2F5F5F5F5F5F5F5F5F5F5F5F5F5F5F5F5F5F5F5F5F5F5F5F5F5
310
F5F5F5F5F5F5F5F5F5F5F5F5F5F5F5F5F5F5F5F5F5F5F5F5F5F5F5F5F5F5F5F5F5F5F5F5F5F5F5F5F5F5F5F5F5F5F5F5F5F5F5F5F5F5F5F5F5F5F5F5F5F5F5F5F5F5F5F5F5F5F5F5F5F5F5F5F5F5F5F5F5F5F5F5F5F5F5F5F5F5F5F5F5F5F5F5F5F5E2F5F5F5F5F5F5F5F5F5F5F5F5F5F5E2F5F5F5F5F5F5F5F5F5F5F5E2E2
310
E2F5F5F5F5F5F5F5F5F5F5F5F5F5F5F5F5F5F5F5F5F5F5F5F5F5F5E2F5F5F5F5F5F5F5F5F5F5F5F5F5F5F5F5F5F5F5F5F5F5F5F5F5F5F5F5F5F5F5F5F5F5F5F5F5F5F5F5F5F5F5F5F5F5F5F5F5F5F5F5F5F5F5F5F5F5F5F5F5F5F5F5F5F5F5F5F5F5F5F5F5F5F5F5F5F5F5F5F5F5F5F5F5F5F5F5F5F5F5F5F5F5F5F5F5F5F5
310
F5F5F5F5F5F5F5F5F5F5F5F5F5F5F5F5F5F5F5F5F5F5F5F5E2F5F5F5F5F5F5F5F5F5F5F5F5F5F5F5F5F5F5F5F5F5F5F5F5F5F5E2E2E2F5F5F5F5F5F5F5F5F5F5F5F5F5F5F5F5F5F5F5F5F5F5F5F5F5F5E2F5F5F5F5F5F5F5F5F5F5F5F5F5F5F5F5F5F5F5F5F5F5F5F5F5F5F5F5F5F5F5F5F5F5F5F5F5F5F5F5F5F5F5F5F5F5
310
F5F5F5F5F5F5F5F5F5F5F5F5F5F5F5F5F5F5F5F5F5F5F5F5F5F5F5F5F5F5F5F5F5F5F5F5F5F5F5F5F5F5F5F5F5F5F5F5F5F5F5F5F5F5F5F5F5F5F5F5F5F5F5F5F5F5F5F5F5F5F5F5F5F5F5F5F5E2F5F5F5F5F5F5F5F5F5F5F5F5F5F5F5F5F5F5F5F5F5F5F5F5F5F5E2E2E2F5F5F5F5F5F5F5F5F5F5F5F5F5F5F5F5F5F5F5F5
310
F5F5F5F5F5F5E2F5F5F5F5F5F5F5F5F5F5F5F5F5F5F5F5F5F5F5F5F5F5F5F5F5F5F5F5F5F5F5F5F5F5F5F5F5F5F5F5F5F5F5F5F5F5F5F5F5F5F5F5F5F5F5F5F5F5F5F5F5F5F5F5F5F5F5F5F5F5F5F5F5F5F5F5F5F5F5F5F5F5F5F5F5F5F5F5F5F5F5F5F5F5F5F5F5F5F5F5F5F5F5F5F5F5F5F5F5F5F5F5F5F5F5F5F5F5F5F5
310
F5F5F5E2F5F5F5F5F5F5F5F5F5F5F5F5F5F5F5F5F5F5F5F5F5F5F5F5F5F5E2E2E2F5F5F5F5F5F5F5F5F5F5F5F5F5F5F5F5F5F5F5F5F5F5F5F5F5F5E2F5F5F5F5F5F5F5F5F5F5F5F5F5F5F5F5F5F5F5F5F5F5F5F5F5F5F5F5F5F5F5F5F5F5F5F5F5F5F5F5F5F5F5F5F5F5F5F5F5F5F5F5F5F5F5F5F5F5F5F5F5F5F5F5F5F5F5
310
F5F5F5F5F5F5F5F5F5F5F5F5F5F5F5F5F5F5F5F5F5F5F5F5F5F5F5F5F5F5F5F5F5F5F5F5F5F5F5F5F5F5F5F5F5F5F5F5F5F5F5F5F5F5F5F5E2F5F5F5F5F5F5F5F5F5F5F5F5F5F5F5F5F5F5F5F5F5F5F5F5F5F5E2E2E2F5F5F5F5F5F5F5F5F5F5F5F5F5F5F5F5F5F5F5F5F5F5F5F5F5F5E2F5F5F5F5F5F5F5F5F5F5F5F5F5F5
310
F5F5F5F5F5F5F5F5F5F5F5F5F5F5F5F5F5F5F5F5F5F5F5F5F5F5F5F5F5F5F5F5F5F5F5F5F5F5F5F5F5F5F5F5F5F5F5F5F5F5F5F5F5F5F5F5F5F5F5F5F5F5F5F5F5F5F5F5F5F5F5F5F5F5F5F5F5F5F5F5F5F5F5F5F5F5F5F5F5F5F5F5F5F5F5F5F5F5F5F5F5F5F5F5F5F5F5F5F5E2F5F5F5F5F5F5F5F5F5F5F5F5F5F5F5F5F5
310
F5F5F5F5F5F5F5F5F5E2E2E2F5F5F5F5F5F5F5F5F5F5F5F5F5F5F5F5F5F5F5F5F5F5F5F5F5F5E2F5F5F5F5F5F5F5F5F5F5F5F5F5F5F5F5F5F5F5F5F5F5F5F5F5F5F5F5F5F5F5F5F5F5F5F5F5F5F5F5F5F5F5F5F5F5F5F5F5F5F5F5F5F5F5F5F5F5F5F5F5F5F5F5F5F5F5F5F5F5F5F5F5F5F5F5F5F5F5F5F5F5F5F5F5F5F5F5
310
F5F5F5F5F5F5F5F5F5F5F5F5F5F5F5F5F5F5F5F5F5F5F5F5F5F5F5F5F5F5F5F5F5F5F5E2F5F5F5F5F5F5F5F5F5F5F5F5F5F5F5F5F5F5F5F5F5F5F5F5F5F5E2E2E2F5F5F5F5F5F5F5F5F5F5F5F5F5F5F5F5F5F5F5F5F5F5F5F5F5F5E2F5F5F5F5F5F5F5F5F5F5F5F5F5F5F5F5F5F5F5F5F5F5F5F5F5F5F5F5F5F5F5F5F5F5F5
310
F5F5F5F5F5F5F5F5F5F5F5F5F5F5F5F5F5F5F5F5F5F5F5F5F5F5F5F5F5F5F5F5F5F5F5F5F5F5F5F5F5F5F5F5F5F5F5F5F5F5F5F5F5F5F5F5F5F5F5F5F5F5F5F5F5F5F5F5F5F5F5F5F5F5F5F5F5F5F5F5F5F5F5F5F5F5F5F5E2F5F5F5F5F5F5F5F5F5F5F5F5F5F5F5F5F5F5F5F5F5F5F5F5F5F5E2E2E2F5F5F5F5F5F5F5F5F5
310
F5F5F5F5F5F5F5F5F5F5F5F5F5F5F5F5F5E2F5F5F5F5F5F5F5F5F5F5F5F5F5F5F5F5F5F5F5F5F5F5F5F5F5F5F5F5F5F5F5F5F5F5F5F5F5F5F5F5F5F5F5F5F5F5F5F5F5F5F5F5F5F5F5F5F5F5F5F5F5F5F5F5F5F5F5F5F5F5F5F5F5F5F5F5F5F5F5F5F5F5F5F5F5F5F5F5F5F5F5F5F5F5F5F5F5F5F5F5F5F5F5F5F5F5F5F5F5
310
F5F5F5F5F5F5F5F5F5F5F5F5F5F5E2F5F5F5F5F5F5F5F5F5F5F5F5F5F5F5F5F5F5F5F5F5F5F5F5F5F5E2E2E2F5F5F5F5F5F5F5F5F5F5F5F5F5F5F5F5F5F5F5F5F5F5F5F5F5F5E2F5F5F5F5F5F5F5F5F5F5F5F5F5F5F5F5F5F5F5F5F5F5F5F5F5F5F5F5F5F5F5F5F5F5F5F5F5F5F5F5F5F5F5F5F5F5F5F5F5F5F5F5F5F5F5F5
310
F5F5F5F5F5F5F5F5F5F5F5F5F5F5F5F5F5F5F5F5F5F5F5F5F5F5F5F5F5F5F5F5F5F5F5F5F5F5F5F5F5F5F5F5F5F5F5F5F5F5F5F5F5F5F5F5F5F5F5F5F5F5F5F5F5F5F5E2F5F5F5F5F5F5F5F5F5F5F5F5F5F5F5F5F5F5F5F5F5F5F5F5F5F5E2E2E2F5F5F5F5F5F5F5F5F5F5F5E2F5F5F5F5F5F5F5F5F5F5F5F5F5F5E2F5F5F5
310
F5F5F5F5F5F5F5F5F5F5F5F5F5F5F5F5F5F5F5F5F5F5F5F5F5F5F5F5F5F5F5F5F5F5F5F5F5F5F5F5F5F5F5F5F5F5F5F5F5F5F5F5F5F5F5F5F5F5F5F5F5F5F5F5F5F5F5F5F5F5F5F5F5F5F5F5F5F5F5F5F5F5F5F5F5F5F5F5F5F5F5F5F5F5F5F5F5F5F5F5F5F5F5F5F5F5F5F5F5F5F5F5F5F5F5F5F5F5F5F5E2F5F5F5F5F5F5
310
F5F5F5F5F5F5F5F5E2F5F5F5F5F5F5F5F5F5F5F5E2E2E2F5F5F5F5F5F5F5F5F5F5F5E2F5F5F5F5F5F5F5F5F5F5F5F5F5F5E2F5F5F5F5F5F5F5F5F5F5F5F5F5F5F5F5F5F5F5F5F5F5F5F5F5F5F5F5F5F5F5F5F5F5F5F5F5F5F5F5F5F5F5F5F5F5F5F5F5F5F5F5F5F5F5F5F5F5F5F5F5F5F5F5F5F5F5F5F5F5F5F5F5F5F5F5F5
310
F5F5F5F5F5F5F5F5F5F5F5F5F5F5F5F5F5F5F5F5F5F5F5F5F5F5F5F5F5F5F5F5F5F5F5F5F5F5F5F5F5F5F5F5F5F5E2F5F5F5F5F5F5F5F5F5F5F5F5F5F5E2F5F5F5F5F5F5F5F5F5F5F5E2E2E2F5F5F5F5F5F5F5F5F5F5F5E2F5F5F5F5F5F5F5F5F5F5F5F5F5F5E2F5F5F5F5F5F5F5F5F5F5F5F5F5F5F5F5F5F5F5F5F5F5F5F5
310
F5F5F5F5F5F5F5F5F5F5F5F5F5F5F5F5F5F5F5F5F5F5F5F5F5F5F5F5F5F5F5F5F5F5F5F5F5F5F5F5F5F5F5F5F5F5F5F5F5F5F5F5F5F5F5F5F5F5F5F5F5F5F5F5F5F5F5F5F5F5F5F5F5F5F5F5F5F5F5F5F5F5F5F5F5F5F5F5F5F5F5F5F5F5F5F5F5F5F5E2F5F5F5F5F5F5F5F5F5F5F5F5F5F5E2F5F5F5F5F5F5F5F5F5F5F5E2
310
E2E2F5F5F5F5F5F5F5F5F5F5F5E2F5F5F5F5F5F5F5F5F5F5F5F5F5F5E2F5F5F5F5F5F5F5F5F5F5F5F5F5F5F5F5F5F5F5F5F5F5F5F5F5F5F5F5F5F5F5F5F5F5F5F5F5F5F5F5F5F5F5F5F5F5F5F5F5F5F5F5F5F5F5F5F5F5F5F5F5F5F5F5F5F5F5F5F5F5F5F5F5F5F5F5F5F5F5F5F5F5F5F5F5F5F5F5F5F5F5F5F5F5F5F5F5F5
310
F5F5F5F5F5F5F5F5F5F5F5F5F5F5F5F5F5F5F5F5F5F5F5F5F5E2F5F5F5F5F5F5F5F5F5F5F5F5F5F5E2F5F5F5F5F5F5F5F5F5F5F5E2E2E2F5F5F5F5F5F5F5F5F5F5F5E2F5F5F5F5F5F5F5F5F5F5F5F5F5F5E2F5F5F5F5F5F5F5F5F5F5F5F5F5F5F5F5F5F5F5F5F5F5F5F5F5F5F5F5F5F5F5F5F5F5F5F5F5F5F5F5F5F5F5F5F5
310
F5F5F5F5F5F5F5F5F5F5F5F5F5F5F5F5F5F5F5F5F5F5F5F5F5F5F5F5F5F5F5F5F5F5F5F5F5F5F5F5F5F5F5F5F5F5F5F5F5F5F5F5F5F5F5F5F5F5F5F5F5F5F5F5F5F5F5F5F5F5F5F5F5F5F5F5F5F5E2F5F5F5F5F5F5F5F5F5F5F5F5F5F5E2F5F5F5F5F5F5F5F5F5F5F5E2E2E2F5F5F5F5F5F5F5F5F5F5F5E2F5F5F5F5F5F5F5
310
F5F5F5F5F5F5F5E2F5F5F5F5F5F5F5F5F5F5F5F5F5F5F5F5F5F5F5F5F5F5F5F5F5F5F5F5F5F5F5F5F5F5F5F5F5F5F5F5F5F5F5F5F5F5F5F5F5F5F5F5F5F5F5F5F5F5F5F5F5F5F5F5F5F5F5F5F5F5F5F5F5F5F5F5F5F5F5F5F5F5F5F5F5F5F5F5F5F5F5F5F5F5F5F5F5F5F5F5F5F5F5F5F5F5F5F5F5F5F5F5F5F5F5F5F5F5F5
310
F5F5F5F5E2F5F5F5F5F5F5F5F5F5F5F5F5F5F5E2F5F5F5F5F5F5F5F5F5F5F5E2E2E2F5F5F5F5F5F5F5F5F5F5F5E2F5F5F5F5F5F5F5F5F5F5F5F5F5F5E2F5F5F5F5F5F5F5F5F5F5F5F5F5F5F5F5F5F5F5F5F5F5F5F5F5F5F5F5F5F5F5F5F5F5F5F5F5F5F5F5F5F5F5F5F5F5F5F5F5F5F5F5F5F5F5F5F5F5F5F5F5F5F5F5F5F5
310
F5F5F5F5F5F5F5F5F5F5F5F5F5F5F5F5F5F5F5F5F5F5F5F5F5F5F5F5F5F5F5F5F5F5F5F5F5F5F5F5F5F5F5F5F5F5F5F5F5F5F5F5F5F5F5F5F5E2F5F5F5F5F5F5F5F5F5F5F5F5F5F5E2F5F5F5F5F5F5F5F5F5F5F5E2E2E2F5F5F5F5F5F5F5F5F5F5F5E2F5F5F5F5F5F5F5F5F5F5F5F5F5F5E2F5F5F5F5F5F5F5F5F5F5F5F5F5
310
F5F5F5F5F5F5F5F5F5F5F5F5F5F5F5F5F5F5F5F5F5F5F5F5F5F5F5F5F5F5F5F5F5F5F5F5F5F5F5F5F5F5F5F5F5F5F5F5F5F5F5F5F5F5F5F5F5F5F5F5F5F5F5F5F5F5F5F5F5F5F5F5F5F5F5F5F5F5F5F5F5F5F5F5F5F5F5F5F5F5F5F5F5F5F5F5F5F5F5F5F5F5F5F5F5F5F5F5F5F5E2F5F5F5F5F5F5F5F5F5F5F5F5F5F5E2F5
310
F5F5F5F5F5F5F5F5F5F5E2E2E2F5F5F5F5F5F5F5F5F5F5F5E2F5F5F5F5F5F5F5F5F5F5F5F5F5F5E2F5F5F5F5F5F5F5F5F5F5F5F5F5F5F5F5F5F5F5F5F5F5F5F5F5F5F5F5F5F5F5F5F5F5F5F5F5F5F5F5F5F5F5F5F5F5F5F5F5F5F5F5F5F5F5F5F5F5F5F5F5F5F5F5F5F5F5F5F5F5F5F5F5F5F5F5F5F5F5F5F5F5F5F5F5F5F5
310
F5F5F5F5F5F5F5F5F5F5F5F5F5F5F5F5F5F5F5F5F5F5F5F5F5F5F5F5F5F5F5F5F5F5F5F5E2F5F5F5F5F5F5F5F5F5F5F5F5F5F5E2F5F5F5F5F5F5F5F5F5F5F5E2E2E2F5F5F5F5F5F5F5F5F5F5F5E2F5F5F5F5F5F5F5F5F5F5F5F5F5F5E2F5F5F5F5F5F5F5F5F5F5F5F5F5F5F5F5F5F5F5F5F5F5F5F5F5F5F5F5F5F5F5F5F5F5
310
F5F5F5F5F5F5F5F5F5F5F5F5F5F5F5F5F5F5F5F5F5F5F5F5F5F5F5F5F5F5F5F5F5F5F5F5F5F5F5F5F5F5F5F5F5F5F5F5F5F5F5F5F5F5F5F5F5F5F5F5F5F5F5F5F5F5F5F5F5F5F5F5F5F5F5F5F5F5F5F5F5F5F5F5F5F5F5F5F5E2F5F5F5F5F5F5F5F5F5F5F5F5F5F5E2F5F5F5F5F5F5F5F5F5F5F5E2E2E2F5F5F5F5F5F5F5F5
310
F5F5F5E2F5F5F5F5F5F5F5F5F5F5F5F5F5F5E2F5F5F5F5F5F5F5F5F5F5F5F5F5F5F5F5F5F5F5F5F5F5F5F5F5F5F5F5F5F5F5F5F5F5F5F5F5F5F5F5F5F5F5F5F5F5F5F5F5F5F5F5F5F5F5F5F5F5F5F5F5F5F5F5F5F5F5F5F5F5F5F5F5F5F5F5F5F5F5F5F5F5F5F5F5F5F5F5F5F5F5F5F5F5F5F5F5F5F5F5F5F5F5F5F5F5F5F5
310
F5F5F5F5F5F5F5F5F5F5F5F5F5F5F5E2F5F5F5F5F5F5F5F5F5F5F5F5F5F5E2F5F5F5F5F5F5F5F5F5F5F5E2E2E2F5F5F5F5F5F5F5F5F5F5F5E2F5F5F5F5F5F5F5F5F5F5F5F5F5F5E2F5F5F5F5F5F5F5F5F5F5F5F5F5F5F5F5F5F5F5F5F5F5F5F5F5F5F5F5F5F5F5F5F5F5F5F5F5F5F5F5F5F5F5F5F5F5F5F5F5F5F5F5F5F5F5
310
F5F5F5F5F5F5F5F5F5F5F5F5F5F5F5F5F5F5F5F5F5F5F5F5F5F5F5F5F5F5F5F5F5F5F5F5F5F5F5F5F5F5F5F5F5F5F5F5F5F5F5F5F5F5F5F5F5F5F5F5F5F5F5F5F5F5F5F5E2F5F5F5F5F5F5F5F5F5F5F5F5F5F5E2F5F5F5F5F5F5F5F5F5F5F5E2E2E2F5F5F5F5F5F5F5F5F5F5F5E2F5F5F5F5F5F5F5F5F5F5F5F5F5F5E2F5F5
310
F5F5F5F5F5F5F5F5F5F5F5F5F5F5F5F5F5F5F5F5F5F5F5F5F5F5F5F5F5F5F5F5F5F5F5F5F5F5F5F5F5F5F5F5F5F5F5F5F5F5F5F5F5F5F5F5F5F5F5F5F5F5F5F5F5F5F5F5F5F5F5F5F5F5F5F5F5F5F5F5F5F5F5F5F5F5F5F5F5F5F5F5F5F5F5F5F5F5F5F5F5F5F5F5F5F5F5F5F5F5F5F5F5F5F5F5F5F5F5F5F5E2F5F5F5F5F5
310
F5F5F5F5F5F5F5F5F5E2F5F5F5F5F5F5F5F5F5F5F5E2E2E2F5F5F5F5F5F5F5F5F5F5F5E2F5F5F5F5F5F5F5F5F5F5F5F5F5F5E2F5F5F5F5F5F5F5F5F5F5F5F5F5F5F5F5F5F5F5F5F5F5F5F5F5F5F5F5F5F5F5F5F5F5F5F5F5F5F5F5F5F5F5F5F5F5F5F5F5F5F5F5F5F5F5F5F5F5F5F5F5F5F5F5F5F5F5F5F5F5F5F5F5F5F5F5
310
F5F5F5F5F5F5F5F5F5F5F5F5F5F5F5F5F5F5F5F5F5F5F5F5F5F5F5F5F5F5F5F5F5F5F5F5F5F5F5F5F5F5F5F5F5F5F5E2F5F5F5F5F5F5F5F5F5F5F5F5F5F5E2F5F5F5F5F5F5F5F5F5F5F5E2E2E2F5F5F5F5F5F5F5F5F5F5F5E2F5F5F5F5F5F5F5F5F5F5F5F5F5F5E2F5F5F5F5F5F5F5F5F5F5F5F5F5F5F5F5F5F5F5F5F5F5F5
310
F5F5F5F5F5F5F5F5F5F5F5F5F5F5F5F5F5F5F5F5F5F5F5F5F5F5F5F5F5F5F5F5F5F5F5F5F5F5F5F5F5F5F5F5F5F5F5F5F5F5F5F5F5F5F5F5F5F5F5F5F5F5F5F5F5F5F5F5F5F5F5F5F5F5F5F5F5F5F5F5F5F5F5F5F5F5F5F5F5F5F5F5F5F5F5F5F5F5F5F5E2F5F5F5F5F5F5F5F5F5F5F5F5F5F5E2F5F5F5F5F5F5F5F5F5F5F5
310
E2E2E2F5F5F5F5F5F5F5F5F5F5F5F5F5F5F5F5F5F5F5F5F5F5F5F5F5F5E2F5F5F5F5F5F5F5F5F5F5F5F5F5F5F5F5F5F5F5F5F5F5F5F5F5F5F5F5F5F5F5F5F5F5F5F5F5F5F5F5F5F5F5F5F5F5F5F5F5F5F5F5F5F5F5F5F5F5F5F5F5F5F5F5F5F5F5F5F5F5F5F5F5F5F5F5F5F5F5F5F5F5F5F5F5F5F5F5F5F5F5F5F5F5F5F5F5
310
F5F5F5F5F5F5F5F5F5F5F5F5F5F5F5F5F5F5F5F5F5F5F5F5F5F5E2F5F5F5F5F5F5F5F5F5F5F5F5F5F5F5F5F5F5F5F5F5F5F5F5F5F5E2E2E2F5F5F5F5F5F5F5F5F5F5F5F5F5F5F5F5F5F5F5F5F5F5F5F5F5F5E2F5F5F5F5F5F5F5F5F5F5F5F5F5F5F5F5F5F5F5F5F5F5F5F5F5F5F5F5F5F5F5F5F5F5F5F5F5F5F5F5F5F5F5F5
310
F5F5F5F5F5F5F5F5F5F5F5F5F5F5F5F5F5F5F5F5F5F5F5F5F5F5F5F5F5F5F5F5F5F5F5F5F5F5F5F5F5F5F5F5F5F5F5F5F5F5F5F5F5F5F5F5F5F5F5F5F5F5F5F5F5F5F5F5F5F5F5F5F5F5F5F5F5F5F5E2F5F5F5F5F5F5F5F5F5F5F5F5F5F5F5F5F5F5F5F5F5F5F5F5F5F5E2E2E2F5F5F5F5F5F5F5F5F5F5F5F5F5F5F5F5F5F5
310
F5F5F5F5F5F5F5F5E2F5F5F5F5F5F5F5F5F5F5F5F5F5F5F5F5F5F5F5F5F5F5F5F5F5F5F5F5F5F5F5F5F5F5F5F5F5F5F5F5F5F5F5F5F5F5F5F5F5F5F5F5F5F5F5F5F5F5F5F5F5F5F5F5F5F5F5F5F5F5F5F5F5F5F5F5F5F5F5F5F5F5F5F5F5F5F5F5F5F5F5F5F5F5F5F5F5F5F5F5F5F5F5F5F5F5F5F5F5F5F5F5F5F5F5F5F5F5
310
F5F5F5F5F5E2F5F5F5F5F5F5F5F5F5F5F5F5F5F5F5F5F5F5F5F5F5F5F5F5F5F5E2E2E2F5F5F5F5F5F5F5F5F5F5F5F5F5F5F5F5F5F5F5F5F5F5F5F5F5F5E2F5F5F5F5F5F5F5F5F5F5F5F5F5F5F5F5F5F5F5F5F5F5F5F5F5F5F5F5F5F5F5F5F5F5F5F5F5F5F5F5F5F5F5F5F5F5F5F5F5F5F5F5F5F5F5F5F5F5F5F5F5F5F5F5F5
310
F5F5F5F5F5F5F5F5F5F5F5F5F5F5F5F5F5F5F5F5F5F5F5F5F5F5F5F5F5F5F5F5F5F5F5F5F5F5F5F5F5F5F5F5F5F5F5F5F5F5F5F5F5F5F5F5F5F5E2F5F5F5F5F5F5F5F5F5F5F5F5F5F5F5F5F5F5F5F5F5F5F5F5F5F5E2E2E2F5F5F5F5F5F5F5F5F5F5F5F5F5F5F5F5F5F5F5F5F5F5F5F5F5F5E2F5F5F5F5F5F5F5F5F5F5F5F5
310
F5F5F5F5F5F5F5F5F5F5F5F5F5F5F5F5F5F5F5F5F5F5F5F5F5F5F5F5F5F5F5F5F5F5F5F5F5F5F5F5F5F5F5F5F5F5F5F5F5F5F5F5F5F5F5F5F5F5F5F5F5F5F5F5F5F5F5F5F5F5F5F5F5F5F5F5F5F5F5F5F5F5F5F5F5F5F5F5F5F5F5F5F5F5F5F5F5F5F5F5F5F5F5F5F5F5F5F5F5F5F5E2F5F5F5F5F5F5F5F5F5F5F5F5F5F5F5
310
F5F5F5F5F5F5F5F5F5F5F5E2E2E2F5F5F5F5F5F5F5F5F5F5F5F5F5F5F5F5F5F5F5F5F5F5F5F5F5F5E2F5F5F5F5F5F5F5F5F5F5F5F5F5F5F5F5F5F5F5F5F5F5F5F5F5F5F5F5F5F5F5F5F5F5F5F5F5F5F5F5F5F5F5F5F5F5F5F5F5F5F5F5F5F5F5F5F5F5F5F5F5F5F5F5F5F5F5F5F5F5F5F5F5F5F5F5F5F5F5F5F5F5F5F5F5F5
310
F5F5F5F5F5F5F5F5F5F5F5F5F5F5F5F5F5F5F5F5F5F5F5F5F5F5F5F5F5F5F5F5F5F5F5F5F5E2F5F5F5F5F5F5F5F5F5F5F5F5F5F5F5F5F5F5F5F5F5F5F5F5F5F5E2E2E2F5F5F5F5F5F5F5F5F5F5F5F5F5F5F5F5F5F5F5F5F5F5F5F5F5F5E2F5F5F5F5F5F5F5F5F5F5F5F5F5F5F5F5F5F5F5F5F5F5F5F5F5F5F5F5F5F5F5F5F5
310
F5F5F5F5F5F5F5F5F5F5F5F5F5F5F5F5F5F5F5F5F5F5F5F5F5F5F5F5F5F5F5F5F5F5F5F5F5F5F5F5F5F5F5F5F5F5F5F5F5F5F5F5F5F5F5F5F5F5F5F5F5F5F5F5F5F5F5F5F5F5F5F5F5F5F5F5F5F5F5F5F5F5F5F5F5F5F5F5F5F5E2F5F5F5F5F5F5F5F5F5F5F5F5F5F5F5F5F5F5F5F5F5F5F5F5F5F5E2E2E2F5F5F5F5F5F5F5
310
F5F5F5F5F5F5F5F5F5F5F5F5F5F5F5F5F5F5F5E2F5F5F5F5F5F5F5F5F5F5F5F5F5F5F5F5F5F5F5F5F5F5F5F5F5F5F5F5F5F5F5F5F5F5F5F5F5F5F5F5F5F5F5F5F5F5F5F5F5F5F5F5F5F5F5F5F5F5F5F5F5F5F5F5F5F5F5F5F5F5F5F5F5F5F5F5F5F5F5F5F5F5F5F5F5F5F5F5F5F5F5F5F5F5F5F5F5F5F5F5F5F5F5F5F5F5F5
310
F5F5F5F5F5F5F5F5F5F5F5F5F5F5F5F5E2F5F5F5F5F5F5F5F5F5F5F5F5F5F5F5F5F5F5F5F5F5F5F5F5F5F5E2E2E2F5F5F5F5F5F5F5F5F5F5F5E2F5F5F5F5F5F5F5F5F5F5F5F5F5F5E2F5F5F5F5F5F5F5F5F5F5F5F5F5F5F5F5F5F5F5F5F5F5F5F5F5F5F5F5F5F5F5F5F5F5F5F5F5F5F5F5F5F5F5F5F5F5F5F5F5F5F5F5F5F5
310
F5F5F5F5F5F5F5F5F5F5F5F5F5F5F5F5F5F5F5F5F5F5F5F5F5F5F5F5F5F5F5F5F5F5F5F5F5F5F5F5F5F5F5F5F5F5F5F5F5F5F5F5F5F5F5F5F5F5F5F5F5F5F5F5F5F5F5F5F5E2F5F5F5F5F5F5F5F5F5F5F5F5F5F5E2F5F5F5F5F5F5F5F5F5F5F5E2E2E2F5F5F5F5F5F5F5F5F5F5F5E2F5F5F5F5F5F5F5F5F5F5F5F5F5F5E2F5
310
F5F5F5F5F5F5F5F5F5F5F5F5F5F5F5F5F5F5F5F5F5F5F5F5F5F5F5F5F5F5F5F5F5F5F5F5F5F5F5F5F5F5F5F5F5F5F5F5F5F5F5F5F5F5F5F5F5F5F5F5F5F5F5F5F5F5F5F5F5F5F5F5F5F5F5F5F5F5F5F5F5F5F5F5F5F5F5F5F5F5F5F5F5F5F5F5F5F5F5F5F5F5F5F5F5F5F5F5F5F5F5F5F5F5F5F5F5F5F5F5F5F5E2F5F5F5F5
310
F5F5F5F5F5F5F5F5F5F5E2F5F5F5F5F5F5F5F5F5F5F5E2E2E2F5F5F5F5F5F5F5F5F5F5F5E2F5F5F5F5F5F5F5F5F5F5F5F5F5F5E2F5F5F5F5F5F5F5F5F5F5F5F5F5F5F5F5F5F5F5F5F5F5F5F5F5F5F5F5F5F5F5F5F5F5F5F5F5F5F5F5F5F5F5F5F5F5F5F5F5F5F5F5F5F5F5F5F5F5F5F5F5F5F5F5F5F5F5F5F5F5F5F5F5F5F5
310
F5F5F5F5F5F5F5F5F5F5F5F5F5F5F5F5F5F5F5F5F5F5F5F5F5F5F5F5F5F5F5F5F5F5F5F5F5F5F5F5F5F5F5F5F5F5F5F5E2F5F5F5F5F5F5F5F5F5F5F5F5F5F5E2F5F5F5F5F5F5F5F5F5F5F5E2E2E2F5F5F5F5F5F5F5F5F5F5F5E2F5F5F5F5F5F5F5F5F5F5F5F5F5F5E2F5F5F5F5F5F5F5F5F5F5F5F5F5F5F5F5F5F5F5F5F5F5
310
F5F5F5F5F5F5F5F5F5F5F5F5F5F5F5F5F5F5F5F5F5F5F5F5F5F5F5F5F5F5F5F5F5F5F5F5F5F5F5F5F5F5F5F5F5F5F5F5F5F5F5F5F5F5F5F5F5F5F5F5F5F5F5F5F5F5F5F5F5F5F5F5F5F5F5F5F5F5F5F5F5F5F5F5F5F5F5F5F5F5F5F5F5F5F5F5F5F5F5F5F5E2F5F5F5F5F5F5F5F5F5F5F5F5F5F5E2F5F5F5F5F5F5F5F5F5F5
310
F5E2E2E2F5F5F5F5F5F5F5F5F5F5F5E2F5F5F5F5F5F5F5F5F5F5F5F5F5F5E2F5F5F5F5F5F5F5F5F5F5F5F5F5F5F5F5F5F5F5F5F5F5F5F5F5F5F5F5F5F5F5F5F5F5F5F5F5F5F5F5F5F5F5F5F5F5F5F5F5F5F5F5F5F5F5F5F5F5F5F5F5F5F5F5F5F5F5F5F5F5F5F5F5F5F5F5F5F5F5F5F5F5F5F5F5F5F5F5F5F5F5F5F5F5F5F5
310
F5F5F5F5F5F5F5F5F5F5F5F5F5F5F5F5F5F5F5F5F5F5F5F5F5F5F5E2F5F5F5F5F5F5F5F5F5F5F5F5F5F5E2F5F5F5F5F5F5F5F5F5F5F5E2E2E2F5F5F5F5F5F5F5F5F5F5F5E2F5F5F5F5F5F5F5F5F5F5F5F5F5F5E2F5F5F5F5F5F5F5F5F5F5F5F5F5F5F5F5F5F5F5F5F5F5F5F5F5F5F5F5F5F5F5F5F5F5F5F5F5F5F5F5F5F5F5
310
F5F5F5F5F5F5F5F5F5F5F5F5F5F5F5F5F5F5F5F5F5F5F5F5F5F5F5F5F5F5F5F5F5F5F5F5F5F5F5F5F5F5F5F5F5F5F5F5F5F5F5F5F5F5F5F5F5F5F5F5F5F5F5F5F5F5F5F5F5F5F5F5F5F5F5F5F5F5F5F5E2F5F5F5F5F5F5F5F5F5F5F5F5F5F5E2F5F5F5F5F5F5F5F5F5F5F5E2E2E2F5F5F5F5F5F5F5F5F5F5F5E2F5F5F5F5F5
310
F5F5F5F5F5F5F5F5F5E2F5F5F5F5F5F5F5F5F5F5F5F5F5F5F5F5F5F5F5F5F5F5F5F5F5F5F5F5F5F5F5F5F5F5F5F5F5F5F5F5F5F5F5F5F5F5F5F5F5F5F5F5F5F5F5F5F5F5F5F5F5F5F5F5F5F5F5F5F5F5F5F5F5F5F5F5F5F5F5F5F5F5F5F5F5F5F5F5F5F5F5F5F5F5F5F5F5F5F5F5F5F5F5F5F5F5F5F5F5F5F5F5F5F5F5F5F5
310
F5F5F5F5F5F5E2F5F5F5F5F5F5F5F5F5F5F5F5F5F5E2F5F5F5F5F5F5F5F5F5F5F5E2E2E2F5F5F5F5F5F5F5F5F5F5F5E2F5F5F5F5F5F5F5F5F5F5F5F5F5F5E2F5F5F5F5F5F5F5F5F5F5F5F5F5F5F5F5F5F5F5F5F5F5F5F5F5F5F5F5F5F5F5F5F5F5F5F5F5F5F5F5F5F5F5F5F5F5F5F5F5F5F5F5F5F5F5F5F5F5F5F5F5F5F5F5
310
F5F5F5F5F5F5F5F5F5F5F5F5F5F5F5F5F5F5F5F5F5F5F5F5F5F5F5F5F5F5F5F5F5F5F5F5F5F5F5F5F5F5F5F5F5F5F5F5F5F5F5F5F5F5F5F5F5F5F5E2F5F5F5F5F5F5F5F5F5F5F5F5F5F5E2F5F5F5F5F5F5F5F5F5F5F5E2E2E2F5F5F5F5F5F5F5F5F5F5F5E2F5F5F5F5F5F5F5F5F5F5F5F5F5F5E2F5F5F5F5F5F5F5F5F5F5F5
310
F5F5F5F5F5F5F5F5F5F5F5F5F5F5F5F5F5F5F5F5F5F5F5F5F5F5F5F5F5F5F5F5F5F5F5F5F5F5F5F5F5F5F5F5F5F5F5F5F5F5F5F5F5F5F5F5F5F5F5F5F5F5F5F5F5F5F5F5F5F5F5F5F5F5F5F5F5F5F5F5F5F5F5F5F5F5F5F5F5F5F5F5F5F5F5F5F5F5F5F5F5F5F5F5F5F5F5F5F5F5F5F5E2F5F5F5F5F5F5F5F5F5F5F5F5F5F5
310
E2F5F5F5F5F5F5F5F5F5F5F5E2E2E2F5F5F5F5F5F5F5F5F5F5F5E2F5F5F5F5F5F5F5F5F5F5F5F5F5F5E2F5F5F5F5F5F5F5F5F5F5F5F5F5F5F5F5F5F5F5F5F5F5F5F5F5F5F5F5F5F5F5F5F5F5F5F5F5F5F5F5F5F5F5F5F5F5F5F5F5F5F5F5F5F5F5F5F5F5F5F5F5F5F5F5F5F5F5F5F5F5F5F5F5F5F5F5F5F5F5F5F5F5F5F5F5
310
F5F5F5F5F5F5F5F5F5F5F5F5F5F5F5F5F5F5F5F5F5F5F5F5F5F5F5F5F5F5F5F5F5F5F5F5F5F5E2F5F5F5F5F5F5F5F5F5F5F5F5F5F5E2F5F5F5F5F5F5F5F5F5F5F5E2E2E2F5F5F5F5F5F5F5F5F5F5F5E2F5F5F5F5F5F5F5F5F5F5F5F5F5F5E2F5F5F5F5F5F5F5F5F5F5F5F5F5F5F5F5F5F5F5F5F5F5F5F5F5F5F5F5F5F5F5F5
310
F5F5F5F5F5F5F5F5F5F5F5F5F5F5F5F5F5F5F5F5F5F5F5F5F5F5F5F5F5F5F5F5F5F5F5F5F5F5F5F5F5F5F5F5F5F5F5F5F5F5F5F5F5F5F5F5F5F5F5F5F5F5F5F5F5F5F5F5F5F5F5F5F5F5F5F5F5F5F5F5F5F5F5F5F5F5F5F5F5F5F5E2F5F5F5F5F5F5F5F5F5F5F5F5F5F5E2F5F5F5F5F5F5F5F5F5F5F5E2E2E2F5F5F5F5F5F5
310
F5F5F5F5F5E2F5F5F5F5F5F5F5F5F5F5F5F5F5F5E2F5F5F5F5F5F5F5F5F5F5F5F5F5F5F5F5F5F5F5F5F5F5F5F5F5F5F5F5F5F5F5F5F5F5F5F5F5F5F5F5F5F5F5F5F5F5F5F5F5F5F5F5F5F5F5F5F5F5F5F5F5F5F5F5F5F5F5F5F5F5F5F5F5F5F5F5F5F5F5F5F5F5F5F5F5F5F5F5F5F5F5F5F5F5F5F5F5F5F5F5F5F5F5F5F5F5
310
F5F5F5F5F5F5F5F5F5F5F5F5F5F5F5F5F5E2F5F5F5F5F5F5F5F5F5F5F5F5F5F5E2F5F5F5F5F5F5F5F5F5F5F5E2E2E2F5F5F5F5F5F5F5F5F5F5F5E2F5F5F5F5F5F5F5F5F5F5F5F5F5F5E2F5F5F5F5F5F5F5F5F5F5F5F5F5F5F5F5F5F5F5F5F5F5F5F5F5F5F5F5F5F5F5F5F5F5F5F5F5F5F5F5F5F5F5F5F5F5F5F5F5F5F5F5F5
310
F5F5F5F5F5F5F5F5F5F5F5F5F5F5F5F5F5F5F5F5F5F5F5F5F5F5F5F5F5F5F5F5F5F5F5F5F5F5F5F5F5F5F5F5F5F5F5F5F5F5F5F5F5F5F5F5F5F5F5F5F5F5F5F5F5F5F5F5F5F5E2F5F5F5F5F5F5F5F5F5F5F5F5F5F5E2F5F5F5F5F5F5F5F5F5F5F5E2E2E2F5F5F5F5F5F5F5F5F5F5F5E2F5F5F5F5F5F5F5F5F5F5F5F5F5F5E2
310
F5F5F5F5F5F5F5F5F5F5F5F5F5F5F5F5F5F5F5F5F5F5F5F5F5F5F5F5F5F5F5F5F5F5F5F5F5F5F5F5F5F5F5F5F5F5F5F5F5F5F5F5F5F5F5F5F5F5F5F5F5F5F5F5F5F5F5F5F5F5F5F5F5F5F5F5F5F5F5F5F5F5F5F5F5F5F5F5F5F5F5F5F5F5F5F5F5F5F5F5F5F5F5F5F5F5F5F5F5F5F5F5F5F5F5F5F5F5F5F5F5F5F5E2F5F5F5
310
F5F5F5F5F5F5F5F5F5F5F5E2F5F5F5F5F5F5F5F5F5F5F5E2E2E2F5F5F5F5F5F5F5F5F5F5F5E2F5F5F5F5F5F5F5F5F5F5F5F5F5F5E2F5F5F5F5F5F5F5F5F5F5F5F5F5F5F5F5F5F5F5F5F5F5F5F5F5F5F5F5F5F5F5F5F5F5F5F5F5F5F5F5F5F5F5F5F5F5F5F5F5F5F5F5F5F5F5F5F5F5F5F5F5F5F5F5F5F5F5F5F5F5F5F5F5F5
310
F5F5F5F5F5F5F5F5F5F5F5F5F5F5F5F5F5F5F5F5F5F5F5F5F5F5F5F5F5F5F5F5F5F5F5F5F5F5F5F5F5F5F5F5F5F5F5F5F5E2F5F5F5F5F5F5F5F5F5F5F5F5F5F5E2F5F5F5F5F5F5F5F5F5F5F5E2E2E2F5F5F5F5F5F5F5F5F5F5F5F5F5F5F5F5F5F5F5F5F5F5F5F5F5F5E2F5F5F5F5F5F5F5F5F5F5F5F5F5F5F5F5F5F5F5F5F5
310
F5F5F5F5F5F5F5F5F5F5F5F5F5F5F5F5F5F5F5F5F5F5F5F5F5F5F5F5F5F5F5F5F5F5F5F5F5F5F5F5F5F5F5F5F5F5F5F5F5F5F5F5F5F5F5F5F5F5F5F5F5F5F5F5F5F5F5F5F5F5F5F5F5F5F5F5F5F5F5F5F5F5F5F5F5F5F5F5F5F5F5F5F5F5F5F5F5F5F5F5F5F5E2F5F5F5F5F5F5F5F5F5F5F5F5F5F5F5F5F5F5F5F5F5F5F5F5
310
F5F5E2E2E2F5F5F5F5F5F5F5F5F5F5F5F5F5F5F5F5F5F5F5F5F5F5F5F5F5F5E2F5F5F5F5F5F5F5F5F5F5F5F5F5F5F5F5F5F5F5F5F5F5F5F5F5F5F5F5F5F5F5F5F5F5F5F5F5F5F5F5F5F5F5F5F5F5F5F5F5F5F5F5F5F5F5F5F5F5F5F5F5F5F5F5F5F5F5F5F5F5F5F5F5F5F5F5F5F5F5F5F5F5F5F5F5F5F5F5F5F5F5F5F5F5F5
310
F5F5F5F5F5F5F5F5F5F5F5F5F5F5F5F5F5F5F5F5F5F5F5F5F5F5F5F5E2F5F5F5F5F5F5F5F5F5F5F5F5F5F5F5F5F5F5F5F5F5F5F5F5F5F5E2E2E2F5F5F5F5F5F5F5F5F5F5F5F5F5F5F5F5F5F5F5F5F5F5F5F5F5F5E2F5F5F5F5F5F5F5F5F5F5F5F5F5F5F5F5F5F5F5F5F5F5F5F5F5F5F5F5F5F5F5F5F5F5F5F5F5F5F5F5F5F5
310
F5F5F5F5F5F5F5F5F5F5F5F5F5F5F5F5F5F5F5F5F5F5F5F5F5F5F5F5F5F5F5F5F5F5F5F5F5F5F5F5F5F5F5F5F5F5F5F5F5F5F5F5F5F5F5F5F5F5F5F5F5F5F5F5F5F5F5F5F5F5F5F5F5F5F5F5F5F5F5F5F5E2F5F5F5F5F5F5F5F5F5F5F5F5F5F5F5F5F5F5F5F5F5F5F5F5F5F5E2E2E2F5F5F5F5F5F5F5F5F5F5F5F5F5F5F5F5
310
F5F5F5F5F5F5F5F5F5F5E2F5F5F5F5F5F5F5F5F5F5F5F5F5F5F5F5F5F5F5F5F5F5F5F5F5F5F5F5F5F5F5F5F5F5F5F5F5F5F5F5F5F5F5F5F5F5F5F5F5F5F5F5F5F5F5F5F5F5F5F5F5F5F5F5F5F5F5F5F5F5F5F5F5F5F5F5F5F5F5F5F5F5F5F5F5F5F5F5F5F5F5F5F5F5F5F5F5F5F5F5F5F5F5F5F5F5F5F5F5F5F5F5F5F5F5F5
310
F5F5F5F5F5F5F5E2F5F5F5F5F5F5F5F5F5F5F5F5F5F5F5F5F5F5F5F5F5F5F5F5F5F5E2E2E2F5F5F5F5F5F5F5F5F5F5F5F5F5F5F5F5F5F5F5F5F5F5F5F5F5F5E2E2E2E2E2E2E2E2E2E2E2E2E2E2E2E2E2E2E2E2E2E2E2E2E2E2E2E2E2E2E2E2E2E2E2E2E2E2E2E2E2E2E2E2E2E2E2E2E2E2E2E2E2E2E2E2E2E2E2E2E2E2E2E2
310
E2E2E2E2E2E2E2E2E2E2E2E2E2E2E2E2E2E2E2E2E2E2E2E2E2E2E2E2E2E2E2E2E2E2E2E2E2E2E2E2E2E2E2E2E2E2E2E2E2E2E2E2E2E2E2E2E2E2E2E2E2F5F5F5F5F5F5F5F5F5F5F5F5F5F5F5F5F5F5F5F5F5F5F5F5F5F5E2E2E2F5F5F5F5F5F5F5F5F5F5F5F5F5F5F5F5F5F5F5F5F5F5F5F5F5F5F5F5F5F5F5F5F5F5F5F5F5
310
F5F5F5F5F5F5F5F5F5F5F5F5F5F5F5F5F5F5F5F5F5F5F5F5F5F5F5F5F5F5F5F5F5F5F5F5F5F5F5F5F5F5F5F5F5F5F5F5F5F5F5F5F5F5F5F5F5F5F5F5F5F5F5F5F5F5F5F5F5F5F5F5F5F5F5F5F5F5F5F5F5F5F5F5F5F5F5F5F5F5F5F5F5F5F5F5F5F5F5F5F5F5F5F5F5F5F5F5F5F5F5F5F5F5F5F5F5F5F5F5F5F5F5F5F5F5F5
310
F5F5F5F5F5F5F5F5F5F5F5F5F5E2E2E2F5F5F5F5F5F5F5F5F5F5F5F5F5F5F5F5F5F5F5F5F5F5F5F5F5F5F5F5F5F5F5F5F5F5F5F5F5F5F5F5F5F5F5F5F5F5F5F5F5F5F5F5F5F5F5F5F5F5F5F5F5F5F5F5F5F5F5F5F5F5F5F5F5F5F5F5F5F5F5F5F5F5F5F5F5F5F5F5F5F5F5F5F5F5F5F5F5F5F5F5F5F5F5F5F5F5F5F5F5F5F5
310
F5F5F5F5F5F5F5F5F5F5F5F5F5F5F5F5F5F5F5F5F5F5F5F5F5F5F5F5F5F5F5F5F5F5F5F5F5F5F5F5F5F5F5F5F5F5F5F5F5F5F5F5F5F5F5F5F5F5F5F5F5F5F5F5F5F5E2E2E2F5F5F5F5F5F5F5F5F5F5F5F5F5F5F5F5F5F5F5F5F5F5F5F5F5F5F5F5F5F5F5F5F5F5F5F5F5F5F5F5F5F5F5F5F5F5F5F5F5F5F5F5F5F5F5F5F5F5
310
F5F5F5F5F5F5F5F5F5F5F5F5F5F5F5F5F5F5F5F5F5F5F5F5F5F5F5F5F5F5F5F5F5F5F5F5F5F5F5F5F5F5F5F5F5F5F5F5F5F5F5F5F5F5F5F5F5F5F5F5F5F5F5F5F5F5F5F5F5F5F5F5F5F5F5F5F5F5F5F5F5F5F5F5F5F5F5F5F5F5F5F5F5F5F5F5F5F5F5F5F5F5F5F5F5F5F5F5F5F5F5F5F5F5F5F5F5F5F5E2E2E2F5F5F5F5F5
310
F5F5F5F5F5F5E2F5F5F5F5F5F5F5F5F5F5F5F5F5F5F5F5F5F5F5F5F5F5F5F5F5F5F5F5F5F5F5F5F5F5F5F5F5F5F5F5F5F5F5F5F5F5F5F5F5F5F5F5F5F5F5F5F5F5F5F5F5F5F5F5F5F5F5F5F5F5F5F5F5F5F5F5F5F5F5F5F5F5F5F5F5F5F5F5F5F5F5F5F5F5F5F5F5F5F5F5F5F5F5F5F5F5F5F5F5F5F5F5F5F5F5F5F5F5F5F5
310
F5F5F5F5F5F5F5F5F5F5F5F5F5F5F5F5F5F5F5F5F5F5F5F5F5F5F5F5F5F5F5F5F5E2F5F5F5F5F5F5F5F5F5F5F5E2E2E2F5F5F5F5F5F5F5F5F5F5F5E2F5F5F5F5F5F5F5F5F5F5F5F5F5F5F5F5F5F5F5F5F5F5F5F5F5F5F5F5F5F5F5F5F5F5F5F5F5F5F5F5F5F5F5F5F5F5F5F5F5F5F5F5F5F5F5F5F5F5F5F5F5F5F5F5F5F5F5
310
F5F5F5F5F5F5F5F5F5F5F5F5F5F5F5F5F5F5F5F5F5F5F5F5F5F5F5F5F5F5F5F5F5F5F5F5F5F5F5F5F5F5F5F5F5F5F5F5F5F5F5F5F5F5F5F5F5F5F5F5F5F5F5F5F5F5F5F5F5F5F5F5F5F5F5F5F5F5F5F5F5F5F5F5F5F5E2F5F5F5F5F5F5F5F5F5F5F5E2E2E2F5F5F5F5F5F5F5F5F5F5F5E2F5F5F5F5F5F5F5F5F5F5F5F5F5F5
310
F5F5F5F5F5F5F5F5F5F5F5F5F5F5F5F5F5F5F5F5F5F5F5F5F5F5F5F5F5F5F5F5F5F5F5F5F5F5F5F5F5F5F5F5F5F5F5F5F5F5F5F5F5F5F5F5F5F5F5F5F5F5F5F5F5F5F5F5F5F5F5F5F5F5F5F5F5F5F5F5F5F5F5F5F5F5F5F5F5F5F5F5F5F5F5F5F5F5F5F5F5F5F5F5F5F5F5F5F5F5F5F5F5F5F5F5F5F5F5F5F5F5F5F5F5F5F5
310
F5F5F5F5F5F5F5F5F5F5F5F5E2F5F5F5F5F5F5F5F5F5F5F5E2E2E2F5F5F5F5F5F5F5F5F5F5F5E2F5F5F5F5F5F5F5F5F5F5F5F5F5F5F5F5F5F5F5F5F5F5F5F5F5F5F5F5F5F5F5F5F5F5F5F5F5F5F5F5F5F5F5F5F5F5F5F5F5F5F5F5F5F5F5F5F5F5F5F5F5F5F5F5F5F5F5F5F5F5F5F5F5F5F5F5F5F5F5F5F5F5F5F5F5F5F5F5
310
F5F5F5F5F5F5F5F5F5F5F5F5F5F5F5F5F5F5F5F5F5F5F5F5F5F5F5F5F5F5F5F5F5F5F5F5F5F5F5F5F5F5F5F5F5F5F5F5F5F5F5F5F5F5F5F5F5F5F5F5F5F5F5F5F5E2F5F5F5F5F5F5F5F5F5F5F5E2E2E2F5F5F5F5F5F5F5F5F5F5F5E2F5F5F5F5F5F5F5F5F5F5F5F5F5F5F5F5F5F5F5F5F5F5F5F5F5F5F5F5F5F5F5F5F5F5F5
310
F5F5F5F5F5F5F5F5F5F5F5F5F5F5F5F5F5F5F5F5F5F5F5F5F5F5F5F5F5F5F5F5F5F5F5F5F5F5F5F5F5F5F5F5F5F5F5F5F5F5F5F5F5F5F5F5F5F5F5F5F5F5F5F5F5F5F5F5F5F5F5F5F5F5F5F5F5F5F5F5F5F5F5F5F5F5F5F5F5F5F5F5F5F5F5F5F5F5F5F5F5F5F5F5F5F5F5F5F5F5F5F5F5F5F5F5F5F5E2F5F5F5F5F5F5F5F5
310
F5F5F5E2E2E2F5F5F5F5F5F5F5F5F5F5F5E2F5F5F5F5F5F5F5F5F5F5F5F5F5F5F5F5F5F5F5F5F5F5F5F5F5F5F5F5F5F5F5F5F5F5F5F5F5F5F5F5F5F5F5F5F5F5F5F5F5F5F5F5F5F5F5F5F5F5F5F5F5F5F5F5F5F5F5F5F5F5F5F5F5F5F5F5F5F5F5F5F5F5F5F5F5F5F5F5F5F5F5F5F5F5F5F5F5F5F5F5F5F5F5F5F5F5F5F5F5
310
F5F5F5F5F5F5F5F5F5F5F5F5F5F5F5F5F5F5F5F5F5F5F5F5F5F5F5F5F5F5F5F5F5F5F5F5F5F5F5F5F5F5F5F5E2F5F5F5F5F5F5F5F5F5F5F5E2E2E2F5F5F5F5F5F5F5F5F5F5F5E2F5F5F5F5F5F5F5F5F5F5F5F5F5F5F5F5F5F5F5F5F5F5F5F5F5F5F5F5F5F5F5F5F5F5F5F5F5F5F5F5F5F5F5F5F5F5F5F5F5F5F5F5F5F5F5F5
310
F5F5F5F5F5F5F5F5F5F5F5F5F5F5F5F5F5F5F5F5F5F5F5F5F5F5F5F5F5F5F5F5F5F5F5F5F5F5F5F5F5F5F5F5F5F5F5F5F5F5F5F5F5F5F5F5F5F5F5F5F5F5F5F5F5F5F5F5F5F5F5F5F5F5F5F5F5F5F5F5F5F5F5F5F5F5F5F5F5F5F5F5F5F5F5F5F5E2F5F5F5F5F5F5F5F5F5F5F5E2E2E2F5F5F5F5F5F5F5F5F5F5F5E2E2E2E2
310
E2E2E2E2E2F5F5F5F5F5F5F5F5F5E2E2E2E2E2E2E2E2E2E2E2E2E2E2E2E2F5F5F5F5F5F5F5F5F5F5E2E2E2E2E2E2E2E2E2E2E2E2E2E2E2E2F5F5F5F5F5F5F5F5F5E2E2E2E2E2E2E2E2E2E2E2E2E2E2E2E2E2F5F5F5F5F5F5F5F5F5E2E2E2E2E2E2E2E2E2E2E2E2E2E2E2E2F5F5F5F5F5F5F5F5F5F5E2E2E2E2E2E2E2E2E2E2
310
E2E2E2E2E2E2F5F5F5F5F5F5F5F5F5E2E2E2E2E2E2E2E2E2F5F5F5F5F5F5F5F5F5F5F5E2E2E2F5F5F5F5F5F5F5F5F5F5F5F5F5F5F5F5F5F5F5F5F5F5F5F5F5F5F5F5F5F5F5F5F5F5F5F5F5F5F5F5F5F5F5F5F5F5F5F5F5F5F5F5F5F5F5F5F5F5F5F5F5F5F5F5F5F5F5F5F5F5F5F5F5F5F5F5F5F5F5F5F5F5F5F5F5F5F5F5F5
310
F5F5F5F5F5F5F5F5F5F5F5F5F5F5F5F5F5F5F5F5F5F5F5F5F5F5F5F5F5F5F5F5F5F5F5F5F5F5F5F5F5F5F5F5F5F5F5F5F5F5F5F5F5F5F5F5F5F5F5F5F5F5F5F5F5F5F5F5F5F5F5F5F5F5F5F5F5F5F5F5F5F5F5F5F5F5F5F5E2E2E2F5F5F5F5F5F5F5F5F5F5F5F5F5F5F5F5F5F5F5F5F5F5F5F5F5F5F5F5F5F5F5F5F5F5F5F5
310
F5F5F5F5F5F5F5F5F5F5F5F5F5F5F5F5F5F5F5F5F5F5F5F5F5F5F5F5F5F5F5F5F5F5F5F5F5F5F5F5F5F5F5F5F5F5F5F5F5F5F5F5F5F5F5F5F5F5F5F5F5F5F5F5F5F5F5F5F5F5F5F5F5F5F5F5F5F5F5F5F5F5F5F5F5F5F5F5F5F5F5F5F5F5F5F5F5F5F5F5F5F5F5F5F5F5F5F5F5F5F5F5F5F5F5F5F5F5F5F5F5F5F5F5F5F5F5
310
F5F5F5F5F5F5F5F5F5F5F5F5F5F5E2E2E2F5F5F5F5F5F5F5F5F5F5F5F5F5F5F5F5F5F5F5F5F5F5F5F5F5F5F5F5F5F5F5F5F5F5F5F5F5F5F5F5F5F5F5F5F5F5F5F5F5F5F5F5F5F5F5F5F5F5F5F5F5F5F5F5F5F5F5F5F5F5F5F5F5F5F5F5F5F5F5F5F5F5F5F5F5F5F5F5F5F5F5F5F5F5F5F5F5F5F5F5F5F5F5F5F5F5F5F5F5F5
310
F5F5F5F5F5F5F5F5F5F5F5F5F5F5F5F5F5F5F5F5F5F5F5F5F5F5F5F5F5F5F5F5F5F5F5F5F5F5F5F5F5F5F5F5F5F5F5F5F5F5F5F5F5F5F5F5F5F5F5F5F5F5F5F5F5F5F5E2E2E2F5F5F5F5F5F5F5F5F5F5F5F5F5F5F5F5F5F5F5F5F5F5F5F5F5F5F5F5F5F5F5F5F5F5F5F5F5F5F5F5F5F5F5F5F5F5F5F5F5F5F5F5F5F5F5F5F5
310
F5F5F5F5F5F5F5F5F5F5F5F5F5F5F5F5F5F5F5F5F5F5F5F5F5F5F5F5F5F5F5F5F5F5F5F5F5F5F5F5F5F5F5F5F5F5F5F5F5F5F5F5F5F5F5F5F5F5F5F5F5F5F5F5F5F5F5F5F5F5F5F5F5F5F5F5F5F5F5F5F5F5F5F5F5F5F5F5F5F5F5F5F5F5F5F5F5F5F5F5F5F5F5F5F5F5F5F5F5F5F5F5F5F5F5F5F5F5F5F5E2EFE2E2E2E2E2
310
E2E2E2E2E2E2E2E2E2E2E2E2E2E2E2E2E2E2E2E2E2E2E2E2E2E2E2E2E2E2E2E2E2E2E2E2E2E2E2E2E2E2E2E2E2E2E2E2E2E2E2E2E2E2E2E2E2E2E2E2E2E2E2E2E2E2E2E2E2E2E2E2E2E2E2E2E2E2E2E2E2E2E2E2E2E2E2E2E2E2E2E2E2E2E2E2E2E2E2E2E2E2E2E2E2E2E2E2E2E2E2E2E2E2E2E2E2E2E2E2E2E2E2E2E2E2E2
310
E2E2E2E2E2E2E2E2E2E2E2E2E2E2E2E2E2E2E2E2E2E2E2E2E2E2E2E2E2E2E2E2E2E2E2E2E2E2E2E2E2E2E2E2E2E2E2EF
  0
XRECORD
  5
CDCF
102
{ACAD_REACTORS
330
CD97
102
}
330
CD97
100
AcDbXrecord
280
     1
102
MATERIAL
148
0.0
149
0.0
149
0.0
 93
        0
 94
      127
282
     0
 72
     0
 77
     0
171
     0
175
     0
179
     0
273
     0
  0
XRECORD
  5
CD98
102
{ACAD_REACTORS
330
CD97
102
}
330
CD97
100
AcDbXrecord
280
     1
270
     1
271
     1
  0
XRECORD
  5
CD99
102
{ACAD_REACTORS
330
CD97
102
}
330
CD97
100
AcDbXrecord
280
     1
270
     1
271
     1
  0
XRECORD
  5
CD9A
102
{ACAD_REACTORS
330
CD97
102
}
330
CD97
100
AcDbXrecord
280
     1
270
     1
271
     1
  0
XRECORD
  5
CD9B
102
{ACAD_REACTORS
330
CD97
102
}
330
CD97
100
AcDbXrecord
280
     1
270
     1
271
     1
  0
XRECORD
  5
CD9C
102
{ACAD_REACTORS
330
CD97
102
}
330
CD97
100
AcDbXrecord
280
     1
270
     1
271
     1
  0
XRECORD
  5
CD9D
102
{ACAD_REACTORS
330
CD97
102
}
330
CD97
100
AcDbXrecord
280
     1
270
     1
271
     1
  0
XRECORD
  5
CDCE
102
{ACAD_REACTORS
330
CD8F
102
}
330
CD8F
100
AcDbXrecord
280
     1
102
MATERIAL
148
0.0
149
0.0
149
0.0
 93
        0
 94
      127
282
     0
 72
     0
 77
     0
171
     0
175
     0
179
     0
273
     0
  0
XRECORD
  5
CD90
102
{ACAD_REACTORS
330
CD8F
102
}
330
CD8F
100
AcDbXrecord
280
     1
270
     1
271
     1
  0
XRECORD
  5
CD91
102
{ACAD_REACTORS
330
CD8F
102
}
330
CD8F
100
AcDbXrecord
280
     1
270
     1
271
     1
  0
XRECORD
  5
CD92
102
{ACAD_REACTORS
330
CD8F
102
}
330
CD8F
100
AcDbXrecord
280
     1
270
     1
271
     1
  0
XRECORD
  5
CD93
102
{ACAD_REACTORS
330
CD8F
102
}
330
CD8F
100
AcDbXrecord
280
     1
270
     1
271
     1
  0
XRECORD
  5
CD94
102
{ACAD_REACTORS
330
CD8F
102
}
330
CD8F
100
AcDbXrecord
280
     1
270
     1
271
     1
  0
XRECORD
  5
CD95
102
{ACAD_REACTORS
330
CD8F
102
}
330
CD8F
100
AcDbXrecord
280
     1
270
     1
271
     1
  0
XRECORD
  5
CDCB
102
{ACAD_REACTORS
330
CD65
102
}
330
CD65
100
AcDbXrecord
280
     1
102
MATERIAL
148
0.0
149
0.0
149
0.0
 93
        0
 94
      127
282
     0
 72
     0
 77
     0
171
     0
175
     0
179
     0
273
     0
  0
XRECORD
  5
CD66
102
{ACAD_REACTORS
330
CD65
102
}
330
CD65
100
AcDbXrecord
280
     1
270
     1
271
     1
  0
XRECORD
  5
CD67
102
{ACAD_REACTORS
330
CD65
102
}
330
CD65
100
AcDbXrecord
280
     1
270
     1
271
     1
  0
XRECORD
  5
CD68
102
{ACAD_REACTORS
330
CD65
102
}
330
CD65
100
AcDbXrecord
280
     1
270
     1
271
     1
  0
XRECORD
  5
CD69
102
{ACAD_REACTORS
330
CD65
102
}
330
CD65
100
AcDbXrecord
280
     1
270
     1
271
     1
  0
XRECORD
  5
CD6A
102
{ACAD_REACTORS
330
CD65
102
}
330
CD65
100
AcDbXrecord
280
     1
270
     1
271
     1
  0
XRECORD
  5
CD6B
102
{ACAD_REACTORS
330
CD65
102
}
330
CD65
100
AcDbXrecord
280
     1
270
     1
271
     1
  0
CELLSTYLEMAP
  5
CDC9
102
{ACAD_REACTORS
330
CDC8
102
}
330
CDC8
100
AcDbCellStyleMap
 90
        3
300
CELLSTYLE
  1
TABLEFORMAT_BEGIN
 90
        5
170
     1
 91
        0
 92
    32768
 62
   257
 93
        1
300
CONTENTFORMAT
  1
CONTENTFORMAT_BEGIN
 90
        0
 91
        0
 92
        4
 93
        0
300

 40
0.0
140
1.0
 94
        5
 62
     0
340
CD7B
144
6.0
309
CONTENTFORMAT_END
171
     1
301
MARGIN
  1
CELLMARGIN_BEGIN
 40
1.5
 40
1.5
 40
1.5
 40
1.5
 40
0.18
 40
0.18
309
CELLMARGIN_END
 94
        6
 95
        1
302
GRIDFORMAT
  1
GRIDFORMAT_BEGIN
 90
        0
 91
        1
 62
     0
 92
       -2
340
0
 93
        0
 40
0.045
309
GRIDFORMAT_END
 95
        2
302
GRIDFORMAT
  1
GRIDFORMAT_BEGIN
 90
        0
 91
        1
 62
     0
 92
       -2
340
0
 93
        0
 40
0.045
309
GRIDFORMAT_END
 95
        4
302
GRIDFORMAT
  1
GRIDFORMAT_BEGIN
 90
        0
 91
        1
 62
     0
 92
       -2
340
0
 93
        0
 40
0.045
309
GRIDFORMAT_END
 95
        8
302
GRIDFORMAT
  1
GRIDFORMAT_BEGIN
 90
        0
 91
        1
 62
     0
 92
       -2
340
0
 93
        0
 40
0.045
309
GRIDFORMAT_END
 95
       16
302
GRIDFORMAT
  1
GRIDFORMAT_BEGIN
 90
        0
 91
        1
 62
     0
 92
       -2
340
0
 93
        0
 40
0.045
309
GRIDFORMAT_END
 95
       32
302
GRIDFORMAT
  1
GRIDFORMAT_BEGIN
 90
        0
 91
        1
 62
     0
 92
       -2
340
0
 93
        0
 40
0.045
309
GRIDFORMAT_END
309
TABLEFORMAT_END
  1
CELLSTYLE_BEGIN
 90
        1
 91
        1
300
_TITLE
309
CELLSTYLE_END
300
CELLSTYLE
  1
TABLEFORMAT_BEGIN
 90
        5
170
     1
 91
        0
 92
        0
 62
   257
 93
        1
300
CONTENTFORMAT
  1
CONTENTFORMAT_BEGIN
 90
        0
 91
        0
 92
        4
 93
        0
300

 40
0.0
140
1.0
 94
        5
 62
     0
340
CD7B
144
4.5
309
CONTENTFORMAT_END
171
     1
301
MARGIN
  1
CELLMARGIN_BEGIN
 40
1.5
 40
1.5
 40
1.5
 40
1.5
 40
0.18
 40
0.18
309
CELLMARGIN_END
 94
        6
 95
        1
302
GRIDFORMAT
  1
GRIDFORMAT_BEGIN
 90
        0
 91
        1
 62
     0
 92
       -2
340
0
 93
        0
 40
0.045
309
GRIDFORMAT_END
 95
        2
302
GRIDFORMAT
  1
GRIDFORMAT_BEGIN
 90
        0
 91
        1
 62
     0
 92
       -2
340
0
 93
        0
 40
0.045
309
GRIDFORMAT_END
 95
        4
302
GRIDFORMAT
  1
GRIDFORMAT_BEGIN
 90
        0
 91
        1
 62
     0
 92
       -2
340
0
 93
        0
 40
0.045
309
GRIDFORMAT_END
 95
        8
302
GRIDFORMAT
  1
GRIDFORMAT_BEGIN
 90
        0
 91
        1
 62
     0
 92
       -2
340
0
 93
        0
 40
0.045
309
GRIDFORMAT_END
 95
       16
302
GRIDFORMAT
  1
GRIDFORMAT_BEGIN
 90
        0
 91
        1
 62
     0
 92
       -2
340
0
 93
        0
 40
0.045
309
GRIDFORMAT_END
 95
       32
302
GRIDFORMAT
  1
GRIDFORMAT_BEGIN
 90
        0
 91
        1
 62
     0
 92
       -2
340
0
 93
        0
 40
0.045
309
GRIDFORMAT_END
309
TABLEFORMAT_END
  1
CELLSTYLE_BEGIN
 90
        2
 91
        1
300
_HEADER
309
CELLSTYLE_END
300
CELLSTYLE
  1
TABLEFORMAT_BEGIN
 90
        5
170
     1
 91
        0
 92
        0
 62
   257
 93
        1
300
CONTENTFORMAT
  1
CONTENTFORMAT_BEGIN
 90
        0
 91
        0
 92
        4
 93
        0
300

 40
0.0
140
1.0
 94
        2
 62
     0
340
CD7B
144
4.5
309
CONTENTFORMAT_END
171
     1
301
MARGIN
  1
CELLMARGIN_BEGIN
 40
1.5
 40
1.5
 40
1.5
 40
1.5
 40
0.18
 40
0.18
309
CELLMARGIN_END
 94
        6
 95
        1
302
GRIDFORMAT
  1
GRIDFORMAT_BEGIN
 90
        0
 91
        1
 62
     0
 92
       -2
340
0
 93
        0
 40
0.045
309
GRIDFORMAT_END
 95
        2
302
GRIDFORMAT
  1
GRIDFORMAT_BEGIN
 90
        0
 91
        1
 62
     0
 92
       -2
340
0
 93
        0
 40
0.045
309
GRIDFORMAT_END
 95
        4
302
GRIDFORMAT
  1
GRIDFORMAT_BEGIN
 90
        0
 91
        1
 62
     0
 92
       -2
340
0
 93
        0
 40
0.045
309
GRIDFORMAT_END
 95
        8
302
GRIDFORMAT
  1
GRIDFORMAT_BEGIN
 90
        0
 91
        1
 62
     0
 92
       -2
340
0
 93
        0
 40
0.045
309
GRIDFORMAT_END
 95
       16
302
GRIDFORMAT
  1
GRIDFORMAT_BEGIN
 90
        0
 91
        1
 62
     0
 92
       -2
340
0
 93
        0
 40
0.045
309
GRIDFORMAT_END
 95
       32
302
GRIDFORMAT
  1
GRIDFORMAT_BEGIN
 90
        0
 91
        1
 62
     0
 92
       -2
340
0
 93
        0
 40
0.045
309
GRIDFORMAT_END
309
TABLEFORMAT_END
  1
CELLSTYLE_BEGIN
 90
        3
 91
        2
300
_DATA
309
CELLSTYLE_END
  0
XRECORD
  5
CDD0
102
{ACAD_REACTORS
330
CDC8
102
}
330
CDC8
100
AcDbXrecord
280
     1
102
ACAD_ROUNDTRIP_PRE2007_TABLESTYLE
 90
        4
 91
        0
  1

 92
        4
 93
        0
  2

 94
        4
 95
        0
  3

  0
XRECORD
  5
CDCD
102
{ACAD_REACTORS
330
CDCC
102
}
330
CDCC
100
AcDbXrecord
280
     1
102
RTVSPropertyOp0
 70
     1
102
RTVSPropertyOp1
 70
     1
102
RTVSPropertyOp2
 70
     1
102
RTVSPropertyOp3
 70
     1
102
RTVSPropertyOp4
 70
     1
102
RTVSPropertyOp5
 70
     1
102
RTVSPropertyOp6
 70
     1
102
RTVSPropertyOp7
 70
     1
102
RTVSPropertyOp8
 70
     1
102
RTVSPropertyOp9
 70
     1
102
RTVSPropertyOp10
 70
     1
102
RTVSPropertyOp11
 70
     1
102
RTVSPropertyOp12
 70
     1
102
RTVSPropertyOp13
 70
     1
102
RTVSPropertyOp14
 70
     1
102
RTVSPropertyOp15
 70
     1
102
RTVSPropertyOp16
 70
     1
102
RTVSPropertyOp17
 70
     1
102
RTVSPropertyOp18
 70
     1
102
RTVSPropertyOp19
 70
     1
102
RTVSPropertyOp20
 70
     1
102
RTVSPropertyOp21
 70
     1
102
RTVSPropertyOp22
 70
     1
102
RTVSPropertyOp23
 70
     1
102
RTVSPropertyOp24
 70
     1
102
RTVSPropertyOp25
 70
     1
102
RTVSPropertyOp26
 70
     1
102
RTVSPropertyOp27
 70
     1
  0
XRECORD
  5
CDD4
102
{ACAD_REACTORS
330
CDD3
102
}
330
CDD3
100
AcDbXrecord
280
     1
102
RTVSPropertyOp0
 70
     1
102
RTVSPropertyOp1
 70
     1
102
RTVSPropertyOp2
 70
     1
102
RTVSPropertyOp3
 70
     1
102
RTVSPropertyOp4
 70
     1
102
RTVSPropertyOp5
 70
     1
102
RTVSPropertyOp6
 70
     1
102
RTVSPropertyOp7
 70
     1
102
RTVSPropertyOp8
 70
     1
102
RTVSPropertyOp9
 70
     1
102
RTVSPropertyOp10
 70
     1
102
RTVSPropertyOp11
 70
     1
102
RTVSPropertyOp12
 70
     1
102
RTVSPropertyOp13
 70
     1
102
RTVSPropertyOp14
 70
     1
102
RTVSPropertyOp15
 70
     1
102
RTVSPropertyOp16
 70
     1
102
RTVSPropertyOp17
 70
     1
102
RTVSPropertyOp18
 70
     1
102
RTVSPropertyOp19
 70
     1
102
RTVSPropertyOp20
 70
     1
102
RTVSPropertyOp21
 70
     1
102
RTVSPropertyOp22
 70
     1
102
RTVSPropertyOp23
 70
     1
102
RTVSPropertyOp24
 70
     1
102
RTVSPropertyOp25
 70
     1
102
RTVSPropertyOp26
 70
     1
102
RTVSPropertyOp27
 70
     1
  0
XRECORD
  5
CDD2
102
{ACAD_REACTORS
330
CDD1
102
}
330
CDD1
100
AcDbXrecord
280
     1
102
RTVSPropertyOp0
 70
     1
102
RTVSPropertyOp1
 70
     1
102
RTVSPropertyOp2
 70
     1
102
RTVSPropertyOp3
 70
     1
102
RTVSPropertyOp4
 70
     1
102
RTVSPropertyOp5
 70
     1
102
RTVSPropertyOp6
 70
     1
102
RTVSPropertyOp7
 70
     1
102
RTVSPropertyOp8
 70
     1
102
RTVSPropertyOp9
 70
     1
102
RTVSPropertyOp10
 70
     1
102
RTVSPropertyOp11
 70
     1
102
RTVSPropertyOp12
 70
     1
102
RTVSPropertyOp13
 70
     1
102
RTVSPropertyOp14
 70
     1
102
RTVSPropertyOp15
 70
     1
102
RTVSPropertyOp16
 70
     1
102
RTVSPropertyOp17
 70
     1
102
RTVSPropertyOp18
 70
     1
102
RTVSPropertyOp19
 70
     1
102
RTVSPropertyOp20
 70
     1
102
RTVSPropertyOp21
 70
     1
102
RTVSPropertyOp22
 70
     1
102
RTVSPropertyOp23
 70
     1
102
RTVSPropertyOp24
 70
     1
102
RTVSPropertyOp25
 70
     1
102
RTVSPropertyOp26
 70
     1
102
RTVSPropertyOp27
 70
     1
  0
ENDSEC
  0
EOF
